  0
SECTION
  2
HEADER
  9
$ACADVER
  1
AC1015
  9
$ACADMAINTVER
 70
     6
  9
$DWGCODEPAGE
  3
ANSI_1252
  9
$INSBASE
 10
0.0
 20
0.0
 30
0.0
  9
$EXTMIN
 10
1.000000E+20
 20
1.000000E+20
 30
1.000000E+20
  9
$EXTMAX
 10
-1.000000E+20
 20
-1.000000E+20
 30
-1.000000E+20
  9
$LIMMIN
 10
0.0
 20
0.0
  9
$LIMMAX
 10
215.9
 20
279.4
  9
$ORTHOMODE
 70
     0
  9
$REGENMODE
 70
     1
  9
$FILLMODE
 70
     1
  9
$QTEXTMODE
 70
     0
  9
$MIRRTEXT
 70
     0
  9
$LTSCALE
 40
1.0
  9
$ATTMODE
 70
     1
  9
$TEXTSIZE
 40
2.5
  9
$TRACEWID
 40
1.0
  9
$TEXTSTYLE
  7
Standard
  9
$CLAYER
  8
0
  9
$CELTYPE
  6
ByLayer
  9
$CECOLOR
 62
   256
  9
$CELTSCALE
 40
1.0
  9
$DISPSILH
 70
     0
  9
$DIMSCALE
 40
1.0
  9
$DIMASZ
 40
2.5
  9
$DIMEXO
 40
0.625
  9
$DIMDLI
 40
3.75
  9
$DIMRND
 40
0.0
  9
$DIMDLE
 40
0.0
  9
$DIMEXE
 40
1.25
  9
$DIMTP
 40
0.0
  9
$DIMTM
 40
0.0
  9
$DIMTXT
 40
2.5
  9
$DIMCEN
 40
2.5
  9
$DIMTSZ
 40
0.0
  9
$DIMTOL
 70
     0
  9
$DIMLIM
 70
     0
  9
$DIMTIH
 70
     0
  9
$DIMTOH
 70
     0
  9
$DIMSE1
 70
     0
  9
$DIMSE2
 70
     0
  9
$DIMTAD
 70
     1
  9
$DIMZIN
 70
     8
  9
$DIMBLK
  1

  9
$DIMASO
 70
     1
  9
$DIMSHO
 70
     1
  9
$DIMPOST
  1

  9
$DIMAPOST
  1

  9
$DIMALT
 70
     0
  9
$DIMALTD
 70
     3
  9
$DIMALTF
 40
0.03937
  9
$DIMLFAC
 40
1.0
  9
$DIMTOFL
 70
     1
  9
$DIMTVP
 40
0.0
  9
$DIMTIX
 70
     0
  9
$DIMSOXD
 70
     0
  9
$DIMSAH
 70
     0
  9
$DIMBLK1
  1

  9
$DIMBLK2
  1

  9
$DIMSTYLE
  2
ISO-25
  9
$DIMCLRD
 70
     0
  9
$DIMCLRE
 70
     0
  9
$DIMCLRT
 70
     0
  9
$DIMTFAC
 40
1.0
  9
$DIMGAP
 40
0.625
  9
$DIMJUST
 70
     0
  9
$DIMSD1
 70
     0
  9
$DIMSD2
 70
     0
  9
$DIMTOLJ
 70
     0
  9
$DIMTZIN
 70
     8
  9
$DIMALTZ
 70
     0
  9
$DIMALTTZ
 70
     0
  9
$DIMUPT
 70
     0
  9
$DIMDEC
 70
     2
  9
$DIMTDEC
 70
     2
  9
$DIMALTU
 70
     2
  9
$DIMALTTD
 70
     3
  9
$DIMTXSTY
  7
Standard
  9
$DIMAUNIT
 70
     0
  9
$DIMADEC
 70
     0
  9
$DIMALTRND
 40
0.0
  9
$DIMAZIN
 70
     0
  9
$DIMDSEP
 70
    44
  9
$DIMATFIT
 70
     3
  9
$DIMFRAC
 70
     0
  9
$DIMLDRBLK
  1

  9
$DIMLUNIT
 70
     2
  9
$DIMLWD
 70
    -2
  9
$DIMLWE
 70
    -2
  9
$DIMTMOVE
 70
     0
  9
$LUNITS
 70
     2
  9
$LUPREC
 70
     4
  9
$SKETCHINC
 40
1.0
  9
$FILLETRAD
 40
0.0
  9
$AUNITS
 70
     0
  9
$AUPREC
 70
     0
  9
$MENU
  1
.
  9
$ELEVATION
 40
0.0
  9
$PELEVATION
 40
0.0
  9
$THICKNESS
 40
0.0
  9
$LIMCHECK
 70
     0
  9
$CHAMFERA
 40
0.0
  9
$CHAMFERB
 40
0.0
  9
$CHAMFERC
 40
0.0
  9
$CHAMFERD
 40
0.0
  9
$SKPOLY
 70
     0
  9
$TDCREATE
 40
2453189.686266377
  9
$TDUCREATE
 40
2453189.894599711
  9
$TDUPDATE
 40
2458793.47765382
  9
$TDUUPDATE
 40
2458793.685987153
  9
$TDINDWG
 40
0.0012909606
  9
$TDUSRTIMER
 40
0.0012834259
  9
$USRTIMER
 70
     1
  9
$ANGBASE
 50
0.0
  9
$ANGDIR
 70
     0
  9
$PDMODE
 70
     0
  9
$PDSIZE
 40
0.0
  9
$PLINEWID
 40
0.0
  9
$SPLFRAME
 70
     0
  9
$SPLINETYPE
 70
     6
  9
$SPLINESEGS
 70
     8
  9
$HANDSEED
  5
2F1
  9
$SURFTAB1
 70
     6
  9
$SURFTAB2
 70
     6
  9
$SURFTYPE
 70
     6
  9
$SURFU
 70
     6
  9
$SURFV
 70
     6
  9
$UCSBASE
  2

  9
$UCSNAME
  2

  9
$UCSORG
 10
0.0
 20
0.0
 30
0.0
  9
$UCSXDIR
 10
1.0
 20
0.0
 30
0.0
  9
$UCSYDIR
 10
0.0
 20
1.0
 30
0.0
  9
$UCSORTHOREF
  2

  9
$UCSORTHOVIEW
 70
     0
  9
$UCSORGTOP
 10
0.0
 20
0.0
 30
0.0
  9
$UCSORGBOTTOM
 10
0.0
 20
0.0
 30
0.0
  9
$UCSORGLEFT
 10
0.0
 20
0.0
 30
0.0
  9
$UCSORGRIGHT
 10
0.0
 20
0.0
 30
0.0
  9
$UCSORGFRONT
 10
0.0
 20
0.0
 30
0.0
  9
$UCSORGBACK
 10
0.0
 20
0.0
 30
0.0
  9
$PUCSBASE
  2

  9
$PUCSNAME
  2

  9
$PUCSORG
 10
0.0
 20
0.0
 30
0.0
  9
$PUCSXDIR
 10
1.0
 20
0.0
 30
0.0
  9
$PUCSYDIR
 10
0.0
 20
1.0
 30
0.0
  9
$PUCSORTHOREF
  2

  9
$PUCSORTHOVIEW
 70
     0
  9
$PUCSORGTOP
 10
0.0
 20
0.0
 30
0.0
  9
$PUCSORGBOTTOM
 10
0.0
 20
0.0
 30
0.0
  9
$PUCSORGLEFT
 10
0.0
 20
0.0
 30
0.0
  9
$PUCSORGRIGHT
 10
0.0
 20
0.0
 30
0.0
  9
$PUCSORGFRONT
 10
0.0
 20
0.0
 30
0.0
  9
$PUCSORGBACK
 10
0.0
 20
0.0
 30
0.0
  9
$USERI1
 70
     0
  9
$USERI2
 70
     0
  9
$USERI3
 70
     0
  9
$USERI4
 70
     0
  9
$USERI5
 70
     0
  9
$USERR1
 40
0.0
  9
$USERR2
 40
0.0
  9
$USERR3
 40
0.0
  9
$USERR4
 40
0.0
  9
$USERR5
 40
0.0
  9
$WORLDVIEW
 70
     1
  9
$SHADEDGE
 70
     3
  9
$SHADEDIF
 70
    70
  9
$TILEMODE
 70
     1
  9
$MAXACTVP
 70
    64
  9
$PINSBASE
 10
0.0
 20
0.0
 30
0.0
  9
$PLIMCHECK
 70
     0
  9
$PEXTMIN
 10
0.0
 20
0.0
 30
0.0
  9
$PEXTMAX
 10
0.0
 20
0.0
 30
0.0
  9
$PLIMMIN
 10
0.0
 20
0.0
  9
$PLIMMAX
 10
12.0
 20
9.0
  9
$UNITMODE
 70
     0
  9
$VISRETAIN
 70
     1
  9
$PLINEGEN
 70
     0
  9
$PSLTSCALE
 70
     1
  9
$TREEDEPTH
 70
  3020
  9
$CMLSTYLE
  2
Standard
  9
$CMLJUST
 70
     0
  9
$CMLSCALE
 40
20.0
  9
$PROXYGRAPHICS
 70
     1
  9
$MEASUREMENT
 70
     1
  9
$CELWEIGHT
370
    -1
  9
$ENDCAPS
280
     0
  9
$JOINSTYLE
280
     0
  9
$LWDISPLAY
290
     0
  9
$INSUNITS
 70
     4
  9
$HYPERLINKBASE
  1

  9
$STYLESHEET
  1

  9
$XEDIT
290
     1
  9
$CEPSNTYPE
380
     0
  9
$PSTYLEMODE
290
     1
  9
$FINGERPRINTGUID
  2
{FDEAD578-A652-11D2-9A35-0060089B3A3F}
  9
$VERSIONGUID
  2
{A006E3F6-DACB-489E-8CBB-9F3E3708800C}
  9
$EXTNAMES
290
     1
  9
$PSVPSCALE
 40
0.0
  9
$OLESTARTUP
290
     0
  0
ENDSEC
  0
SECTION
  2
CLASSES
  0
CLASS
  1
ACDBDICTIONARYWDFLT
  2
AcDbDictionaryWithDefault
  3
ObjectDBX Classes
 90
        0
280
     0
281
     0
  0
CLASS
  1
ACDBPLACEHOLDER
  2
AcDbPlaceHolder
  3
ObjectDBX Classes
 90
        0
280
     0
281
     0
  0
CLASS
  1
LAYOUT
  2
AcDbLayout
  3
ObjectDBX Classes
 90
        0
280
     0
281
     0
  0
CLASS
  1
DICTIONARYVAR
  2
AcDbDictionaryVar
  3
ObjectDBX Classes
 90
        0
280
     0
281
     0
  0
CLASS
  1
RASTERVARIABLES
  2
AcDbRasterVariables
  3
ISM
 90
        0
280
     0
281
     0
  0
CLASS
  1
SCALE
  2
AcDbScale
  3
ObjectDBX Classes
 90
     1153
280
     0
281
     0
  0
CLASS
  1
MATERIAL
  2
AcDbMaterial
  3
ObjectDBX Classes
 90
     1153
280
     0
281
     0
  0
CLASS
  1
VISUALSTYLE
  2
AcDbVisualStyle
  3
ObjectDBX Classes
 90
     4095
280
     0
281
     0
  0
CLASS
  1
TABLESTYLE
  2
AcDbTableStyle
  3
ObjectDBX Classes
 90
     4095
280
     0
281
     0
  0
CLASS
  1
MLEADERSTYLE
  2
AcDbMLeaderStyle
  3
ACDB_MLEADERSTYLE_CLASS
 90
     4095
280
     0
281
     0
  0
CLASS
  1
SUN
  2
AcDbSun
  3
SCENEOE
 90
     1153
280
     0
281
     0
  0
ENDSEC
  0
SECTION
  2
TABLES
  0
TABLE
  2
VPORT
  5
8
102
{ACAD_XDICTIONARY
360
2B5
102
}
330
0
100
AcDbSymbolTable
 70
     1
  0
VPORT
  5
8E
330
8
100
AcDbSymbolTableRecord
100
AcDbViewportTableRecord
  2
*Active
 70
     0
 10
0.0
 20
0.0
 11
1.0
 21
1.0
 12
107.95
 22
139.7
 13
0.0
 23
0.0
 14
10.0
 24
10.0
 15
10.0
 25
10.0
 16
0.0
 26
0.0
 36
1.0
 17
0.0
 27
0.0
 37
0.0
 40
279.4
 41
0.772727
 42
50.0
 43
0.0
 44
0.0
 50
0.0
 51
0.0
 71
     0
 72
  1000
 73
     1
 74
     3
 75
     0
 76
     0
 77
     0
 78
     0
281
     0
 65
     1
110
0.0
120
0.0
130
0.0
111
1.0
121
0.0
131
0.0
112
0.0
122
1.0
132
0.0
 79
     0
146
0.0
  0
ENDTAB
  0
TABLE
  2
LTYPE
  5
5
330
0
100
AcDbSymbolTable
 70
     5
  0
LTYPE
  5
14
330
5
100
AcDbSymbolTableRecord
100
AcDbLinetypeTableRecord
  2
ByBlock
 70
     0
  3

 72
    65
 73
     0
 40
0.0
  0
LTYPE
  5
15
330
5
100
AcDbSymbolTableRecord
100
AcDbLinetypeTableRecord
  2
ByLayer
 70
     0
  3

 72
    65
 73
     0
 40
0.0
  0
LTYPE
  5
16
330
5
100
AcDbSymbolTableRecord
100
AcDbLinetypeTableRecord
  2
Continuous
 70
     0
  3
Solid line
 72
    65
 73
     0
 40
0.0
  0
LTYPE
  5
DB
330
5
100
AcDbSymbolTableRecord
100
AcDbLinetypeTableRecord
  2
CENTRE
 70
     0
  3
Centre ____ _ ____ _ ____ _ ____ _ ____ _ ____
 72
    65
 73
     4
 40
2.0
 49
1.25
 74
     0
 49
-0.25
 74
     0
 49
0.25
 74
     0
 49
-0.25
 74
     0
  0
LTYPE
  5
DC
330
5
100
AcDbSymbolTableRecord
100
AcDbLinetypeTableRecord
  2
DASHED
 70
     0
  3
Dashed __ __ __ __ __ __ __ __ __ __ __ __ __ _
 72
    65
 73
     2
 40
0.75
 49
0.5
 74
     0
 49
-0.25
 74
     0
  0
LTYPE
  5
DD
330
5
100
AcDbSymbolTableRecord
100
AcDbLinetypeTableRecord
  2
HIDDEN
 70
     0
  3
Hidden __ __ __ __ __ __ __ __ __ __ __ __ __ _
 72
    65
 73
     2
 40
0.375
 49
0.25
 74
     0
 49
-0.125
 74
     0
  0
LTYPE
  5
DE
330
5
100
AcDbSymbolTableRecord
100
AcDbLinetypeTableRecord
  2
PHANTOM
 70
     0
  3
Phantom ______  __  __  ______  __  __  ______ 
 72
    65
 73
     6
 40
2.5
 49
1.25
 74
     0
 49
-0.25
 74
     0
 49
0.25
 74
     0
 49
-0.25
 74
     0
 49
0.25
 74
     0
 49
-0.25
 74
     0
  0
ENDTAB
  0
TABLE
  2
LAYER
  5
2
330
0
100
AcDbSymbolTable
 70
     2
  0
LAYER
  5
10
330
2
100
AcDbSymbolTableRecord
100
AcDbLayerTableRecord
  2
0
 70
     0
 62
     7
  6
Continuous
370
    -3
390
F
  0
LAYER
  5
DF
330
2
100
AcDbSymbolTableRecord
100
AcDbLayerTableRecord
  2
Untitled
 70
     0
 62
     7
  6
Continuous
370
    -3
390
F
  0
ENDTAB
  0
TABLE
  2
STYLE
  5
3
330
0
100
AcDbSymbolTable
 70
     2
  0
STYLE
  5
11
330
3
100
AcDbSymbolTableRecord
100
AcDbTextStyleTableRecord
  2
Standard
 70
     0
 40
0.0
 41
1.0
 50
0.0
 71
     0
 42
2.5
  3
txt
  4

  0
STYLE
  5
259
330
3
100
AcDbSymbolTableRecord
100
AcDbTextStyleTableRecord
  2
ARIAL_400_0
 70
     0
 40
1.125
 41
1.0
 50
0.0
 71
     0
 42
2.5
  3

  4

1001
ACAD
1000
Arial
1071
        0
  0
ENDTAB
  0
TABLE
  2
VIEW
  5
6
330
0
100
AcDbSymbolTable
 70
     0
  0
ENDTAB
  0
TABLE
  2
UCS
  5
7
330
0
100
AcDbSymbolTable
 70
     0
  0
ENDTAB
  0
TABLE
  2
APPID
  5
9
330
0
100
AcDbSymbolTable
 70
     2
  0
APPID
  5
12
330
9
100
AcDbSymbolTableRecord
100
AcDbRegAppTableRecord
  2
ACAD
 70
     0
  0
APPID
  5
2EE
330
9
100
AcDbSymbolTableRecord
100
AcDbRegAppTableRecord
  2
ACAD_MLEADERVER
 70
     0
  0
ENDTAB
  0
TABLE
  2
DIMSTYLE
  5
A
330
0
100
AcDbSymbolTable
 70
     1
100
AcDbDimStyleTable
  0
DIMSTYLE
105
27
330
A
100
AcDbSymbolTableRecord
100
AcDbDimStyleTableRecord
  2
ISO-25
 70
     0
 41
2.5
 42
0.625
 43
3.75
 44
1.25
 73
     0
 74
     0
 77
     1
 78
     8
140
2.5
141
2.5
143
0.03937
147
0.625
171
     3
172
     1
178
     0
271
     2
272
     2
274
     3
278
    44
283
     0
284
     8
340
11
  0
ENDTAB
  0
TABLE
  2
BLOCK_RECORD
  5
1
330
0
100
AcDbSymbolTable
 70
     8
  0
BLOCK_RECORD
  5
1F
330
1
100
AcDbSymbolTableRecord
100
AcDbBlockTableRecord
  2
*Model_Space
340
22
  0
BLOCK_RECORD
  5
50
330
1
100
AcDbSymbolTableRecord
100
AcDbBlockTableRecord
  2
*Paper_Space
340
51
  0
BLOCK_RECORD
  5
55
330
1
100
AcDbSymbolTableRecord
100
AcDbBlockTableRecord
  2
*Paper_Space0
340
56
  0
BLOCK_RECORD
  5
257
330
1
100
AcDbSymbolTableRecord
100
AcDbBlockTableRecord
  2
Block376
340
0
102
{BLKREFS
331
258
102
}
  0
BLOCK_RECORD
  5
25D
330
1
100
AcDbSymbolTableRecord
100
AcDbBlockTableRecord
  2
Block378
340
0
102
{BLKREFS
331
25E
102
}
  0
BLOCK_RECORD
  5
279
330
1
100
AcDbSymbolTableRecord
100
AcDbBlockTableRecord
  2
Block402
340
0
102
{BLKREFS
331
27A
102
}
  0
BLOCK_RECORD
  5
280
330
1
100
AcDbSymbolTableRecord
100
AcDbBlockTableRecord
  2
Block403
340
0
102
{BLKREFS
331
281
102
}
  0
BLOCK_RECORD
  5
288
330
1
100
AcDbSymbolTableRecord
100
AcDbBlockTableRecord
  2
Block404
340
0
102
{BLKREFS
331
289
102
}
  0
BLOCK_RECORD
  5
290
330
1
100
AcDbSymbolTableRecord
100
AcDbBlockTableRecord
  2
Block405
340
0
102
{BLKREFS
331
291
102
}
  0
BLOCK_RECORD
  5
298
330
1
100
AcDbSymbolTableRecord
100
AcDbBlockTableRecord
  2
Block406
340
0
102
{BLKREFS
331
299
102
}
  0
ENDTAB
  0
ENDSEC
  0
SECTION
  2
BLOCKS
  0
BLOCK
  5
20
330
1F
100
AcDbEntity
  8
0
100
AcDbBlockBegin
  2
*Model_Space
 70
     0
 10
0.0
 20
0.0
 30
0.0
  3
*Model_Space
  1

  0
ENDBLK
  5
21
330
1F
100
AcDbEntity
  8
0
100
AcDbBlockEnd
  0
BLOCK
  5
52
330
50
100
AcDbEntity
 67
     1
  8
0
100
AcDbBlockBegin
  2
*Paper_Space
 70
     0
 10
0.0
 20
0.0
 30
0.0
  3
*Paper_Space
  1

  0
ENDBLK
  5
53
330
50
100
AcDbEntity
 67
     1
  8
0
100
AcDbBlockEnd
  0
BLOCK
  5
57
330
55
100
AcDbEntity
  8
0
100
AcDbBlockBegin
  2
*Paper_Space0
 70
     0
 10
0.0
 20
0.0
 30
0.0
  3
*Paper_Space0
  1

  0
ENDBLK
  5
58
330
55
100
AcDbEntity
  8
0
100
AcDbBlockEnd
  0
BLOCK
  5
29F
330
257
100
AcDbEntity
  8
0
100
AcDbBlockBegin
  2
Block376
 70
     0
 10
0.0
 20
0.0
 30
0.0
  3
Block376
  1

  0
TEXT
  5
25A
330
257
100
AcDbEntity
  8
Untitled
 62
     1
100
AcDbText
 10
0.0
 20
0.0
 30
0.0
 40
1.125
  1
Specifications shown below represent standard sizes only.
  7
ARIAL_400_0
100
AcDbText
  0
TEXT
  5
25B
330
257
100
AcDbEntity
  8
Untitled
 62
     1
100
AcDbText
 10
0.0
 20
-1.6875
 30
0.0
 40
1.125
  1
Palmer Leg Systems are custom built to ANY dimensions.
  7
ARIAL_400_0
100
AcDbText
  0
ENDBLK
  5
2A0
330
257
100
AcDbEntity
  8
0
100
AcDbBlockEnd
  0
BLOCK
  5
2A1
330
25D
100
AcDbEntity
  8
0
100
AcDbBlockBegin
  2
Block378
 70
     0
 10
0.0
 20
0.0
 30
0.0
  3
Block378
  1

  0
TEXT
  5
25F
330
25D
100
AcDbEntity
  8
Untitled
 62
     7
100
AcDbText
 10
-26.04375
 20
0.0
 30
0.0
 40
0.9
  1
These designs and drawings are confidential, and the exclusive property of Palmer Industries.
  7
ARIAL_400_0
 72
     1
 11
0.0
 21
0.0
 31
0.0
100
AcDbText
  0
TEXT
  5
260
330
25D
100
AcDbEntity
  8
Untitled
 62
     7
100
AcDbText
 10
-28.03365
 20
-1.35
 30
0.0
 40
0.9
  1
They may not be disclosed or duplicated without the expressed, written consent of Palmer Industries.
  7
ARIAL_400_0
 72
     1
 11
0.0
 21
-1.35
 31
0.0
100
AcDbText
  0
TEXT
  5
261
330
25D
100
AcDbEntity
  8
Untitled
 62
     7
100
AcDbText
 10
-16.5465
 20
-2.7
 30
0.0
 40
0.9
  1
Copyright circa 2018 Palmer Industries.  All rights reserved.
  7
ARIAL_400_0
 72
     1
 11
0.0
 21
-2.7
 31
0.0
100
AcDbText
  0
ENDBLK
  5
2A2
330
25D
100
AcDbEntity
  8
0
100
AcDbBlockEnd
  0
BLOCK
  5
2A3
330
279
100
AcDbEntity
  8
0
100
AcDbBlockBegin
  2
Block402
 70
     0
 10
0.0
 20
0.0
 30
0.0
  3
Block402
  1

  0
LINE
  5
27B
330
279
100
AcDbEntity
  8
Untitled
 62
     7
370
    40
100
AcDbLine
 10
0.0
 20
0.0
 30
0.0
 11
-22.0
 21
0.0
 31
0.0
  0
LINE
  5
27C
330
279
100
AcDbEntity
  8
Untitled
 62
     7
370
    40
100
AcDbLine
 10
0.0
 20
6.184664
 30
0.0
 11
0.0
 21
-1.0
 31
0.0
  0
LINE
  5
27D
330
279
100
AcDbEntity
  8
Untitled
 62
     7
370
    40
100
AcDbLine
 10
-0.5
 20
-0.5
 30
0.0
 11
0.5
 21
0.5
 31
0.0
  0
LINE
  5
27E
330
279
100
AcDbEntity
  8
Untitled
 62
     7
370
    40
100
AcDbLine
 10
-22.5
 20
-0.5
 30
0.0
 11
-21.5
 21
0.5
 31
0.0
  0
TEXT
  5
27F
330
279
100
AcDbEntity
  8
Untitled
 62
     7
100
AcDbText
 10
-12.328
 20
0.597656
 30
0.0
 40
1.296875
  1
22"
  7
ARIAL_400_0
 72
     1
 11
-11.0
 21
0.597656
 31
0.0
100
AcDbText
  0
ENDBLK
  5
2A4
330
279
100
AcDbEntity
  8
0
100
AcDbBlockEnd
  0
BLOCK
  5
2A5
330
280
100
AcDbEntity
  8
0
100
AcDbBlockBegin
  2
Block403
 70
     0
 10
0.0
 20
0.0
 30
0.0
  3
Block403
  1

  0
LINE
  5
282
330
280
100
AcDbEntity
  8
Untitled
 62
     7
370
    40
100
AcDbLine
 10
0.0
 20
0.0
 30
0.0
 11
0.0
 21
-32.0
 31
0.0
  0
LINE
  5
283
330
280
100
AcDbEntity
  8
Untitled
 62
     7
370
    40
100
AcDbLine
 10
4.01606
 20
0.0
 30
0.0
 11
-1.0
 21
0.0
 31
0.0
  0
LINE
  5
284
330
280
100
AcDbEntity
  8
Untitled
 62
     7
370
    40
100
AcDbLine
 10
3.642146
 20
-32.0
 30
0.0
 11
-1.0
 21
-32.0
 31
0.0
  0
LINE
  5
285
330
280
100
AcDbEntity
  8
Untitled
 62
     7
370
    40
100
AcDbLine
 10
0.5
 20
-0.5
 30
0.0
 11
-0.5
 21
0.5
 31
0.0
  0
LINE
  5
286
330
280
100
AcDbEntity
  8
Untitled
 62
     7
370
    40
100
AcDbLine
 10
0.5
 20
-32.5
 30
0.0
 11
-0.5
 21
-31.5
 31
0.0
  0
TEXT
  5
287
330
280
100
AcDbEntity
  8
Untitled
 62
     7
100
AcDbText
 10
-0.597656
 20
-17.328
 30
0.0
 40
1.296875
  1
32"
 50
90.0
  7
ARIAL_400_0
 72
     1
 11
-0.597656
 21
-16.0
 31
0.0
100
AcDbText
  0
ENDBLK
  5
2A6
330
280
100
AcDbEntity
  8
0
100
AcDbBlockEnd
  0
BLOCK
  5
2A7
330
288
100
AcDbEntity
  8
0
100
AcDbBlockBegin
  2
Block404
 70
     0
 10
0.0
 20
0.0
 30
0.0
  3
Block404
  1

  0
LINE
  5
28A
330
288
100
AcDbEntity
  8
Untitled
 62
     7
370
    40
100
AcDbLine
 10
0.0
 20
0.0
 30
0.0
 11
32.0
 21
0.0
 31
0.0
  0
LINE
  5
28B
330
288
100
AcDbEntity
  8
Untitled
 62
     7
370
    40
100
AcDbLine
 10
0.0
 20
5.684664
 30
0.0
 11
0.0
 21
-1.0
 31
0.0
  0
LINE
  5
28C
330
288
100
AcDbEntity
  8
Untitled
 62
     7
370
    40
100
AcDbLine
 10
32.0
 20
5.684664
 30
0.0
 11
32.0
 21
-1.0
 31
0.0
  0
LINE
  5
28D
330
288
100
AcDbEntity
  8
Untitled
 62
     7
370
    40
100
AcDbLine
 10
0.5
 20
0.5
 30
0.0
 11
-0.5
 21
-0.5
 31
0.0
  0
LINE
  5
28E
330
288
100
AcDbEntity
  8
Untitled
 62
     7
370
    40
100
AcDbLine
 10
32.5
 20
0.5
 30
0.0
 11
31.5
 21
-0.5
 31
0.0
  0
TEXT
  5
28F
330
288
100
AcDbEntity
  8
Untitled
 62
     7
100
AcDbText
 10
14.672
 20
0.597656
 30
0.0
 40
1.296875
  1
32"
  7
ARIAL_400_0
 72
     1
 11
16.0
 21
0.597656
 31
0.0
100
AcDbText
  0
ENDBLK
  5
2A8
330
288
100
AcDbEntity
  8
0
100
AcDbBlockEnd
  0
BLOCK
  5
2A9
330
290
100
AcDbEntity
  8
0
100
AcDbBlockBegin
  2
Block405
 70
     0
 10
0.0
 20
0.0
 30
0.0
  3
Block405
  1

  0
LINE
  5
292
330
290
100
AcDbEntity
  8
Untitled
 62
     7
370
    40
100
AcDbLine
 10
0.0
 20
0.0
 30
0.0
 11
-2.0
 21
0.0
 31
0.0
  0
LINE
  5
293
330
290
100
AcDbEntity
  8
Untitled
 62
     7
370
    40
100
AcDbLine
 10
1.5
 20
0.0
 30
0.0
 11
3.5
 21
0.0
 31
0.0
  0
LINE
  5
294
330
290
100
AcDbEntity
  8
Untitled
 62
     7
370
    40
100
AcDbLine
 10
0.0
 20
2.073681
 30
0.0
 11
0.0
 21
-1.0
 31
0.0
  0
LINE
  5
295
330
290
100
AcDbEntity
  8
Untitled
 62
     7
370
    40
100
AcDbLine
 10
0.5
 20
0.5
 30
0.0
 11
-0.5
 21
-0.5
 31
0.0
  0
LINE
  5
296
330
290
100
AcDbEntity
  8
Untitled
 62
     7
370
    40
100
AcDbLine
 10
2.0
 20
0.5
 30
0.0
 11
1.0
 21
-0.5
 31
0.0
  0
TEXT
  5
297
330
290
100
AcDbEntity
  8
Untitled
 62
     7
100
AcDbText
 10
3.5
 20
0.597656
 30
0.0
 40
1.296875
  1
1 1/2"
  7
ARIAL_400_0
100
AcDbText
  0
ENDBLK
  5
2AA
330
290
100
AcDbEntity
  8
0
100
AcDbBlockEnd
  0
BLOCK
  5
2AB
330
298
100
AcDbEntity
  8
0
100
AcDbBlockBegin
  2
Block406
 70
     0
 10
0.0
 20
0.0
 30
0.0
  3
Block406
  1

  0
LINE
  5
29A
330
298
100
AcDbEntity
  8
Untitled
 62
     7
370
    40
100
AcDbLine
 10
0.0
 20
0.0
 30
0.0
 11
0.0
 21
-2.0
 31
0.0
  0
LINE
  5
29B
330
298
100
AcDbEntity
  8
Untitled
 62
     7
370
    40
100
AcDbLine
 10
0.0
 20
0.640625
 30
0.0
 11
0.0
 21
2.640625
 31
0.0
  0
LINE
  5
29C
330
298
100
AcDbEntity
  8
Untitled
 62
     7
370
    40
100
AcDbLine
 10
-0.5
 20
0.5
 30
0.0
 11
0.5
 21
-0.5
 31
0.0
  0
LINE
  5
29D
330
298
100
AcDbEntity
  8
Untitled
 62
     7
370
    40
100
AcDbLine
 10
-0.5
 20
1.140625
 30
0.0
 11
0.5
 21
0.140625
 31
0.0
  0
ENDBLK
  5
2AC
330
298
100
AcDbEntity
  8
0
100
AcDbBlockEnd
  0
ENDSEC
  0
SECTION
  2
ENTITIES
  0
LINE
  5
E0
330
1F
100
AcDbEntity
  8
Untitled
 62
     7
370
    40
100
AcDbLine
 10
-0.518064
 20
7.357332
 30
0.0
 11
27.981936
 21
7.357332
 31
0.0
  0
LINE
  5
E1
330
1F
100
AcDbEntity
  8
Untitled
 62
     7
370
    40
100
AcDbLine
 10
27.981936
 20
9.607332
 30
0.0
 11
-0.518064
 21
9.607332
 31
0.0
  0
LINE
  5
E2
330
1F
100
AcDbEntity
  8
Untitled
 62
     7
370
    40
100
AcDbLine
 10
27.981936
 20
8.982332
 30
0.0
 11
-0.518064
 21
8.982332
 31
0.0
  0
LINE
  5
E3
330
1F
100
AcDbEntity
  8
Untitled
 62
     7
370
    40
100
AcDbLine
 10
-0.518064
 20
7.982332
 30
0.0
 11
27.981936
 21
7.982332
 31
0.0
  0
ELLIPSE
  5
E4
330
1F
100
AcDbEntity
  8
Untitled
 62
     7
370
    40
100
AcDbEllipse
 10
0.033441
 20
7.669832
 30
0.0
 11
0.624999999999981
 21
0.0
 31
0.0
210
0.0
220
0.0
230
1.0
 40
1.0
 41
2.793722131507714
 42
3.489463175674424
  0
LINE
  5
E5
330
1F
100
AcDbEntity
  8
Untitled
 62
     7
370
    40
100
AcDbLine
 10
-2.518064
 20
8.044832
 30
0.0
 11
-2.518064
 21
7.326082
 31
0.0
  0
LINE
  5
E6
330
1F
100
AcDbEntity
  8
Untitled
 62
     7
370
    40
100
AcDbLine
 10
-0.518064
 20
7.357332
 30
0.0
 11
-0.554122
 21
7.456771
 31
0.0
  0
LINE
  5
E7
330
1F
100
AcDbEntity
  8
Untitled
 62
     7
370
    40
100
AcDbLine
 10
-0.518064
 20
7.357332
 30
0.0
 11
-0.518064
 21
7.326082
 31
0.0
  0
LINE
  5
E8
330
1F
100
AcDbEntity
  8
Untitled
 62
     7
370
    40
100
AcDbLine
 10
-2.320564
 20
6.669832
 30
0.0
 11
-0.715564
 21
6.669832
 31
0.0
  0
LINE
  5
E9
330
1F
100
AcDbEntity
  8
Untitled
 62
     7
370
    40
100
AcDbLine
 10
-2.395564
 20
6.744832
 30
0.0
 11
-0.640564
 21
6.744832
 31
0.0
  0
ELLIPSE
  5
EA
330
1F
100
AcDbEntity
  8
Untitled
 62
     7
370
    40
100
AcDbEllipse
 10
-0.715564
 20
6.744832
 30
0.0
 11
0.07500000000000018
 21
0.0
 31
0.0
210
0.0
220
0.0
230
1.0
 40
1.0
 41
4.71238898038469
 42
6.283185307179586
  0
ELLIPSE
  5
EB
330
1F
100
AcDbEntity
  8
Untitled
 62
     7
370
    40
100
AcDbEllipse
 10
-2.320564
 20
6.744832
 30
0.0
 11
0.07500000000000018
 21
0.0
 31
0.0
210
0.0
220
0.0
230
1.0
 40
1.0
 41
3.141592653589793
 42
4.71238898038469
  0
LINE
  5
EC
330
1F
100
AcDbEntity
  8
Untitled
 62
     7
370
    40
100
AcDbLine
 10
-2.395564
 20
6.744832
 30
0.0
 11
-2.395564
 21
7.279207
 31
0.0
  0
LINE
  5
ED
330
1F
100
AcDbEntity
  8
Untitled
 62
     7
370
    40
100
AcDbLine
 10
-0.640564
 20
6.744832
 30
0.0
 11
-0.640564
 21
7.279207
 31
0.0
  0
LINE
  5
EE
330
1F
100
AcDbEntity
  8
Untitled
 62
     7
370
    40
100
AcDbLine
 10
-2.268064
 20
-18.142668
 30
0.0
 11
-2.268064
 21
6.669832
 31
0.0
  0
LINE
  5
EF
330
1F
100
AcDbEntity
  8
Untitled
 62
     7
370
    40
100
AcDbLine
 10
-0.768064
 20
-18.142668
 30
0.0
 11
-0.768064
 21
6.669832
 31
0.0
  0
LINE
  5
F0
330
1F
100
AcDbEntity
  8
Untitled
 62
     7
370
    40
100
AcDbLine
 10
-2.411189
 20
7.294832
 30
0.0
 11
-2.486814
 21
7.294832
 31
0.0
  0
LINE
  5
F1
330
1F
100
AcDbEntity
  8
Untitled
 62
     7
370
    40
100
AcDbLine
 10
-2.411189
 20
9.669832
 30
0.0
 11
-2.486814
 21
9.669832
 31
0.0
  0
LINE
  5
F2
330
1F
100
AcDbEntity
  8
Untitled
 62
     7
370
    40
100
AcDbLine
 10
-0.518064
 20
8.919832
 30
0.0
 11
-2.518064
 21
8.919832
 31
0.0
  0
LINE
  5
F3
330
1F
100
AcDbEntity
  8
Untitled
 62
     7
370
    40
100
AcDbLine
 10
-0.518064
 20
8.044832
 30
0.0
 11
-2.518064
 21
8.044832
 31
0.0
  0
LINE
  5
F4
330
1F
100
AcDbEntity
  8
Untitled
 62
     7
370
    40
100
AcDbLine
 10
-0.518064
 20
8.794832
 30
0.0
 11
-2.518064
 21
8.794832
 31
0.0
  0
LINE
  5
F5
330
1F
100
AcDbEntity
  8
Untitled
 62
     7
370
    40
100
AcDbLine
 10
-0.518064
 20
8.669832
 30
0.0
 11
-2.518064
 21
8.669832
 31
0.0
  0
LINE
  5
F6
330
1F
100
AcDbEntity
  8
Untitled
 62
     7
370
    40
100
AcDbLine
 10
-0.518064
 20
8.544832
 30
0.0
 11
-2.518064
 21
8.544832
 31
0.0
  0
LINE
  5
F7
330
1F
100
AcDbEntity
  8
Untitled
 62
     7
370
    40
100
AcDbLine
 10
-0.518064
 20
8.419832
 30
0.0
 11
-2.518064
 21
8.419832
 31
0.0
  0
LINE
  5
F8
330
1F
100
AcDbEntity
  8
Untitled
 62
     7
370
    40
100
AcDbLine
 10
-0.518064
 20
8.169832
 30
0.0
 11
-2.518064
 21
8.169832
 31
0.0
  0
LINE
  5
F9
330
1F
100
AcDbEntity
  8
Untitled
 62
     7
370
    40
100
AcDbLine
 10
-0.518064
 20
8.294832
 30
0.0
 11
-2.518064
 21
8.294832
 31
0.0
  0
LINE
  5
FA
330
1F
100
AcDbEntity
  8
Untitled
 62
     7
370
    40
100
AcDbLine
 10
-2.518064
 20
9.638582
 30
0.0
 11
-2.518064
 21
8.919832
 31
0.0
  0
LINE
  5
FB
330
1F
100
AcDbEntity
  8
Untitled
 62
     7
370
    40
100
AcDbLine
 10
-0.606452
 20
8.169832
 30
0.0
 11
-0.606452
 21
8.044832
 31
0.0
  0
LINE
  5
FC
330
1F
100
AcDbEntity
  8
Untitled
 62
     7
370
    40
100
AcDbLine
 10
-2.429676
 20
8.169832
 30
0.0
 11
-2.429676
 21
8.044832
 31
0.0
  0
LINE
  5
FD
330
1F
100
AcDbEntity
  8
Untitled
 62
     7
370
    40
100
AcDbLine
 10
-2.518064
 20
8.794832
 30
0.0
 11
-2.518064
 21
8.669832
 31
0.0
  0
LINE
  5
FE
330
1F
100
AcDbEntity
  8
Untitled
 62
     7
370
    40
100
AcDbLine
 10
-2.518064
 20
8.544832
 30
0.0
 11
-2.518064
 21
8.419832
 31
0.0
  0
LINE
  5
FF
330
1F
100
AcDbEntity
  8
Untitled
 62
     7
370
    40
100
AcDbLine
 10
-2.518064
 20
8.294832
 30
0.0
 11
-2.518064
 21
8.169832
 31
0.0
  0
LINE
  5
100
330
1F
100
AcDbEntity
  8
Untitled
 62
     7
370
    40
100
AcDbLine
 10
-2.429676
 20
8.919832
 30
0.0
 11
-2.429676
 21
8.794832
 31
0.0
  0
LINE
  5
101
330
1F
100
AcDbEntity
  8
Untitled
 62
     7
370
    40
100
AcDbLine
 10
-2.429676
 20
8.669832
 30
0.0
 11
-2.429676
 21
8.544832
 31
0.0
  0
LINE
  5
102
330
1F
100
AcDbEntity
  8
Untitled
 62
     7
370
    40
100
AcDbLine
 10
-2.429676
 20
8.419832
 30
0.0
 11
-2.429676
 21
8.294832
 31
0.0
  0
LINE
  5
103
330
1F
100
AcDbEntity
  8
Untitled
 62
     7
370
    40
100
AcDbLine
 10
-0.606452
 20
8.919832
 30
0.0
 11
-0.606452
 21
8.794832
 31
0.0
  0
LINE
  5
104
330
1F
100
AcDbEntity
  8
Untitled
 62
     7
370
    40
100
AcDbLine
 10
-0.606452
 20
8.669832
 30
0.0
 11
-0.606452
 21
8.544832
 31
0.0
  0
LINE
  5
105
330
1F
100
AcDbEntity
  8
Untitled
 62
     7
370
    40
100
AcDbLine
 10
-0.606452
 20
8.419832
 30
0.0
 11
-0.606452
 21
8.294832
 31
0.0
  0
ELLIPSE
  5
106
330
1F
100
AcDbEntity
  8
Untitled
 62
     7
370
    40
100
AcDbEllipse
 10
-2.320564
 20
10.219832
 30
0.0
 11
0.07500000000004015
 21
0.0
 31
0.0
210
0.0
220
0.0
230
1.0
 40
1.0
 41
1.570796326794897
 42
3.141592653589793
  0
ELLIPSE
  5
107
330
1F
100
AcDbEntity
  8
Untitled
 62
     7
370
    40
100
AcDbEllipse
 10
-0.715564
 20
10.219832
 30
0.0
 11
0.07500000000000007
 21
0.0
 31
0.0
210
0.0
220
0.0
230
1.0
 40
1.0
 41
0.0
 42
1.570796326794897
  0
LINE
  5
108
330
1F
100
AcDbEntity
  8
Untitled
 62
     7
370
    40
100
AcDbLine
 10
-2.320564
 20
10.294832
 30
0.0
 11
-0.715564
 21
10.294832
 31
0.0
  0
LINE
  5
109
330
1F
100
AcDbEntity
  8
Untitled
 62
     7
370
    40
100
AcDbLine
 10
-2.395564
 20
10.219832
 30
0.0
 11
-0.640564
 21
10.219832
 31
0.0
  0
LINE
  5
10A
330
1F
100
AcDbEntity
  8
Untitled
 62
     7
370
    40
100
AcDbLine
 10
-0.768064
 20
10.294832
 30
0.0
 11
-0.768064
 21
11.326082
 31
0.0
  0
LINE
  5
10B
330
1F
100
AcDbEntity
  8
Untitled
 62
     7
370
    40
100
AcDbLine
 10
-2.268064
 20
10.294832
 30
0.0
 11
-2.268064
 21
11.326082
 31
0.0
  0
LINE
  5
10C
330
1F
100
AcDbEntity
  8
Untitled
 62
     7
370
    40
100
AcDbLine
 10
-2.308064
 20
11.462332
 30
0.0
 11
-2.288064
 21
11.482332
 31
0.0
  0
LINE
  5
10D
330
1F
100
AcDbEntity
  8
Untitled
 62
     7
370
    40
100
AcDbLine
 10
-2.308064
 20
11.326082
 30
0.0
 11
-2.308064
 21
11.462332
 31
0.0
  0
LINE
  5
10E
330
1F
100
AcDbEntity
  8
Untitled
 62
     7
370
    40
100
AcDbLine
 10
-0.728064
 20
11.462332
 30
0.0
 11
-0.748064
 21
11.482332
 31
0.0
  0
LINE
  5
10F
330
1F
100
AcDbEntity
  8
Untitled
 62
     7
370
    40
100
AcDbLine
 10
-0.728064
 20
11.326082
 30
0.0
 11
-0.728064
 21
11.462332
 31
0.0
  0
LINE
  5
110
330
1F
100
AcDbEntity
  8
Untitled
 62
     7
370
    40
100
AcDbLine
 10
-2.308064
 20
11.462332
 30
0.0
 11
-0.728064
 21
11.462332
 31
0.0
  0
LINE
  5
111
330
1F
100
AcDbEntity
  8
Untitled
 62
     7
370
    40
100
AcDbLine
 10
-2.288064
 20
11.482332
 30
0.0
 11
-0.748064
 21
11.482332
 31
0.0
  0
LINE
  5
112
330
1F
100
AcDbEntity
  8
Untitled
 62
     7
370
    40
100
AcDbLine
 10
-2.308064
 20
11.326082
 30
0.0
 11
-0.728064
 21
11.326082
 31
0.0
  0
LINE
  5
113
330
1F
100
AcDbEntity
  8
Untitled
 62
     7
370
    40
100
AcDbLine
 10
-0.640564
 20
10.219832
 30
0.0
 11
-0.640564
 21
9.685457
 31
0.0
  0
LINE
  5
114
330
1F
100
AcDbEntity
  8
Untitled
 62
     7
370
    40
100
AcDbLine
 10
-2.395564
 20
10.219832
 30
0.0
 11
-2.395564
 21
9.685457
 31
0.0
  0
ELLIPSE
  5
115
330
1F
100
AcDbEntity
  8
Untitled
 62
     7
370
    40
100
AcDbEllipse
 10
0.033441
 20
9.294832
 30
0.0
 11
0.6249999999999994
 21
0.0
 31
0.0
210
0.0
220
0.0
230
1.0
 40
1.0
 41
2.793722131505046
 42
3.489463175671792
  0
LINE
  5
116
330
1F
100
AcDbEntity
  8
Untitled
 62
     7
370
    40
100
AcDbLine
 10
-0.518064
 20
8.982332
 30
0.0
 11
-0.554122
 21
9.081771
 31
0.0
  0
LINE
  5
117
330
1F
100
AcDbEntity
  8
Untitled
 62
     7
370
    40
100
AcDbLine
 10
-0.518064
 20
7.982332
 30
0.0
 11
-0.554122
 21
7.882892
 31
0.0
  0
LINE
  5
118
330
1F
100
AcDbEntity
  8
Untitled
 62
     7
370
    40
100
AcDbLine
 10
-0.518064
 20
8.982332
 30
0.0
 11
-0.518064
 21
8.919832
 31
0.0
  0
LINE
  5
119
330
1F
100
AcDbEntity
  8
Untitled
 62
     7
370
    40
100
AcDbLine
 10
-0.518064
 20
7.982332
 30
0.0
 11
-0.518064
 21
8.044832
 31
0.0
  0
LINE
  5
11A
330
1F
100
AcDbEntity
  8
Untitled
 62
     7
370
    40
100
AcDbLine
 10
-0.518064
 20
9.638582
 30
0.0
 11
-0.518064
 21
9.607332
 31
0.0
  0
LINE
  5
11B
330
1F
100
AcDbEntity
  8
Untitled
 62
     7
370
    40
100
AcDbLine
 10
-0.518064
 20
9.607332
 30
0.0
 11
-0.554122
 21
9.507892
 31
0.0
  0
LINE
  5
11C
330
1F
100
AcDbEntity
  8
Untitled
 62
     7
370
    40
100
AcDbLine
 10
-0.518064
 20
8.794832
 30
0.0
 11
-0.518064
 21
8.669832
 31
0.0
  0
LINE
  5
11D
330
1F
100
AcDbEntity
  8
Untitled
 62
     7
370
    40
100
AcDbLine
 10
-0.518064
 20
8.544832
 30
0.0
 11
-0.518064
 21
8.419832
 31
0.0
  0
LINE
  5
11E
330
1F
100
AcDbEntity
  8
Untitled
 62
     7
370
    40
100
AcDbLine
 10
-0.518064
 20
8.294832
 30
0.0
 11
-0.518064
 21
8.169832
 31
0.0
  0
ELLIPSE
  5
11F
330
1F
100
AcDbEntity
  8
Untitled
 62
     7
370
    40
100
AcDbEllipse
 10
-2.411189
 20
9.685457
 30
0.0
 11
0.015625
 21
0.0
 31
0.0
210
0.0
220
0.0
230
1.0
 40
1.0
 41
4.71238898038469
 42
6.283185307179586
  0
LINE
  5
120
330
1F
100
AcDbEntity
  8
Untitled
 62
     7
370
    40
100
AcDbLine
 10
-0.624939
 20
9.669832
 30
0.0
 11
-0.549314
 21
9.669832
 31
0.0
  0
ELLIPSE
  5
121
330
1F
100
AcDbEntity
  8
Untitled
 62
     7
370
    40
100
AcDbEllipse
 10
-0.624939
 20
9.685457
 30
0.0
 11
0.01562499999999978
 21
0.0
 31
0.0
210
0.0
220
0.0
230
1.0
 40
1.0
 41
3.141592653589793
 42
4.71238898038469
  0
LINE
  5
122
330
1F
100
AcDbEntity
  8
Untitled
 62
     7
370
    40
100
AcDbLine
 10
-2.411189
 20
9.669832
 30
0.0
 11
-0.624939
 21
9.669832
 31
0.0
  0
ELLIPSE
  5
123
330
1F
100
AcDbEntity
  8
Untitled
 62
     7
370
    40
100
AcDbEllipse
 10
-2.411189
 20
7.279207
 30
0.0
 11
0.015625
 21
0.0
 31
0.0
210
0.0
220
0.0
230
1.0
 40
1.0
 41
0.0
 42
1.570796326794897
  0
LINE
  5
124
330
1F
100
AcDbEntity
  8
Untitled
 62
     7
370
    40
100
AcDbLine
 10
-0.624939
 20
7.294832
 30
0.0
 11
-0.549314
 21
7.294832
 31
0.0
  0
ELLIPSE
  5
125
330
1F
100
AcDbEntity
  8
Untitled
 62
     7
370
    40
100
AcDbEllipse
 10
-0.624939
 20
7.279207
 30
0.0
 11
0.015625
 21
0.0
 31
0.0
210
0.0
220
0.0
230
1.0
 40
1.0
 41
1.570796326794897
 42
3.141592653589793
  0
LINE
  5
126
330
1F
100
AcDbEntity
  8
Untitled
 62
     7
370
    40
100
AcDbLine
 10
-2.411189
 20
7.294832
 30
0.0
 11
-0.624939
 21
7.294832
 31
0.0
  0
ELLIPSE
  5
127
330
1F
100
AcDbEntity
  8
Untitled
 62
     7
370
    40
100
AcDbEllipse
 10
-2.486814
 20
9.638582
 30
0.0
 11
0.03124999999999822
 21
0.0
 31
0.0
210
0.0
220
0.0
230
1.0
 40
1.0
 41
1.570796326794897
 42
3.141592653589793
  0
ELLIPSE
  5
128
330
1F
100
AcDbEntity
  8
Untitled
 62
     7
370
    40
100
AcDbEllipse
 10
-0.549314
 20
9.638582
 30
0.0
 11
0.03125000000000011
 21
0.0
 31
0.0
210
0.0
220
0.0
230
1.0
 40
1.0
 41
0.0
 42
1.570796326794897
  0
LINE
  5
129
330
1F
100
AcDbEntity
  8
Untitled
 62
     7
370
    40
100
AcDbLine
 10
-2.518064
 20
9.638582
 30
0.0
 11
-0.518064
 21
9.638582
 31
0.0
  0
ELLIPSE
  5
12A
330
1F
100
AcDbEntity
  8
Untitled
 62
     7
370
    40
100
AcDbEllipse
 10
-2.486814
 20
7.326082
 30
0.0
 11
0.031250000000004
 21
0.0
 31
0.0
210
0.0
220
0.0
230
1.0
 40
1.0
 41
3.141592653589793
 42
4.71238898038469
  0
ELLIPSE
  5
12B
330
1F
100
AcDbEntity
  8
Untitled
 62
     7
370
    40
100
AcDbEllipse
 10
-0.549314
 20
7.326082
 30
0.0
 11
0.03125
 21
0.0
 31
0.0
210
0.0
220
0.0
230
1.0
 40
1.0
 41
4.71238898038469
 42
6.283185307179586
  0
LINE
  5
12C
330
1F
100
AcDbEntity
  8
Untitled
 62
     7
370
    40
100
AcDbLine
 10
-0.518064
 20
7.326082
 30
0.0
 11
-2.518064
 21
7.326082
 31
0.0
  0
LINE
  5
12D
330
1F
100
AcDbEntity
  8
Untitled
 62
     7
370
    40
100
AcDbLine
 10
-2.463788
 20
-18.917668
 30
0.0
 11
-0.57234
 21
-18.917668
 31
0.0
  0
LINE
  5
12E
330
1F
100
AcDbEntity
  8
Untitled
 62
     7
370
    40
100
AcDbLine
 10
-2.480235
 20
-19.042668
 30
0.0
 11
-0.555893
 21
-19.042668
 31
0.0
  0
LINE
  5
12F
330
1F
100
AcDbEntity
  8
Untitled
 62
     7
370
    40
100
AcDbLine
 10
-2.496682
 20
-19.167668
 30
0.0
 11
-0.539445
 21
-19.167668
 31
0.0
  0
LINE
  5
130
330
1F
100
AcDbEntity
  8
Untitled
 62
     7
370
    40
100
AcDbLine
 10
-2.51313
 20
-19.292668
 30
0.0
 11
-0.522998
 21
-19.292668
 31
0.0
  0
LINE
  5
131
330
1F
100
AcDbEntity
  8
Untitled
 62
     7
370
    40
100
AcDbLine
 10
-2.529577
 20
-19.417668
 30
0.0
 11
-0.506551
 21
-19.417668
 31
0.0
  0
LINE
  5
132
330
1F
100
AcDbEntity
  8
Untitled
 62
     7
370
    40
100
AcDbLine
 10
-2.546024
 20
-19.542668
 30
0.0
 11
-0.490103
 21
-19.542668
 31
0.0
  0
LINE
  5
133
330
1F
100
AcDbEntity
  8
Untitled
 62
     7
370
    40
100
AcDbLine
 10
-2.562472
 20
-19.667668
 30
0.0
 11
-0.473656
 21
-19.667668
 31
0.0
  0
LINE
  5
134
330
1F
100
AcDbEntity
  8
Untitled
 62
     7
370
    40
100
AcDbLine
 10
-2.578919
 20
-19.792668
 30
0.0
 11
-0.457209
 21
-19.792668
 31
0.0
  0
LINE
  5
135
330
1F
100
AcDbEntity
  8
Untitled
 62
     7
370
    40
100
AcDbLine
 10
-2.326814
 20
-18.142668
 30
0.0
 11
-0.709314
 21
-18.142668
 31
0.0
  0
LINE
  5
136
330
1F
100
AcDbEntity
  8
Untitled
 62
     7
370
    40
100
AcDbLine
 10
-2.661978
 20
-20.517668
 30
0.0
 11
-0.361814
 21
-20.517668
 31
0.0
  0
LINE
  5
137
330
1F
100
AcDbEntity
  8
Untitled
 62
     7
370
    40
100
AcDbLine
 10
-2.36638
 20
-18.177369
 30
0.0
 11
-2.463788
 21
-18.917668
 31
0.0
  0
LINE
  5
138
330
1F
100
AcDbEntity
  8
Untitled
 62
     7
370
    40
100
AcDbLine
 10
-2.480235
 20
-19.042668
 30
0.0
 11
-2.496682
 21
-19.167668
 31
0.0
  0
LINE
  5
139
330
1F
100
AcDbEntity
  8
Untitled
 62
     7
370
    40
100
AcDbLine
 10
-2.51313
 20
-19.292668
 30
0.0
 11
-2.529577
 21
-19.417668
 31
0.0
  0
LINE
  5
13A
330
1F
100
AcDbEntity
  8
Untitled
 62
     7
370
    40
100
AcDbLine
 10
-2.546024
 20
-19.542668
 30
0.0
 11
-2.562472
 21
-19.667668
 31
0.0
  0
LINE
  5
13B
330
1F
100
AcDbEntity
  8
Untitled
 62
     7
370
    40
100
AcDbLine
 10
-2.365447
 20
-18.917668
 30
0.0
 11
-2.381895
 21
-19.042668
 31
0.0
  0
LINE
  5
13C
330
1F
100
AcDbEntity
  8
Untitled
 62
     7
370
    40
100
AcDbLine
 10
-2.398342
 20
-19.167668
 30
0.0
 11
-2.414789
 21
-19.292668
 31
0.0
  0
LINE
  5
13D
330
1F
100
AcDbEntity
  8
Untitled
 62
     7
370
    40
100
AcDbLine
 10
-2.431237
 20
-19.417668
 30
0.0
 11
-2.447684
 21
-19.542668
 31
0.0
  0
LINE
  5
13E
330
1F
100
AcDbEntity
  8
Untitled
 62
     7
370
    40
100
AcDbLine
 10
-2.464131
 20
-19.667668
 30
0.0
 11
-2.480579
 21
-19.792668
 31
0.0
  0
LINE
  5
13F
330
1F
100
AcDbEntity
  8
Untitled
 62
     7
370
    40
100
AcDbLine
 10
-0.669748
 20
-18.177369
 30
0.0
 11
-0.57234
 21
-18.917668
 31
0.0
  0
LINE
  5
140
330
1F
100
AcDbEntity
  8
Untitled
 62
     7
370
    40
100
AcDbLine
 10
-0.555893
 20
-19.042668
 30
0.0
 11
-0.539445
 21
-19.167668
 31
0.0
  0
LINE
  5
141
330
1F
100
AcDbEntity
  8
Untitled
 62
     7
370
    40
100
AcDbLine
 10
-0.522998
 20
-19.292668
 30
0.0
 11
-0.506551
 21
-19.417668
 31
0.0
  0
LINE
  5
142
330
1F
100
AcDbEntity
  8
Untitled
 62
     7
370
    40
100
AcDbLine
 10
-0.490103
 20
-19.542668
 30
0.0
 11
-0.473656
 21
-19.667668
 31
0.0
  0
LINE
  5
143
330
1F
100
AcDbEntity
  8
Untitled
 62
     7
370
    40
100
AcDbLine
 10
-0.670681
 20
-18.917668
 30
0.0
 11
-0.654233
 21
-19.042668
 31
0.0
  0
LINE
  5
144
330
1F
100
AcDbEntity
  8
Untitled
 62
     7
370
    40
100
AcDbLine
 10
-0.637786
 20
-19.167668
 30
0.0
 11
-0.621338
 21
-19.292668
 31
0.0
  0
LINE
  5
145
330
1F
100
AcDbEntity
  8
Untitled
 62
     7
370
    40
100
AcDbLine
 10
-0.604891
 20
-19.417668
 30
0.0
 11
-0.588444
 21
-19.542668
 31
0.0
  0
LINE
  5
146
330
1F
100
AcDbEntity
  8
Untitled
 62
     7
370
    40
100
AcDbLine
 10
-0.571996
 20
-19.667668
 30
0.0
 11
-0.555549
 21
-19.792668
 31
0.0
  0
LINE
  5
147
330
1F
100
AcDbEntity
  8
Untitled
 62
     7
370
    40
100
AcDbLine
 10
29.731936
 20
-18.142668
 30
0.0
 11
29.731936
 21
6.669832
 31
0.0
  0
LINE
  5
148
330
1F
100
AcDbEntity
  8
Untitled
 62
     7
370
    40
100
AcDbLine
 10
28.231936
 20
-18.142668
 30
0.0
 11
28.231936
 21
6.669832
 31
0.0
  0
LINE
  5
149
330
1F
100
AcDbEntity
  8
Untitled
 62
     7
370
    40
100
AcDbLine
 10
29.893548
 20
8.669832
 30
0.0
 11
29.893548
 21
8.544832
 31
0.0
  0
LINE
  5
14A
330
1F
100
AcDbEntity
  8
Untitled
 62
     7
370
    40
100
AcDbLine
 10
28.070324
 20
8.669832
 30
0.0
 11
28.070324
 21
8.544832
 31
0.0
  0
LINE
  5
14B
330
1F
100
AcDbEntity
  8
Untitled
 62
     7
370
    40
100
AcDbLine
 10
29.784436
 20
6.669832
 30
0.0
 11
28.179436
 21
6.669832
 31
0.0
  0
LINE
  5
14C
330
1F
100
AcDbEntity
  8
Untitled
 62
     7
370
    40
100
AcDbLine
 10
29.859436
 20
6.744832
 30
0.0
 11
28.104436
 21
6.744832
 31
0.0
  0
LINE
  5
14D
330
1F
100
AcDbEntity
  8
Untitled
 62
     7
370
    40
100
AcDbLine
 10
27.981936
 20
8.044832
 30
0.0
 11
29.981936
 21
8.044832
 31
0.0
  0
LINE
  5
14E
330
1F
100
AcDbEntity
  8
Untitled
 62
     7
370
    40
100
AcDbLine
 10
27.981936
 20
8.544832
 30
0.0
 11
29.981936
 21
8.544832
 31
0.0
  0
LINE
  5
14F
330
1F
100
AcDbEntity
  8
Untitled
 62
     7
370
    40
100
AcDbLine
 10
27.981936
 20
8.419832
 30
0.0
 11
29.981936
 21
8.419832
 31
0.0
  0
LINE
  5
150
330
1F
100
AcDbEntity
  8
Untitled
 62
     7
370
    40
100
AcDbLine
 10
27.981936
 20
8.169832
 30
0.0
 11
29.981936
 21
8.169832
 31
0.0
  0
LINE
  5
151
330
1F
100
AcDbEntity
  8
Untitled
 62
     7
370
    40
100
AcDbLine
 10
27.981936
 20
8.294832
 30
0.0
 11
29.981936
 21
8.294832
 31
0.0
  0
LINE
  5
152
330
1F
100
AcDbEntity
  8
Untitled
 62
     7
370
    40
100
AcDbLine
 10
29.875061
 20
7.294832
 30
0.0
 11
28.088811
 21
7.294832
 31
0.0
  0
LINE
  5
153
330
1F
100
AcDbEntity
  8
Untitled
 62
     7
370
    40
100
AcDbLine
 10
27.981936
 20
7.326082
 30
0.0
 11
29.981936
 21
7.326082
 31
0.0
  0
LINE
  5
154
330
1F
100
AcDbEntity
  8
Untitled
 62
     7
370
    40
100
AcDbLine
 10
29.981936
 20
8.044832
 30
0.0
 11
29.981936
 21
7.326082
 31
0.0
  0
ELLIPSE
  5
155
330
1F
100
AcDbEntity
  8
Untitled
 62
     7
370
    40
100
AcDbEllipse
 10
29.784436
 20
6.744832
 30
0.0
 11
0.07500000000000018
 21
0.0
 31
0.0
210
0.0
220
0.0
230
1.0
 40
1.0
 41
4.71238898038469
 42
6.283185307179586
  0
LINE
  5
156
330
1F
100
AcDbEntity
  8
Untitled
 62
     7
370
    40
100
AcDbLine
 10
29.859436
 20
6.744832
 30
0.0
 11
29.859436
 21
7.279207
 31
0.0
  0
LINE
  5
157
330
1F
100
AcDbEntity
  8
Untitled
 62
     7
370
    40
100
AcDbLine
 10
29.875061
 20
7.294832
 30
0.0
 11
29.950686
 21
7.294832
 31
0.0
  0
LINE
  5
158
330
1F
100
AcDbEntity
  8
Untitled
 62
     7
370
    40
100
AcDbLine
 10
29.893548
 20
8.169832
 30
0.0
 11
29.893548
 21
8.044832
 31
0.0
  0
LINE
  5
159
330
1F
100
AcDbEntity
  8
Untitled
 62
     7
370
    40
100
AcDbLine
 10
29.981936
 20
8.544832
 30
0.0
 11
29.981936
 21
8.419832
 31
0.0
  0
LINE
  5
15A
330
1F
100
AcDbEntity
  8
Untitled
 62
     7
370
    40
100
AcDbLine
 10
29.981936
 20
8.294832
 30
0.0
 11
29.981936
 21
8.169832
 31
0.0
  0
LINE
  5
15B
330
1F
100
AcDbEntity
  8
Untitled
 62
     7
370
    40
100
AcDbLine
 10
29.893548
 20
8.419832
 30
0.0
 11
29.893548
 21
8.294832
 31
0.0
  0
ELLIPSE
  5
15C
330
1F
100
AcDbEntity
  8
Untitled
 62
     7
370
    40
100
AcDbEllipse
 10
29.875061
 20
7.279207
 30
0.0
 11
0.015625
 21
0.0
 31
0.0
210
0.0
220
0.0
230
1.0
 40
1.0
 41
1.570796326794897
 42
3.141592653589793
  0
ELLIPSE
  5
15D
330
1F
100
AcDbEntity
  8
Untitled
 62
     7
370
    40
100
AcDbEllipse
 10
29.950686
 20
7.326082
 30
0.0
 11
0.03125
 21
0.0
 31
0.0
210
0.0
220
0.0
230
1.0
 40
1.0
 41
4.71238898038469
 42
6.283185307179586
  0
ELLIPSE
  5
15E
330
1F
100
AcDbEntity
  8
Untitled
 62
     7
370
    40
100
AcDbEllipse
 10
27.430432
 20
7.669832
 30
0.0
 11
0.6250000000000098
 21
0.0
 31
0.0
210
0.0
220
0.0
230
1.0
 40
1.0
 41
5.935314785094977
 42
6.631055829261646
  0
LINE
  5
15F
330
1F
100
AcDbEntity
  8
Untitled
 62
     7
370
    40
100
AcDbLine
 10
27.981936
 20
7.357332
 30
0.0
 11
28.017995
 21
7.456771
 31
0.0
  0
LINE
  5
160
330
1F
100
AcDbEntity
  8
Untitled
 62
     7
370
    40
100
AcDbLine
 10
27.981936
 20
7.357332
 30
0.0
 11
27.981936
 21
7.326082
 31
0.0
  0
ELLIPSE
  5
161
330
1F
100
AcDbEntity
  8
Untitled
 62
     7
370
    40
100
AcDbEllipse
 10
28.179436
 20
6.744832
 30
0.0
 11
0.07500000000000284
 21
0.0
 31
0.0
210
0.0
220
0.0
230
1.0
 40
1.0
 41
3.141592653589793
 42
4.71238898038469
  0
LINE
  5
162
330
1F
100
AcDbEntity
  8
Untitled
 62
     7
370
    40
100
AcDbLine
 10
28.104436
 20
6.744832
 30
0.0
 11
28.104436
 21
7.279207
 31
0.0
  0
LINE
  5
163
330
1F
100
AcDbEntity
  8
Untitled
 62
     7
370
    40
100
AcDbLine
 10
28.070324
 20
8.169832
 30
0.0
 11
28.070324
 21
8.044832
 31
0.0
  0
LINE
  5
164
330
1F
100
AcDbEntity
  8
Untitled
 62
     7
370
    40
100
AcDbLine
 10
28.070324
 20
8.419832
 30
0.0
 11
28.070324
 21
8.294832
 31
0.0
  0
LINE
  5
165
330
1F
100
AcDbEntity
  8
Untitled
 62
     7
370
    40
100
AcDbLine
 10
27.981936
 20
7.982332
 30
0.0
 11
28.017995
 21
7.882892
 31
0.0
  0
LINE
  5
166
330
1F
100
AcDbEntity
  8
Untitled
 62
     7
370
    40
100
AcDbLine
 10
27.981936
 20
7.982332
 30
0.0
 11
27.981936
 21
8.044832
 31
0.0
  0
LINE
  5
167
330
1F
100
AcDbEntity
  8
Untitled
 62
     7
370
    40
100
AcDbLine
 10
27.981936
 20
8.544832
 30
0.0
 11
27.981936
 21
8.419832
 31
0.0
  0
LINE
  5
168
330
1F
100
AcDbEntity
  8
Untitled
 62
     7
370
    40
100
AcDbLine
 10
27.981936
 20
8.294832
 30
0.0
 11
27.981936
 21
8.169832
 31
0.0
  0
LINE
  5
169
330
1F
100
AcDbEntity
  8
Untitled
 62
     7
370
    40
100
AcDbLine
 10
28.088811
 20
7.294832
 30
0.0
 11
28.013186
 21
7.294832
 31
0.0
  0
ELLIPSE
  5
16A
330
1F
100
AcDbEntity
  8
Untitled
 62
     7
370
    40
100
AcDbEllipse
 10
28.088811
 20
7.279207
 30
0.0
 11
0.015625
 21
0.0
 31
0.0
210
0.0
220
0.0
230
1.0
 40
1.0
 41
0.0
 42
1.570796326794897
  0
ELLIPSE
  5
16B
330
1F
100
AcDbEntity
  8
Untitled
 62
     7
370
    40
100
AcDbEllipse
 10
28.013186
 20
7.326082
 30
0.0
 11
0.03124999999999645
 21
0.0
 31
0.0
210
0.0
220
0.0
230
1.0
 40
1.0
 41
3.141592653589793
 42
4.71238898038469
  0
LINE
  5
16C
330
1F
100
AcDbEntity
  8
Untitled
 62
     7
370
    40
100
AcDbLine
 10
27.981936
 20
8.919832
 30
0.0
 11
29.981936
 21
8.919832
 31
0.0
  0
LINE
  5
16D
330
1F
100
AcDbEntity
  8
Untitled
 62
     7
370
    40
100
AcDbLine
 10
27.981936
 20
8.794832
 30
0.0
 11
29.981936
 21
8.794832
 31
0.0
  0
LINE
  5
16E
330
1F
100
AcDbEntity
  8
Untitled
 62
     7
370
    40
100
AcDbLine
 10
27.981936
 20
8.669832
 30
0.0
 11
29.981936
 21
8.669832
 31
0.0
  0
LINE
  5
16F
330
1F
100
AcDbEntity
  8
Untitled
 62
     7
370
    40
100
AcDbLine
 10
29.784436
 20
10.294832
 30
0.0
 11
28.179436
 21
10.294832
 31
0.0
  0
LINE
  5
170
330
1F
100
AcDbEntity
  8
Untitled
 62
     7
370
    40
100
AcDbLine
 10
29.859436
 20
10.219832
 30
0.0
 11
28.104436
 21
10.219832
 31
0.0
  0
LINE
  5
171
330
1F
100
AcDbEntity
  8
Untitled
 62
     7
370
    40
100
AcDbLine
 10
29.771936
 20
11.462332
 30
0.0
 11
28.191936
 21
11.462332
 31
0.0
  0
LINE
  5
172
330
1F
100
AcDbEntity
  8
Untitled
 62
     7
370
    40
100
AcDbLine
 10
29.751936
 20
11.482332
 30
0.0
 11
28.211936
 21
11.482332
 31
0.0
  0
LINE
  5
173
330
1F
100
AcDbEntity
  8
Untitled
 62
     7
370
    40
100
AcDbLine
 10
29.771936
 20
11.326082
 30
0.0
 11
28.191936
 21
11.326082
 31
0.0
  0
LINE
  5
174
330
1F
100
AcDbEntity
  8
Untitled
 62
     7
370
    40
100
AcDbLine
 10
29.875061
 20
9.669832
 30
0.0
 11
28.088811
 21
9.669832
 31
0.0
  0
LINE
  5
175
330
1F
100
AcDbEntity
  8
Untitled
 62
     7
370
    40
100
AcDbLine
 10
29.981936
 20
9.638582
 30
0.0
 11
27.981936
 21
9.638582
 31
0.0
  0
LINE
  5
176
330
1F
100
AcDbEntity
  8
Untitled
 62
     7
370
    40
100
AcDbLine
 10
29.875061
 20
9.669832
 30
0.0
 11
29.950686
 21
9.669832
 31
0.0
  0
LINE
  5
177
330
1F
100
AcDbEntity
  8
Untitled
 62
     7
370
    40
100
AcDbLine
 10
29.981936
 20
9.638582
 30
0.0
 11
29.981936
 21
8.919832
 31
0.0
  0
LINE
  5
178
330
1F
100
AcDbEntity
  8
Untitled
 62
     7
370
    40
100
AcDbLine
 10
29.981936
 20
8.794832
 30
0.0
 11
29.981936
 21
8.669832
 31
0.0
  0
LINE
  5
179
330
1F
100
AcDbEntity
  8
Untitled
 62
     7
370
    40
100
AcDbLine
 10
29.893548
 20
8.919832
 30
0.0
 11
29.893548
 21
8.794832
 31
0.0
  0
ELLIPSE
  5
17A
330
1F
100
AcDbEntity
  8
Untitled
 62
     7
370
    40
100
AcDbEllipse
 10
29.784436
 20
10.219832
 30
0.0
 11
0.07500000000003837
 21
0.0
 31
0.0
210
0.0
220
0.0
230
1.0
 40
1.0
 41
0.0
 42
1.570796326794897
  0
LINE
  5
17B
330
1F
100
AcDbEntity
  8
Untitled
 62
     7
370
    40
100
AcDbLine
 10
29.731936
 20
10.294832
 30
0.0
 11
29.731936
 21
11.326082
 31
0.0
  0
LINE
  5
17C
330
1F
100
AcDbEntity
  8
Untitled
 62
     7
370
    40
100
AcDbLine
 10
29.771936
 20
11.462332
 30
0.0
 11
29.751936
 21
11.482332
 31
0.0
  0
LINE
  5
17D
330
1F
100
AcDbEntity
  8
Untitled
 62
     7
370
    40
100
AcDbLine
 10
29.771936
 20
11.326082
 30
0.0
 11
29.771936
 21
11.462332
 31
0.0
  0
LINE
  5
17E
330
1F
100
AcDbEntity
  8
Untitled
 62
     7
370
    40
100
AcDbLine
 10
29.859436
 20
10.219832
 30
0.0
 11
29.859436
 21
9.685457
 31
0.0
  0
ELLIPSE
  5
17F
330
1F
100
AcDbEntity
  8
Untitled
 62
     7
370
    40
100
AcDbEllipse
 10
29.875061
 20
9.685457
 30
0.0
 11
0.01562500000000355
 21
0.0
 31
0.0
210
0.0
220
0.0
230
1.0
 40
1.0
 41
3.141592653589793
 42
4.71238898038469
  0
ELLIPSE
  5
180
330
1F
100
AcDbEntity
  8
Untitled
 62
     7
370
    40
100
AcDbEllipse
 10
29.950686
 20
9.638582
 30
0.0
 11
0.03124999999999645
 21
0.0
 31
0.0
210
0.0
220
0.0
230
1.0
 40
1.0
 41
0.0
 42
1.570796326794897
  0
LINE
  5
181
330
1F
100
AcDbEntity
  8
Untitled
 62
     7
370
    40
100
AcDbLine
 10
28.070324
 20
8.919832
 30
0.0
 11
28.070324
 21
8.794832
 31
0.0
  0
ELLIPSE
  5
182
330
1F
100
AcDbEntity
  8
Untitled
 62
     7
370
    40
100
AcDbEllipse
 10
28.179436
 20
10.219832
 30
0.0
 11
0.07499999999999929
 21
0.0
 31
0.0
210
0.0
220
0.0
230
1.0
 40
1.0
 41
1.570796326794897
 42
3.141592653589793
  0
LINE
  5
183
330
1F
100
AcDbEntity
  8
Untitled
 62
     7
370
    40
100
AcDbLine
 10
28.231936
 20
10.294832
 30
0.0
 11
28.231936
 21
11.326082
 31
0.0
  0
LINE
  5
184
330
1F
100
AcDbEntity
  8
Untitled
 62
     7
370
    40
100
AcDbLine
 10
28.191936
 20
11.462332
 30
0.0
 11
28.211936
 21
11.482332
 31
0.0
  0
LINE
  5
185
330
1F
100
AcDbEntity
  8
Untitled
 62
     7
370
    40
100
AcDbLine
 10
28.191936
 20
11.326082
 30
0.0
 11
28.191936
 21
11.462332
 31
0.0
  0
LINE
  5
186
330
1F
100
AcDbEntity
  8
Untitled
 62
     7
370
    40
100
AcDbLine
 10
28.104436
 20
10.219832
 30
0.0
 11
28.104436
 21
9.685457
 31
0.0
  0
ELLIPSE
  5
187
330
1F
100
AcDbEntity
  8
Untitled
 62
     7
370
    40
100
AcDbEllipse
 10
27.430432
 20
9.294832
 30
0.0
 11
0.6250000000000039
 21
0.0
 31
0.0
210
0.0
220
0.0
230
1.0
 40
1.0
 41
5.935314785097587
 42
6.631055829264337
  0
LINE
  5
188
330
1F
100
AcDbEntity
  8
Untitled
 62
     7
370
    40
100
AcDbLine
 10
27.981936
 20
8.982332
 30
0.0
 11
28.017995
 21
9.081771
 31
0.0
  0
LINE
  5
189
330
1F
100
AcDbEntity
  8
Untitled
 62
     7
370
    40
100
AcDbLine
 10
27.981936
 20
8.982332
 30
0.0
 11
27.981936
 21
8.919832
 31
0.0
  0
LINE
  5
18A
330
1F
100
AcDbEntity
  8
Untitled
 62
     7
370
    40
100
AcDbLine
 10
27.981936
 20
9.638582
 30
0.0
 11
27.981936
 21
9.607332
 31
0.0
  0
LINE
  5
18B
330
1F
100
AcDbEntity
  8
Untitled
 62
     7
370
    40
100
AcDbLine
 10
27.981936
 20
9.607332
 30
0.0
 11
28.017995
 21
9.507892
 31
0.0
  0
LINE
  5
18C
330
1F
100
AcDbEntity
  8
Untitled
 62
     7
370
    40
100
AcDbLine
 10
27.981936
 20
8.794832
 30
0.0
 11
27.981936
 21
8.669832
 31
0.0
  0
LINE
  5
18D
330
1F
100
AcDbEntity
  8
Untitled
 62
     7
370
    40
100
AcDbLine
 10
28.088811
 20
9.669832
 30
0.0
 11
28.013186
 21
9.669832
 31
0.0
  0
ELLIPSE
  5
18E
330
1F
100
AcDbEntity
  8
Untitled
 62
     7
370
    40
100
AcDbEllipse
 10
28.088811
 20
9.685457
 30
0.0
 11
0.015625
 21
0.0
 31
0.0
210
0.0
220
0.0
230
1.0
 40
1.0
 41
4.71238898038469
 42
6.283185307179586
  0
ELLIPSE
  5
18F
330
1F
100
AcDbEntity
  8
Untitled
 62
     7
370
    40
100
AcDbEllipse
 10
28.013186
 20
9.638582
 30
0.0
 11
0.03124999999999822
 21
0.0
 31
0.0
210
0.0
220
0.0
230
1.0
 40
1.0
 41
1.570796326794897
 42
3.141592653589793
  0
LINE
  5
190
330
1F
100
AcDbEntity
  8
Untitled
 62
     7
370
    40
100
AcDbLine
 10
-2.36638
 20
-18.177369
 30
0.0
 11
-2.326814
 21
-18.142668
 31
0.0
  0
LINE
  5
191
330
1F
100
AcDbEntity
  8
Untitled
 62
     7
370
    40
100
AcDbLine
 10
-0.709314
 20
-18.142668
 30
0.0
 11
-0.669748
 21
-18.177369
 31
0.0
  0
LINE
  5
192
330
1F
100
AcDbEntity
  8
Untitled
 62
     7
370
    40
100
AcDbLine
 10
-2.36638
 20
-18.177369
 30
0.0
 11
-0.669748
 21
-18.177369
 31
0.0
  0
LINE
  5
193
330
1F
100
AcDbEntity
  8
Untitled
 62
     7
370
    40
100
AcDbLine
 10
-2.661978
 20
-20.423918
 30
0.0
 11
-2.661978
 21
-20.517668
 31
0.0
  0
LINE
  5
194
330
1F
100
AcDbEntity
  8
Untitled
 62
     7
370
    40
100
AcDbLine
 10
-2.578919
 20
-19.792668
 30
0.0
 11
-2.661978
 21
-20.423918
 31
0.0
  0
LINE
  5
195
330
1F
100
AcDbEntity
  8
Untitled
 62
     7
370
    40
100
AcDbLine
 10
-0.374149
 20
-20.423918
 30
0.0
 11
-0.374149
 21
-20.517668
 31
0.0
  0
LINE
  5
196
330
1F
100
AcDbEntity
  8
Untitled
 62
     7
370
    40
100
AcDbLine
 10
-0.457209
 20
-19.792668
 30
0.0
 11
-0.374149
 21
-20.423918
 31
0.0
  0
LINE
  5
197
330
1F
100
AcDbEntity
  8
Untitled
 62
     7
370
    40
100
AcDbLine
 10
-0.374149
 20
-20.423918
 30
0.0
 11
-2.661978
 21
-20.423918
 31
0.0
  0
LINE
  5
198
330
1F
100
AcDbEntity
  8
Untitled
 62
     7
370
    40
100
AcDbLine
 10
29.960555
 20
-19.167668
 30
0.0
 11
28.003318
 21
-19.167668
 31
0.0
  0
LINE
  5
199
330
1F
100
AcDbEntity
  8
Untitled
 62
     7
370
    40
100
AcDbLine
 10
29.977002
 20
-19.292668
 30
0.0
 11
27.98687
 21
-19.292668
 31
0.0
  0
LINE
  5
19A
330
1F
100
AcDbEntity
  8
Untitled
 62
     7
370
    40
100
AcDbLine
 10
29.993449
 20
-19.417668
 30
0.0
 11
27.970423
 21
-19.417668
 31
0.0
  0
LINE
  5
19B
330
1F
100
AcDbEntity
  8
Untitled
 62
     7
370
    40
100
AcDbLine
 10
30.009897
 20
-19.542668
 30
0.0
 11
27.953976
 21
-19.542668
 31
0.0
  0
LINE
  5
19C
330
1F
100
AcDbEntity
  8
Untitled
 62
     7
370
    40
100
AcDbLine
 10
30.026344
 20
-19.667668
 30
0.0
 11
27.937528
 21
-19.667668
 31
0.0
  0
LINE
  5
19D
330
1F
100
AcDbEntity
  8
Untitled
 62
     7
370
    40
100
AcDbLine
 10
30.042791
 20
-19.792668
 30
0.0
 11
27.921081
 21
-19.792668
 31
0.0
  0
LINE
  5
19E
330
1F
100
AcDbEntity
  8
Untitled
 62
     7
370
    40
100
AcDbLine
 10
29.944107
 20
-19.042668
 30
0.0
 11
29.960555
 21
-19.167668
 31
0.0
  0
LINE
  5
19F
330
1F
100
AcDbEntity
  8
Untitled
 62
     7
370
    40
100
AcDbLine
 10
27.838022
 20
-20.423918
 30
0.0
 11
30.125851
 21
-20.423918
 31
0.0
  0
LINE
  5
1A0
330
1F
100
AcDbEntity
  8
Untitled
 62
     7
370
    40
100
AcDbLine
 10
29.977002
 20
-19.292668
 30
0.0
 11
29.993449
 21
-19.417668
 31
0.0
  0
LINE
  5
1A1
330
1F
100
AcDbEntity
  8
Untitled
 62
     7
370
    40
100
AcDbLine
 10
30.009897
 20
-19.542668
 30
0.0
 11
30.026344
 21
-19.667668
 31
0.0
  0
LINE
  5
1A2
330
1F
100
AcDbEntity
  8
Untitled
 62
     7
370
    40
100
AcDbLine
 10
30.125851
 20
-20.423918
 30
0.0
 11
30.125851
 21
-20.517668
 31
0.0
  0
LINE
  5
1A3
330
1F
100
AcDbEntity
  8
Untitled
 62
     7
370
    40
100
AcDbLine
 10
30.042791
 20
-19.792668
 30
0.0
 11
30.125851
 21
-20.423918
 31
0.0
  0
LINE
  5
1A4
330
1F
100
AcDbEntity
  8
Untitled
 62
     7
370
    40
100
AcDbLine
 10
29.830252
 20
-18.177369
 30
0.0
 11
29.92766
 21
-18.917668
 31
0.0
  0
LINE
  5
1A5
330
1F
100
AcDbEntity
  8
Untitled
 62
     7
370
    40
100
AcDbLine
 10
28.13362
 20
-18.177369
 30
0.0
 11
28.036212
 21
-18.917668
 31
0.0
  0
LINE
  5
1A6
330
1F
100
AcDbEntity
  8
Untitled
 62
     7
370
    40
100
AcDbLine
 10
29.92766
 20
-18.917668
 30
0.0
 11
28.036212
 21
-18.917668
 31
0.0
  0
LINE
  5
1A7
330
1F
100
AcDbEntity
  8
Untitled
 62
     7
370
    40
100
AcDbLine
 10
29.944107
 20
-19.042668
 30
0.0
 11
28.019765
 21
-19.042668
 31
0.0
  0
LINE
  5
1A8
330
1F
100
AcDbEntity
  8
Untitled
 62
     7
370
    40
100
AcDbLine
 10
29.829319
 20
-18.917668
 30
0.0
 11
29.845767
 21
-19.042668
 31
0.0
  0
LINE
  5
1A9
330
1F
100
AcDbEntity
  8
Untitled
 62
     7
370
    40
100
AcDbLine
 10
29.862214
 20
-19.167668
 30
0.0
 11
29.878662
 21
-19.292668
 31
0.0
  0
LINE
  5
1AA
330
1F
100
AcDbEntity
  8
Untitled
 62
     7
370
    40
100
AcDbLine
 10
29.895109
 20
-19.417668
 30
0.0
 11
29.911556
 21
-19.542668
 31
0.0
  0
LINE
  5
1AB
330
1F
100
AcDbEntity
  8
Untitled
 62
     7
370
    40
100
AcDbLine
 10
29.928004
 20
-19.667668
 30
0.0
 11
29.944451
 21
-19.792668
 31
0.0
  0
LINE
  5
1AC
330
1F
100
AcDbEntity
  8
Untitled
 62
     7
370
    40
100
AcDbLine
 10
28.019765
 20
-19.042668
 30
0.0
 11
28.003318
 21
-19.167668
 31
0.0
  0
LINE
  5
1AD
330
1F
100
AcDbEntity
  8
Untitled
 62
     7
370
    40
100
AcDbLine
 10
27.98687
 20
-19.292668
 30
0.0
 11
27.970423
 21
-19.417668
 31
0.0
  0
LINE
  5
1AE
330
1F
100
AcDbEntity
  8
Untitled
 62
     7
370
    40
100
AcDbLine
 10
27.953976
 20
-19.542668
 30
0.0
 11
27.937528
 21
-19.667668
 31
0.0
  0
LINE
  5
1AF
330
1F
100
AcDbEntity
  8
Untitled
 62
     7
370
    40
100
AcDbLine
 10
28.134553
 20
-18.917668
 30
0.0
 11
28.118105
 21
-19.042668
 31
0.0
  0
LINE
  5
1B0
330
1F
100
AcDbEntity
  8
Untitled
 62
     7
370
    40
100
AcDbLine
 10
28.101658
 20
-19.167668
 30
0.0
 11
28.085211
 21
-19.292668
 31
0.0
  0
LINE
  5
1B1
330
1F
100
AcDbEntity
  8
Untitled
 62
     7
370
    40
100
AcDbLine
 10
28.068763
 20
-19.417668
 30
0.0
 11
28.052316
 21
-19.542668
 31
0.0
  0
LINE
  5
1B2
330
1F
100
AcDbEntity
  8
Untitled
 62
     7
370
    40
100
AcDbLine
 10
28.035869
 20
-19.667668
 30
0.0
 11
28.019421
 21
-19.792668
 31
0.0
  0
LINE
  5
1B3
330
1F
100
AcDbEntity
  8
Untitled
 62
     7
370
    40
100
AcDbLine
 10
27.838022
 20
-20.423918
 30
0.0
 11
27.838022
 21
-20.517668
 31
0.0
  0
LINE
  5
1B4
330
1F
100
AcDbEntity
  8
Untitled
 62
     7
370
    40
100
AcDbLine
 10
27.921081
 20
-19.792668
 30
0.0
 11
27.838022
 21
-20.423918
 31
0.0
  0
LINE
  5
1B5
330
1F
100
AcDbEntity
  8
Untitled
 62
     7
370
    40
100
AcDbLine
 10
29.830252
 20
-18.177369
 30
0.0
 11
29.790686
 21
-18.142668
 31
0.0
  0
LINE
  5
1B6
330
1F
100
AcDbEntity
  8
Untitled
 62
     7
370
    40
100
AcDbLine
 10
28.173186
 20
-18.142668
 30
0.0
 11
28.13362
 21
-18.177369
 31
0.0
  0
LINE
  5
1B7
330
1F
100
AcDbEntity
  8
Untitled
 62
     7
370
    40
100
AcDbLine
 10
29.790686
 20
-18.142668
 30
0.0
 11
28.173186
 21
-18.142668
 31
0.0
  0
LINE
  5
1B8
330
1F
100
AcDbEntity
  8
Untitled
 62
     7
370
    40
100
AcDbLine
 10
29.830252
 20
-18.177369
 30
0.0
 11
28.13362
 21
-18.177369
 31
0.0
  0
LINE
  5
1B9
330
1F
100
AcDbEntity
  8
Untitled
 62
     7
370
    40
100
AcDbLine
 10
59.932813
 20
9.607332
 30
0.0
 11
40.636813
 21
9.607332
 31
0.0
  0
LINE
  5
1BA
330
1F
100
AcDbEntity
  8
Untitled
 62
     7
370
    40
100
AcDbLine
 10
59.932813
 20
8.982332
 30
0.0
 11
40.636813
 21
8.982332
 31
0.0
  0
LINE
  5
1BB
330
1F
100
AcDbEntity
  8
Untitled
 62
     7
370
    40
100
AcDbLine
 10
38.886813
 20
-18.142668
 30
0.0
 11
38.886813
 21
6.669832
 31
0.0
  0
LINE
  5
1BC
330
1F
100
AcDbEntity
  8
Untitled
 62
     7
370
    40
100
AcDbLine
 10
40.386813
 20
-18.142668
 30
0.0
 11
40.386813
 21
6.669832
 31
0.0
  0
LINE
  5
1BD
330
1F
100
AcDbEntity
  8
Untitled
 62
     7
370
    40
100
AcDbLine
 10
38.691089
 20
-18.917668
 30
0.0
 11
40.582536
 21
-18.917668
 31
0.0
  0
LINE
  5
1BE
330
1F
100
AcDbEntity
  8
Untitled
 62
     7
370
    40
100
AcDbLine
 10
38.674642
 20
-19.042668
 30
0.0
 11
40.598984
 21
-19.042668
 31
0.0
  0
LINE
  5
1BF
330
1F
100
AcDbEntity
  8
Untitled
 62
     7
370
    40
100
AcDbLine
 10
38.658194
 20
-19.167668
 30
0.0
 11
40.615431
 21
-19.167668
 31
0.0
  0
LINE
  5
1C0
330
1F
100
AcDbEntity
  8
Untitled
 62
     7
370
    40
100
AcDbLine
 10
38.641747
 20
-19.292668
 30
0.0
 11
40.631879
 21
-19.292668
 31
0.0
  0
LINE
  5
1C1
330
1F
100
AcDbEntity
  8
Untitled
 62
     7
370
    40
100
AcDbLine
 10
38.6253
 20
-19.417668
 30
0.0
 11
40.648326
 21
-19.417668
 31
0.0
  0
LINE
  5
1C2
330
1F
100
AcDbEntity
  8
Untitled
 62
     7
370
    40
100
AcDbLine
 10
38.608852
 20
-19.542668
 30
0.0
 11
40.664773
 21
-19.542668
 31
0.0
  0
LINE
  5
1C3
330
1F
100
AcDbEntity
  8
Untitled
 62
     7
370
    40
100
AcDbLine
 10
38.592405
 20
-19.667668
 30
0.0
 11
40.681221
 21
-19.667668
 31
0.0
  0
LINE
  5
1C4
330
1F
100
AcDbEntity
  8
Untitled
 62
     7
370
    40
100
AcDbLine
 10
38.575958
 20
-19.792668
 30
0.0
 11
40.697668
 21
-19.792668
 31
0.0
  0
LINE
  5
1C5
330
1F
100
AcDbEntity
  8
Untitled
 62
     7
370
    40
100
AcDbLine
 10
38.828063
 20
-18.142668
 30
0.0
 11
40.445563
 21
-18.142668
 31
0.0
  0
LINE
  5
1C6
330
1F
100
AcDbEntity
  8
Untitled
 62
     7
370
    40
100
AcDbLine
 10
38.492898
 20
-20.517668
 30
0.0
 11
40.793063
 21
-20.517668
 31
0.0
  0
LINE
  5
1C7
330
1F
100
AcDbEntity
  8
Untitled
 62
     7
370
    40
100
AcDbLine
 10
38.788497
 20
-18.177369
 30
0.0
 11
40.485129
 21
-18.177369
 31
0.0
  0
LINE
  5
1C8
330
1F
100
AcDbEntity
  8
Untitled
 62
     7
370
    40
100
AcDbLine
 10
40.780727
 20
-20.423918
 30
0.0
 11
38.492898
 21
-20.423918
 31
0.0
  0
LINE
  5
1C9
330
1F
100
AcDbEntity
  8
Untitled
 62
     7
370
    40
100
AcDbLine
 10
38.788497
 20
-18.177369
 30
0.0
 11
38.691089
 21
-18.917668
 31
0.0
  0
LINE
  5
1CA
330
1F
100
AcDbEntity
  8
Untitled
 62
     7
370
    40
100
AcDbLine
 10
38.674642
 20
-19.042668
 30
0.0
 11
38.658194
 21
-19.167668
 31
0.0
  0
LINE
  5
1CB
330
1F
100
AcDbEntity
  8
Untitled
 62
     7
370
    40
100
AcDbLine
 10
38.641747
 20
-19.292668
 30
0.0
 11
38.6253
 21
-19.417668
 31
0.0
  0
LINE
  5
1CC
330
1F
100
AcDbEntity
  8
Untitled
 62
     7
370
    40
100
AcDbLine
 10
38.608852
 20
-19.542668
 30
0.0
 11
38.592405
 21
-19.667668
 31
0.0
  0
LINE
  5
1CD
330
1F
100
AcDbEntity
  8
Untitled
 62
     7
370
    40
100
AcDbLine
 10
38.78943
 20
-18.917668
 30
0.0
 11
38.772982
 21
-19.042668
 31
0.0
  0
LINE
  5
1CE
330
1F
100
AcDbEntity
  8
Untitled
 62
     7
370
    40
100
AcDbLine
 10
38.756535
 20
-19.167668
 30
0.0
 11
38.740087
 21
-19.292668
 31
0.0
  0
LINE
  5
1CF
330
1F
100
AcDbEntity
  8
Untitled
 62
     7
370
    40
100
AcDbLine
 10
38.72364
 20
-19.417668
 30
0.0
 11
38.707193
 21
-19.542668
 31
0.0
  0
LINE
  5
1D0
330
1F
100
AcDbEntity
  8
Untitled
 62
     7
370
    40
100
AcDbLine
 10
38.690745
 20
-19.667668
 30
0.0
 11
38.674298
 21
-19.792668
 31
0.0
  0
LINE
  5
1D1
330
1F
100
AcDbEntity
  8
Untitled
 62
     7
370
    40
100
AcDbLine
 10
38.788497
 20
-18.177369
 30
0.0
 11
38.828063
 21
-18.142668
 31
0.0
  0
LINE
  5
1D2
330
1F
100
AcDbEntity
  8
Untitled
 62
     7
370
    40
100
AcDbLine
 10
38.492898
 20
-20.423918
 30
0.0
 11
38.492898
 21
-20.517668
 31
0.0
  0
LINE
  5
1D3
330
1F
100
AcDbEntity
  8
Untitled
 62
     7
370
    40
100
AcDbLine
 10
38.575958
 20
-19.792668
 30
0.0
 11
38.492898
 21
-20.423918
 31
0.0
  0
LINE
  5
1D4
330
1F
100
AcDbEntity
  8
Untitled
 62
     7
370
    40
100
AcDbLine
 10
40.485129
 20
-18.177369
 30
0.0
 11
40.582536
 21
-18.917668
 31
0.0
  0
LINE
  5
1D5
330
1F
100
AcDbEntity
  8
Untitled
 62
     7
370
    40
100
AcDbLine
 10
40.598984
 20
-19.042668
 30
0.0
 11
40.615431
 21
-19.167668
 31
0.0
  0
LINE
  5
1D6
330
1F
100
AcDbEntity
  8
Untitled
 62
     7
370
    40
100
AcDbLine
 10
40.631879
 20
-19.292668
 30
0.0
 11
40.648326
 21
-19.417668
 31
0.0
  0
LINE
  5
1D7
330
1F
100
AcDbEntity
  8
Untitled
 62
     7
370
    40
100
AcDbLine
 10
40.664773
 20
-19.542668
 30
0.0
 11
40.681221
 21
-19.667668
 31
0.0
  0
LINE
  5
1D8
330
1F
100
AcDbEntity
  8
Untitled
 62
     7
370
    40
100
AcDbLine
 10
40.484196
 20
-18.917668
 30
0.0
 11
40.500643
 21
-19.042668
 31
0.0
  0
LINE
  5
1D9
330
1F
100
AcDbEntity
  8
Untitled
 62
     7
370
    40
100
AcDbLine
 10
40.517091
 20
-19.167668
 30
0.0
 11
40.533538
 21
-19.292668
 31
0.0
  0
LINE
  5
1DA
330
1F
100
AcDbEntity
  8
Untitled
 62
     7
370
    40
100
AcDbLine
 10
40.549986
 20
-19.417668
 30
0.0
 11
40.566433
 21
-19.542668
 31
0.0
  0
LINE
  5
1DB
330
1F
100
AcDbEntity
  8
Untitled
 62
     7
370
    40
100
AcDbLine
 10
40.58288
 20
-19.667668
 30
0.0
 11
40.599328
 21
-19.792668
 31
0.0
  0
LINE
  5
1DC
330
1F
100
AcDbEntity
  8
Untitled
 62
     7
370
    40
100
AcDbLine
 10
40.445563
 20
-18.142668
 30
0.0
 11
40.485129
 21
-18.177369
 31
0.0
  0
LINE
  5
1DD
330
1F
100
AcDbEntity
  8
Untitled
 62
     7
370
    40
100
AcDbLine
 10
40.780727
 20
-20.423918
 30
0.0
 11
40.780727
 21
-20.517668
 31
0.0
  0
LINE
  5
1DE
330
1F
100
AcDbEntity
  8
Untitled
 62
     7
370
    40
100
AcDbLine
 10
40.697668
 20
-19.792668
 30
0.0
 11
40.780727
 21
-20.423918
 31
0.0
  0
LINE
  5
1DF
330
1F
100
AcDbEntity
  8
Untitled
 62
     7
370
    40
100
AcDbLine
 10
40.514313
 20
10.219832
 30
0.0
 11
40.514313
 21
9.685457
 31
0.0
  0
LINE
  5
1E0
330
1F
100
AcDbEntity
  8
Untitled
 62
     7
370
    40
100
AcDbLine
 10
38.759313
 20
10.219832
 30
0.0
 11
38.759313
 21
9.685457
 31
0.0
  0
LINE
  5
1E1
330
1F
100
AcDbEntity
  8
Untitled
 62
     7
370
    40
100
AcDbLine
 10
38.834313
 20
6.669832
 30
0.0
 11
40.439313
 21
6.669832
 31
0.0
  0
LINE
  5
1E2
330
1F
100
AcDbEntity
  8
Untitled
 62
     7
370
    40
100
AcDbLine
 10
38.759313
 20
6.744832
 30
0.0
 11
40.514313
 21
6.744832
 31
0.0
  0
LINE
  5
1E3
330
1F
100
AcDbEntity
  8
Untitled
 62
     7
370
    40
100
AcDbLine
 10
40.636813
 20
8.919832
 30
0.0
 11
38.636813
 21
8.919832
 31
0.0
  0
LINE
  5
1E4
330
1F
100
AcDbEntity
  8
Untitled
 62
     7
370
    40
100
AcDbLine
 10
40.636813
 20
8.044832
 30
0.0
 11
38.636813
 21
8.044832
 31
0.0
  0
LINE
  5
1E5
330
1F
100
AcDbEntity
  8
Untitled
 62
     7
370
    40
100
AcDbLine
 10
40.636813
 20
8.794832
 30
0.0
 11
38.636813
 21
8.794832
 31
0.0
  0
LINE
  5
1E6
330
1F
100
AcDbEntity
  8
Untitled
 62
     7
370
    40
100
AcDbLine
 10
40.636813
 20
8.669832
 30
0.0
 11
38.636813
 21
8.669832
 31
0.0
  0
LINE
  5
1E7
330
1F
100
AcDbEntity
  8
Untitled
 62
     7
370
    40
100
AcDbLine
 10
40.636813
 20
8.544832
 30
0.0
 11
38.636813
 21
8.544832
 31
0.0
  0
LINE
  5
1E8
330
1F
100
AcDbEntity
  8
Untitled
 62
     7
370
    40
100
AcDbLine
 10
40.636813
 20
8.419832
 30
0.0
 11
38.636813
 21
8.419832
 31
0.0
  0
LINE
  5
1E9
330
1F
100
AcDbEntity
  8
Untitled
 62
     7
370
    40
100
AcDbLine
 10
40.636813
 20
8.169832
 30
0.0
 11
38.636813
 21
8.169832
 31
0.0
  0
LINE
  5
1EA
330
1F
100
AcDbEntity
  8
Untitled
 62
     7
370
    40
100
AcDbLine
 10
40.636813
 20
8.294832
 30
0.0
 11
38.636813
 21
8.294832
 31
0.0
  0
LINE
  5
1EB
330
1F
100
AcDbEntity
  8
Untitled
 62
     7
370
    40
100
AcDbLine
 10
38.743688
 20
9.669832
 30
0.0
 11
40.529938
 21
9.669832
 31
0.0
  0
LINE
  5
1EC
330
1F
100
AcDbEntity
  8
Untitled
 62
     7
370
    40
100
AcDbLine
 10
38.743688
 20
7.294832
 30
0.0
 11
40.529938
 21
7.294832
 31
0.0
  0
LINE
  5
1ED
330
1F
100
AcDbEntity
  8
Untitled
 62
     7
370
    40
100
AcDbLine
 10
38.636813
 20
9.638582
 30
0.0
 11
40.636813
 21
9.638582
 31
0.0
  0
LINE
  5
1EE
330
1F
100
AcDbEntity
  8
Untitled
 62
     7
370
    40
100
AcDbLine
 10
40.636813
 20
7.326082
 30
0.0
 11
38.636813
 21
7.326082
 31
0.0
  0
LINE
  5
1EF
330
1F
100
AcDbEntity
  8
Untitled
 62
     7
370
    40
100
AcDbLine
 10
38.636813
 20
8.044832
 30
0.0
 11
38.636813
 21
7.326082
 31
0.0
  0
ELLIPSE
  5
1F0
330
1F
100
AcDbEntity
  8
Untitled
 62
     7
370
    40
100
AcDbEllipse
 10
38.834313
 20
6.744832
 30
0.0
 11
0.07500000000000284
 21
0.0
 31
0.0
210
0.0
220
0.0
230
1.0
 40
1.0
 41
3.141592653589793
 42
4.71238898038469
  0
LINE
  5
1F1
330
1F
100
AcDbEntity
  8
Untitled
 62
     7
370
    40
100
AcDbLine
 10
38.759313
 20
6.744832
 30
0.0
 11
38.759313
 21
7.279207
 31
0.0
  0
LINE
  5
1F2
330
1F
100
AcDbEntity
  8
Untitled
 62
     7
370
    40
100
AcDbLine
 10
38.743688
 20
7.294832
 30
0.0
 11
38.668063
 21
7.294832
 31
0.0
  0
LINE
  5
1F3
330
1F
100
AcDbEntity
  8
Untitled
 62
     7
370
    40
100
AcDbLine
 10
38.743688
 20
9.669832
 30
0.0
 11
38.668063
 21
9.669832
 31
0.0
  0
LINE
  5
1F4
330
1F
100
AcDbEntity
  8
Untitled
 62
     7
370
    40
100
AcDbLine
 10
38.636813
 20
9.638582
 30
0.0
 11
38.636813
 21
8.919832
 31
0.0
  0
LINE
  5
1F5
330
1F
100
AcDbEntity
  8
Untitled
 62
     7
370
    40
100
AcDbLine
 10
38.725201
 20
8.169832
 30
0.0
 11
38.725201
 21
8.044832
 31
0.0
  0
LINE
  5
1F6
330
1F
100
AcDbEntity
  8
Untitled
 62
     7
370
    40
100
AcDbLine
 10
38.636813
 20
8.794832
 30
0.0
 11
38.636813
 21
8.669832
 31
0.0
  0
LINE
  5
1F7
330
1F
100
AcDbEntity
  8
Untitled
 62
     7
370
    40
100
AcDbLine
 10
38.636813
 20
8.544832
 30
0.0
 11
38.636813
 21
8.419832
 31
0.0
  0
LINE
  5
1F8
330
1F
100
AcDbEntity
  8
Untitled
 62
     7
370
    40
100
AcDbLine
 10
38.636813
 20
8.294832
 30
0.0
 11
38.636813
 21
8.169832
 31
0.0
  0
LINE
  5
1F9
330
1F
100
AcDbEntity
  8
Untitled
 62
     7
370
    40
100
AcDbLine
 10
38.725201
 20
8.919832
 30
0.0
 11
38.725201
 21
8.794832
 31
0.0
  0
LINE
  5
1FA
330
1F
100
AcDbEntity
  8
Untitled
 62
     7
370
    40
100
AcDbLine
 10
38.725201
 20
8.669832
 30
0.0
 11
38.725201
 21
8.544832
 31
0.0
  0
LINE
  5
1FB
330
1F
100
AcDbEntity
  8
Untitled
 62
     7
370
    40
100
AcDbLine
 10
38.725201
 20
8.419832
 30
0.0
 11
38.725201
 21
8.294832
 31
0.0
  0
ELLIPSE
  5
1FC
330
1F
100
AcDbEntity
  8
Untitled
 62
     7
370
    40
100
AcDbEllipse
 10
38.743688
 20
9.685457
 30
0.0
 11
0.015625
 21
0.0
 31
0.0
210
0.0
220
0.0
230
1.0
 40
1.0
 41
4.71238898038469
 42
6.283185307179586
  0
ELLIPSE
  5
1FD
330
1F
100
AcDbEntity
  8
Untitled
 62
     7
370
    40
100
AcDbEllipse
 10
38.743688
 20
7.279207
 30
0.0
 11
0.015625
 21
0.0
 31
0.0
210
0.0
220
0.0
230
1.0
 40
1.0
 41
0.0
 42
1.570796326794897
  0
ELLIPSE
  5
1FE
330
1F
100
AcDbEntity
  8
Untitled
 62
     7
370
    40
100
AcDbEllipse
 10
38.668063
 20
9.638582
 30
0.0
 11
0.03124999999999822
 21
0.0
 31
0.0
210
0.0
220
0.0
230
1.0
 40
1.0
 41
1.570796326794897
 42
3.141592653589793
  0
ELLIPSE
  5
1FF
330
1F
100
AcDbEntity
  8
Untitled
 62
     7
370
    40
100
AcDbEllipse
 10
38.668063
 20
7.326082
 30
0.0
 11
0.03125
 21
0.0
 31
0.0
210
0.0
220
0.0
230
1.0
 40
1.0
 41
3.141592653589793
 42
4.71238898038469
  0
ELLIPSE
  5
200
330
1F
100
AcDbEntity
  8
Untitled
 62
     7
370
    40
100
AcDbEllipse
 10
40.605563
 20
7.326082
 30
0.0
 11
0.03125
 21
0.0
 31
0.0
210
0.0
220
0.0
230
1.0
 40
1.0
 41
4.71238898038469
 42
6.283185307179586
  0
ELLIPSE
  5
201
330
1F
100
AcDbEntity
  8
Untitled
 62
     7
370
    40
100
AcDbEllipse
 10
40.439313
 20
6.744832
 30
0.0
 11
0.07500000000000018
 21
0.0
 31
0.0
210
0.0
220
0.0
230
1.0
 40
1.0
 41
4.71238898038469
 42
6.283185307179586
  0
LINE
  5
202
330
1F
100
AcDbEntity
  8
Untitled
 62
     7
370
    40
100
AcDbLine
 10
40.514313
 20
6.744832
 30
0.0
 11
40.514313
 21
7.279207
 31
0.0
  0
LINE
  5
203
330
1F
100
AcDbEntity
  8
Untitled
 62
     7
370
    40
100
AcDbLine
 10
40.529938
 20
7.294832
 30
0.0
 11
40.605563
 21
7.294832
 31
0.0
  0
ELLIPSE
  5
204
330
1F
100
AcDbEntity
  8
Untitled
 62
     7
370
    40
100
AcDbEllipse
 10
40.529938
 20
7.279207
 30
0.0
 11
0.015625
 21
0.0
 31
0.0
210
0.0
220
0.0
230
1.0
 40
1.0
 41
1.570796326794897
 42
3.141592653589793
  0
ELLIPSE
  5
205
330
1F
100
AcDbEntity
  8
Untitled
 62
     7
370
    40
100
AcDbEllipse
 10
41.188317
 20
7.669832
 30
0.0
 11
0.6249999999999438
 21
0.0
 31
0.0
210
0.0
220
0.0
230
1.0
 40
1.0
 41
2.793722131507692
 42
3.489463175674124
  0
LINE
  5
206
330
1F
100
AcDbEntity
  8
Untitled
 62
     7
370
    40
100
AcDbLine
 10
40.636813
 20
7.357332
 30
0.0
 11
40.600754
 21
7.456771
 31
0.0
  0
LINE
  5
207
330
1F
100
AcDbEntity
  8
Untitled
 62
     7
370
    40
100
AcDbLine
 10
40.636813
 20
7.357332
 30
0.0
 11
40.636813
 21
7.326082
 31
0.0
  0
LINE
  5
208
330
1F
100
AcDbEntity
  8
Untitled
 62
     7
370
    40
100
AcDbLine
 10
40.548424
 20
8.169832
 30
0.0
 11
40.548424
 21
8.044832
 31
0.0
  0
LINE
  5
209
330
1F
100
AcDbEntity
  8
Untitled
 62
     7
370
    40
100
AcDbLine
 10
40.548424
 20
8.919832
 30
0.0
 11
40.548424
 21
8.794832
 31
0.0
  0
LINE
  5
20A
330
1F
100
AcDbEntity
  8
Untitled
 62
     7
370
    40
100
AcDbLine
 10
40.548424
 20
8.669832
 30
0.0
 11
40.548424
 21
8.544832
 31
0.0
  0
LINE
  5
20B
330
1F
100
AcDbEntity
  8
Untitled
 62
     7
370
    40
100
AcDbLine
 10
40.548424
 20
8.419832
 30
0.0
 11
40.548424
 21
8.294832
 31
0.0
  0
ELLIPSE
  5
20C
330
1F
100
AcDbEntity
  8
Untitled
 62
     7
370
    40
100
AcDbEllipse
 10
41.188317
 20
9.294832
 30
0.0
 11
0.6250000000001062
 21
0.0
 31
0.0
210
0.0
220
0.0
230
1.0
 40
1.0
 41
2.793722131505108
 42
3.489463175672132
  0
LINE
  5
20D
330
1F
100
AcDbEntity
  8
Untitled
 62
     7
370
    40
100
AcDbLine
 10
40.636813
 20
8.982332
 30
0.0
 11
40.600754
 21
9.081771
 31
0.0
  0
LINE
  5
20E
330
1F
100
AcDbEntity
  8
Untitled
 62
     7
370
    40
100
AcDbLine
 10
40.636813
 20
7.982332
 30
0.0
 11
40.600754
 21
7.882892
 31
0.0
  0
LINE
  5
20F
330
1F
100
AcDbEntity
  8
Untitled
 62
     7
370
    40
100
AcDbLine
 10
40.636813
 20
8.982332
 30
0.0
 11
40.636813
 21
8.919832
 31
0.0
  0
LINE
  5
210
330
1F
100
AcDbEntity
  8
Untitled
 62
     7
370
    40
100
AcDbLine
 10
40.636813
 20
7.982332
 30
0.0
 11
40.636813
 21
8.044832
 31
0.0
  0
LINE
  5
211
330
1F
100
AcDbEntity
  8
Untitled
 62
     7
370
    40
100
AcDbLine
 10
40.636813
 20
9.638582
 30
0.0
 11
40.636813
 21
9.607332
 31
0.0
  0
LINE
  5
212
330
1F
100
AcDbEntity
  8
Untitled
 62
     7
370
    40
100
AcDbLine
 10
40.636813
 20
9.607332
 30
0.0
 11
40.600754
 21
9.507892
 31
0.0
  0
LINE
  5
213
330
1F
100
AcDbEntity
  8
Untitled
 62
     7
370
    40
100
AcDbLine
 10
40.636813
 20
8.794832
 30
0.0
 11
40.636813
 21
8.669832
 31
0.0
  0
LINE
  5
214
330
1F
100
AcDbEntity
  8
Untitled
 62
     7
370
    40
100
AcDbLine
 10
40.636813
 20
8.544832
 30
0.0
 11
40.636813
 21
8.419832
 31
0.0
  0
LINE
  5
215
330
1F
100
AcDbEntity
  8
Untitled
 62
     7
370
    40
100
AcDbLine
 10
40.636813
 20
8.294832
 30
0.0
 11
40.636813
 21
8.169832
 31
0.0
  0
LINE
  5
216
330
1F
100
AcDbEntity
  8
Untitled
 62
     7
370
    40
100
AcDbLine
 10
40.529938
 20
9.669832
 30
0.0
 11
40.605563
 21
9.669832
 31
0.0
  0
ELLIPSE
  5
217
330
1F
100
AcDbEntity
  8
Untitled
 62
     7
370
    40
100
AcDbEllipse
 10
40.529938
 20
9.685457
 30
0.0
 11
0.01562499999999289
 21
0.0
 31
0.0
210
0.0
220
0.0
230
1.0
 40
1.0
 41
3.141592653589793
 42
4.71238898038469
  0
ELLIPSE
  5
218
330
1F
100
AcDbEntity
  8
Untitled
 62
     7
370
    40
100
AcDbEllipse
 10
40.605563
 20
9.638582
 30
0.0
 11
0.03125
 21
0.0
 31
0.0
210
0.0
220
0.0
230
1.0
 40
1.0
 41
0.0
 42
1.570796326794897
  0
ELLIPSE
  5
219
330
1F
100
AcDbEntity
  8
Untitled
 62
     7
370
    40
100
AcDbEllipse
 10
38.834313
 20
10.219832
 30
0.0
 11
0.07500000000004015
 21
0.0
 31
0.0
210
0.0
220
0.0
230
1.0
 40
1.0
 41
1.570796326794897
 42
3.141592653589793
  0
ELLIPSE
  5
21A
330
1F
100
AcDbEntity
  8
Untitled
 62
     7
370
    40
100
AcDbEllipse
 10
40.439313
 20
10.219832
 30
0.0
 11
0.07499999999999574
 21
0.0
 31
0.0
210
0.0
220
0.0
230
1.0
 40
1.0
 41
0.0
 42
1.570796326794897
  0
LINE
  5
21B
330
1F
100
AcDbEntity
  8
Untitled
 62
     7
370
    40
100
AcDbLine
 10
38.834313
 20
10.294832
 30
0.0
 11
40.439313
 21
10.294832
 31
0.0
  0
LINE
  5
21C
330
1F
100
AcDbEntity
  8
Untitled
 62
     7
370
    40
100
AcDbLine
 10
38.759313
 20
10.219832
 30
0.0
 11
40.514313
 21
10.219832
 31
0.0
  0
LINE
  5
21D
330
1F
100
AcDbEntity
  8
Untitled
 62
     7
370
    40
100
AcDbLine
 10
40.386813
 20
10.294832
 30
0.0
 11
40.386813
 21
11.326082
 31
0.0
  0
LINE
  5
21E
330
1F
100
AcDbEntity
  8
Untitled
 62
     7
370
    40
100
AcDbLine
 10
38.886813
 20
10.294832
 30
0.0
 11
38.886813
 21
11.326082
 31
0.0
  0
LINE
  5
21F
330
1F
100
AcDbEntity
  8
Untitled
 62
     7
370
    40
100
AcDbLine
 10
38.846813
 20
11.462332
 30
0.0
 11
38.866813
 21
11.482332
 31
0.0
  0
LINE
  5
220
330
1F
100
AcDbEntity
  8
Untitled
 62
     7
370
    40
100
AcDbLine
 10
38.846813
 20
11.326082
 30
0.0
 11
38.846813
 21
11.462332
 31
0.0
  0
LINE
  5
221
330
1F
100
AcDbEntity
  8
Untitled
 62
     7
370
    40
100
AcDbLine
 10
40.426813
 20
11.462332
 30
0.0
 11
40.406813
 21
11.482332
 31
0.0
  0
LINE
  5
222
330
1F
100
AcDbEntity
  8
Untitled
 62
     7
370
    40
100
AcDbLine
 10
40.426813
 20
11.326082
 30
0.0
 11
40.426813
 21
11.462332
 31
0.0
  0
LINE
  5
223
330
1F
100
AcDbEntity
  8
Untitled
 62
     7
370
    40
100
AcDbLine
 10
38.846813
 20
11.462332
 30
0.0
 11
40.426813
 21
11.462332
 31
0.0
  0
LINE
  5
224
330
1F
100
AcDbEntity
  8
Untitled
 62
     7
370
    40
100
AcDbLine
 10
38.866813
 20
11.482332
 30
0.0
 11
40.406813
 21
11.482332
 31
0.0
  0
LINE
  5
225
330
1F
100
AcDbEntity
  8
Untitled
 62
     7
370
    40
100
AcDbLine
 10
38.846813
 20
11.326082
 30
0.0
 11
40.426813
 21
11.326082
 31
0.0
  0
LINE
  5
226
330
1F
100
AcDbEntity
  8
Untitled
 62
     7
370
    40
100
AcDbLine
 10
40.636813
 20
7.982332
 30
0.0
 11
59.932813
 21
7.982332
 31
0.0
  0
LINE
  5
227
330
1F
100
AcDbEntity
  8
Untitled
 62
     7
370
    40
100
AcDbLine
 10
40.636813
 20
7.357332
 30
0.0
 11
59.932813
 21
7.357332
 31
0.0
  0
LINE
  5
228
330
1F
100
AcDbEntity
  8
Untitled
 62
     7
370
    40
100
AcDbLine
 10
60.886813
 20
9.747332
 30
0.0
 11
60.886813
 21
9.842332
 31
0.0
  0
LINE
  5
229
330
1F
100
AcDbEntity
  8
Untitled
 62
     7
370
    40
100
AcDbLine
 10
60.699313
 20
7.107332
 30
0.0
 11
60.699313
 21
9.857332
 31
0.0
  0
LINE
  5
22A
330
1F
100
AcDbEntity
  8
Untitled
 62
     7
370
    40
100
AcDbLine
 10
60.636813
 20
7.169832
 30
0.0
 11
60.699313
 21
7.107332
 31
0.0
  0
LINE
  5
22B
330
1F
100
AcDbEntity
  8
Untitled
 62
     7
370
    40
100
AcDbLine
 10
60.871813
 20
7.107332
 30
0.0
 11
60.699313
 21
7.107332
 31
0.0
  0
LINE
  5
22C
330
1F
100
AcDbEntity
  8
Untitled
 62
     7
370
    40
100
AcDbLine
 10
60.636813
 20
7.169832
 30
0.0
 11
60.636813
 21
9.794832
 31
0.0
  0
LINE
  5
22D
330
1F
100
AcDbEntity
  8
Untitled
 62
     7
370
    40
100
AcDbLine
 10
60.636813
 20
9.794832
 30
0.0
 11
60.699313
 21
9.857332
 31
0.0
  0
LINE
  5
22E
330
1F
100
AcDbEntity
  8
Untitled
 62
     7
370
    40
100
AcDbLine
 10
60.871813
 20
9.857332
 30
0.0
 11
60.699313
 21
9.857332
 31
0.0
  0
ELLIPSE
  5
22F
330
1F
100
AcDbEntity
  8
Untitled
 62
     7
370
    40
100
AcDbEllipse
 10
60.871813
 20
9.842332
 30
0.0
 11
0.01500000000000767
 21
0.0
 31
0.0
210
0.0
220
0.0
230
1.0
 40
1.0
 41
0.0
 42
1.570796326794897
  0
LINE
  5
230
330
1F
100
AcDbEntity
  8
Untitled
 62
     7
370
    40
100
AcDbLine
 10
60.886813
 20
7.122332
 30
0.0
 11
60.886813
 21
7.217332
 31
0.0
  0
ELLIPSE
  5
231
330
1F
100
AcDbEntity
  8
Untitled
 62
     7
370
    40
100
AcDbEllipse
 10
60.871813
 20
7.122332
 30
0.0
 11
0.01499999999999968
 21
0.0
 31
0.0
210
0.0
220
0.0
230
1.0
 40
1.0
 41
4.71238898038469
 42
6.283185307179586
  0
LINE
  5
232
330
1F
100
AcDbEntity
  8
Untitled
 62
     7
370
    40
100
AcDbLine
 10
60.886813
 20
7.217332
 30
0.0
 11
60.886813
 21
9.747332
 31
0.0
  0
LINE
  5
233
330
1F
100
AcDbEntity
  8
Untitled
 62
     7
370
    40
100
AcDbLine
 10
60.007813
 20
8.853332
 30
0.0
 11
59.932813
 21
8.928332
 31
0.0
  0
LINE
  5
234
330
1F
100
AcDbEntity
  8
Untitled
 62
     7
370
    40
100
AcDbLine
 10
60.007813
 20
9.736332
 30
0.0
 11
59.932813
 21
9.661332
 31
0.0
  0
LINE
  5
235
330
1F
100
AcDbEntity
  8
Untitled
 62
     7
370
    40
100
AcDbLine
 10
59.932813
 20
9.661332
 30
0.0
 11
59.932813
 21
8.928332
 31
0.0
  0
LINE
  5
236
330
1F
100
AcDbEntity
  8
Untitled
 62
     7
370
    40
100
AcDbLine
 10
60.636813
 20
8.878332
 30
0.0
 11
60.636813
 21
9.711332
 31
0.0
  0
LINE
  5
237
330
1F
100
AcDbEntity
  8
Untitled
 62
     7
370
    40
100
AcDbLine
 10
60.611813
 20
8.853332
 30
0.0
 11
60.611813
 21
9.736332
 31
0.0
  0
LINE
  5
238
330
1F
100
AcDbEntity
  8
Untitled
 62
     7
370
    40
100
AcDbLine
 10
60.007813
 20
8.853332
 30
0.0
 11
60.007813
 21
9.736332
 31
0.0
  0
LINE
  5
239
330
1F
100
AcDbEntity
  8
Untitled
 62
     7
370
    40
100
AcDbLine
 10
60.435813
 20
9.736332
 30
0.0
 11
60.435813
 21
8.853332
 31
0.0
  0
LINE
  5
23A
330
1F
100
AcDbEntity
  8
Untitled
 62
     7
370
    40
100
AcDbLine
 10
60.485813
 20
9.736332
 30
0.0
 11
60.485813
 21
8.853332
 31
0.0
  0
LINE
  5
23B
330
1F
100
AcDbEntity
  8
Untitled
 62
     7
370
    40
100
AcDbLine
 10
60.485813
 20
8.853332
 30
0.0
 11
60.611813
 21
8.853332
 31
0.0
  0
ELLIPSE
  5
23C
330
1F
100
AcDbEntity
  8
Untitled
 62
     7
370
    40
100
AcDbEllipse
 10
60.611813
 20
8.878332
 30
0.0
 11
0.02500000000000036
 21
0.0
 31
0.0
210
0.0
220
0.0
230
1.0
 40
1.0
 41
4.71238898038469
 42
6.283185307179586
  0
LINE
  5
23D
330
1F
100
AcDbEntity
  8
Untitled
 62
     7
370
    40
100
AcDbLine
 10
60.460813
 20
8.903332
 30
0.0
 11
60.485813
 21
8.853332
 31
0.0
  0
LINE
  5
23E
330
1F
100
AcDbEntity
  8
Untitled
 62
     7
370
    40
100
AcDbLine
 10
60.460813
 20
8.903332
 30
0.0
 11
60.435813
 21
8.853332
 31
0.0
  0
LINE
  5
23F
330
1F
100
AcDbEntity
  8
Untitled
 62
     7
370
    40
100
AcDbLine
 10
60.007813
 20
8.853332
 30
0.0
 11
60.435813
 21
8.853332
 31
0.0
  0
LINE
  5
240
330
1F
100
AcDbEntity
  8
Untitled
 62
     7
370
    40
100
AcDbLine
 10
60.435813
 20
9.736332
 30
0.0
 11
60.007813
 21
9.736332
 31
0.0
  0
ELLIPSE
  5
241
330
1F
100
AcDbEntity
  8
Untitled
 62
     7
370
    40
100
AcDbEllipse
 10
60.611813
 20
9.711332
 30
0.0
 11
0.02499999999999858
 21
0.0
 31
0.0
210
0.0
220
0.0
230
1.0
 40
1.0
 41
0.0
 42
1.570796326794897
  0
LINE
  5
242
330
1F
100
AcDbEntity
  8
Untitled
 62
     7
370
    40
100
AcDbLine
 10
60.460813
 20
9.686332
 30
0.0
 11
60.485813
 21
9.736332
 31
0.0
  0
LINE
  5
243
330
1F
100
AcDbEntity
  8
Untitled
 62
     7
370
    40
100
AcDbLine
 10
60.460813
 20
9.686332
 30
0.0
 11
60.435813
 21
9.736332
 31
0.0
  0
LINE
  5
244
330
1F
100
AcDbEntity
  8
Untitled
 62
     7
370
    40
100
AcDbLine
 10
60.611813
 20
9.736332
 30
0.0
 11
60.485813
 21
9.736332
 31
0.0
  0
LINE
  5
245
330
1F
100
AcDbEntity
  8
Untitled
 62
     7
370
    40
100
AcDbLine
 10
60.007813
 20
7.228332
 30
0.0
 11
59.932813
 21
7.303332
 31
0.0
  0
LINE
  5
246
330
1F
100
AcDbEntity
  8
Untitled
 62
     7
370
    40
100
AcDbLine
 10
60.007813
 20
8.111332
 30
0.0
 11
59.932813
 21
8.036332
 31
0.0
  0
LINE
  5
247
330
1F
100
AcDbEntity
  8
Untitled
 62
     7
370
    40
100
AcDbLine
 10
59.932813
 20
8.036332
 30
0.0
 11
59.932813
 21
7.303332
 31
0.0
  0
LINE
  5
248
330
1F
100
AcDbEntity
  8
Untitled
 62
     7
370
    40
100
AcDbLine
 10
60.636813
 20
7.253332
 30
0.0
 11
60.636813
 21
8.086332
 31
0.0
  0
LINE
  5
249
330
1F
100
AcDbEntity
  8
Untitled
 62
     7
370
    40
100
AcDbLine
 10
60.611813
 20
7.228332
 30
0.0
 11
60.611813
 21
8.111332
 31
0.0
  0
LINE
  5
24A
330
1F
100
AcDbEntity
  8
Untitled
 62
     7
370
    40
100
AcDbLine
 10
60.007813
 20
7.228332
 30
0.0
 11
60.007813
 21
8.111332
 31
0.0
  0
LINE
  5
24B
330
1F
100
AcDbEntity
  8
Untitled
 62
     7
370
    40
100
AcDbLine
 10
60.435813
 20
8.111332
 30
0.0
 11
60.435813
 21
7.228332
 31
0.0
  0
LINE
  5
24C
330
1F
100
AcDbEntity
  8
Untitled
 62
     7
370
    40
100
AcDbLine
 10
60.485813
 20
8.111332
 30
0.0
 11
60.485813
 21
7.228332
 31
0.0
  0
LINE
  5
24D
330
1F
100
AcDbEntity
  8
Untitled
 62
     7
370
    40
100
AcDbLine
 10
60.485813
 20
7.228332
 30
0.0
 11
60.611813
 21
7.228332
 31
0.0
  0
ELLIPSE
  5
24E
330
1F
100
AcDbEntity
  8
Untitled
 62
     7
370
    40
100
AcDbEllipse
 10
60.611813
 20
7.253332
 30
0.0
 11
0.02500000000000036
 21
0.0
 31
0.0
210
0.0
220
0.0
230
1.0
 40
1.0
 41
4.71238898038469
 42
6.283185307179586
  0
LINE
  5
24F
330
1F
100
AcDbEntity
  8
Untitled
 62
     7
370
    40
100
AcDbLine
 10
60.460813
 20
7.278332
 30
0.0
 11
60.485813
 21
7.228332
 31
0.0
  0
LINE
  5
250
330
1F
100
AcDbEntity
  8
Untitled
 62
     7
370
    40
100
AcDbLine
 10
60.460813
 20
7.278332
 30
0.0
 11
60.435813
 21
7.228332
 31
0.0
  0
LINE
  5
251
330
1F
100
AcDbEntity
  8
Untitled
 62
     7
370
    40
100
AcDbLine
 10
60.007813
 20
7.228332
 30
0.0
 11
60.435813
 21
7.228332
 31
0.0
  0
LINE
  5
252
330
1F
100
AcDbEntity
  8
Untitled
 62
     7
370
    40
100
AcDbLine
 10
60.435813
 20
8.111332
 30
0.0
 11
60.007813
 21
8.111332
 31
0.0
  0
ELLIPSE
  5
253
330
1F
100
AcDbEntity
  8
Untitled
 62
     7
370
    40
100
AcDbEllipse
 10
60.611813
 20
8.086332
 30
0.0
 11
0.02499999999999858
 21
0.0
 31
0.0
210
0.0
220
0.0
230
1.0
 40
1.0
 41
0.0
 42
1.570796326794897
  0
LINE
  5
254
330
1F
100
AcDbEntity
  8
Untitled
 62
     7
370
    40
100
AcDbLine
 10
60.460813
 20
8.061332
 30
0.0
 11
60.485813
 21
8.111332
 31
0.0
  0
LINE
  5
255
330
1F
100
AcDbEntity
  8
Untitled
 62
     7
370
    40
100
AcDbLine
 10
60.460813
 20
8.061332
 30
0.0
 11
60.435813
 21
8.111332
 31
0.0
  0
LINE
  5
256
330
1F
100
AcDbEntity
  8
Untitled
 62
     7
370
    40
100
AcDbLine
 10
60.611813
 20
8.111332
 30
0.0
 11
60.485813
 21
8.111332
 31
0.0
  0
INSERT
  5
258
330
1F
100
AcDbEntity
  8
0
100
AcDbBlockReference
  2
Block376
 10
10.138284
 20
25.247929
 30
0.0
  0
TEXT
  5
25C
330
1F
100
AcDbEntity
  8
Untitled
 62
     7
100
AcDbText
 10
4.607708
 20
20.365389
 30
0.0
 40
1.125
  1
Refer to the PDF specification for model numbers and additional information.
  7
ARIAL_400_0
100
AcDbText
  0
INSERT
  5
25E
330
1F
100
AcDbEntity
  8
0
100
AcDbBlockReference
  2
Block378
 10
30.516991
 20
17.629261
 30
0.0
  0
LINE
  5
262
330
1F
100
AcDbEntity
  8
Untitled
 62
     1
370
    40
100
AcDbLine
 10
10.34276
 20
22.958355
 30
0.0
 11
50.361294
 21
22.958355
 31
0.0
  0
LINE
  5
263
330
1F
100
AcDbEntity
  8
Untitled
 62
   136
370
    40
100
AcDbLine
 10
22.405966
 20
26.950604
 30
0.0
 11
38.504419
 21
26.950604
 31
0.0
  0
TEXT
  5
264
330
1F
100
AcDbEntity
  8
Untitled
 62
     7
100
AcDbText
 10
22.188359
 20
27.529588
 30
0.0
 40
1.125
  1
PALMER INDUSTRIES
  7
ARIAL_400_0
100
AcDbText
  0
LINE
  5
265
330
1F
100
AcDbEntity
  8
Untitled
 62
     7
370
    40
100
AcDbLine
 10
60.886813
 20
10.919832
 30
0.0
 11
61.761813
 21
10.919832
 31
0.0
  0
LINE
  5
266
330
1F
100
AcDbEntity
  8
Untitled
 62
     7
370
    40
100
AcDbLine
 10
60.886813
 20
10.669832
 30
0.0
 11
61.761813
 21
10.669832
 31
0.0
  0
LINE
  5
267
330
1F
100
AcDbEntity
  8
Untitled
 62
     7
370
    40
100
AcDbLine
 10
60.886813
 20
10.232332
 30
0.0
 11
60.886813
 21
11.482332
 31
0.0
  0
LINE
  5
268
330
1F
100
AcDbEntity
  8
Untitled
 62
     7
370
    40
100
AcDbLine
 10
60.886813
 20
11.482332
 30
0.0
 11
59.636813
 21
11.482332
 31
0.0
  0
LINE
  5
269
330
1F
100
AcDbEntity
  8
Untitled
 62
     7
370
    40
100
AcDbLine
 10
59.636813
 20
11.482332
 30
0.0
 11
59.636813
 21
11.357332
 31
0.0
  0
LINE
  5
26A
330
1F
100
AcDbEntity
  8
Untitled
 62
     7
370
    40
100
AcDbLine
 10
59.636813
 20
11.357332
 30
0.0
 11
60.761813
 21
11.357332
 31
0.0
  0
LINE
  5
26B
330
1F
100
AcDbEntity
  8
Untitled
 62
     7
370
    40
100
AcDbLine
 10
60.761813
 20
11.357332
 30
0.0
 11
60.761813
 21
10.232332
 31
0.0
  0
LINE
  5
26C
330
1F
100
AcDbEntity
  8
Untitled
 62
     7
370
    40
100
AcDbLine
 10
60.761813
 20
10.232332
 30
0.0
 11
60.886813
 21
10.232332
 31
0.0
  0
ELLIPSE
  5
26D
330
1F
100
AcDbEntity
  8
Untitled
 62
     7
370
    40
100
AcDbEllipse
 10
60.761813
 20
10.794832
 30
0.0
 11
0.2499999999999609
 21
0.0
 31
0.0
210
0.0
220
0.0
230
1.0
 40
1.0
 41
1.570796326794897
 42
4.71238898038469
  0
LINE
  5
26E
330
1F
100
AcDbEntity
  8
Untitled
 62
     7
370
    40
100
AcDbLine
 10
61.886813
 20
10.794832
 30
0.0
 11
61.761813
 21
10.919832
 31
0.0
  0
LINE
  5
26F
330
1F
100
AcDbEntity
  8
Untitled
 62
     7
370
    40
100
AcDbLine
 10
61.886813
 20
10.794832
 30
0.0
 11
61.761813
 21
10.669832
 31
0.0
  0
LINE
  5
270
330
1F
100
AcDbEntity
  8
Untitled
 62
     7
370
    40
100
AcDbLine
 10
4.731936
 20
11.482332
 30
0.0
 11
22.731936
 21
11.482332
 31
0.0
  0
LINE
  5
271
330
1F
100
AcDbEntity
  8
Untitled
 62
     7
370
    40
100
AcDbLine
 10
22.731936
 20
11.482332
 30
0.0
 11
22.731936
 21
10.232332
 31
0.0
  0
LINE
  5
272
330
1F
100
AcDbEntity
  8
Untitled
 62
     7
370
    40
100
AcDbLine
 10
22.731936
 20
10.232332
 30
0.0
 11
4.731936
 21
10.232332
 31
0.0
  0
LINE
  5
273
330
1F
100
AcDbEntity
  8
Untitled
 62
     7
370
    40
100
AcDbLine
 10
4.731936
 20
10.232332
 30
0.0
 11
4.731936
 21
11.482332
 31
0.0
  0
LINE
  5
274
330
1F
100
AcDbEntity
  8
Untitled
 62
     7
370
    40
100
AcDbLine
 10
4.731936
 20
11.357332
 30
0.0
 11
22.731936
 21
11.357332
 31
0.0
  0
ELLIPSE
  5
275
330
1F
100
AcDbEntity
  8
Untitled
 62
     7
370
    40
100
AcDbEllipse
 10
13.731936
 20
10.857332
 30
0.0
 11
0.2500000000002126
 21
0.0
 31
0.0
210
0.0
220
0.0
230
1.0
 40
1.0
 41
0.0
 42
6.283185307179586
  0
ELLIPSE
  5
276
330
1F
100
AcDbEntity
  8
Untitled
 62
     7
370
    40
100
AcDbEllipse
 10
5.731936
 20
10.857332
 30
0.0
 11
0.249999999999852
 21
0.0
 31
0.0
210
0.0
220
0.0
230
1.0
 40
1.0
 41
0.0
 42
6.283185307179586
  0
ELLIPSE
  5
277
330
1F
100
AcDbEntity
  8
Untitled
 62
     7
370
    40
100
AcDbEllipse
 10
21.731936
 20
10.857332
 30
0.0
 11
0.2500000000002061
 21
0.0
 31
0.0
210
0.0
220
0.0
230
1.0
 40
1.0
 41
0.0
 42
6.283185307179586
  0
LINE
  5
278
330
1F
100
AcDbEntity
  8
Untitled
 62
     7
370
    40
100
AcDbLine
 10
27.838022
 20
-20.517668
 30
0.0
 11
30.125851
 21
-20.517668
 31
0.0
  0
INSERT
  5
27A
330
1F
100
AcDbEntity
  8
0
100
AcDbBlockReference
  2
Block402
 10
60.886813
 20
-0.014832
 30
0.0
  0
INSERT
  5
281
330
1F
100
AcDbEntity
  8
0
100
AcDbBlockReference
  2
Block403
 10
-7.304124
 20
11.482332
 30
0.0
  0
INSERT
  5
289
330
1F
100
AcDbEntity
  8
0
100
AcDbBlockReference
  2
Block404
 10
-2.268064
 20
-0.014832
 30
0.0
  0
INSERT
  5
291
330
1F
100
AcDbEntity
  8
0
100
AcDbBlockReference
  2
Block405
 10
38.886813
 20
3.596151
 30
0.0
  0
INSERT
  5
299
330
1F
100
AcDbEntity
  8
0
100
AcDbBlockReference
  2
Block406
 10
43.281112
 20
8.982332
 30
0.0
  0
TEXT
  5
29E
330
1F
100
AcDbEntity
  8
Untitled
 62
     7
100
AcDbText
 10
43.758475
 20
10.518172
 30
0.0
 40
1.125
  1
5/8"
  7
ARIAL_400_0
100
AcDbText
  0
ENDSEC
  0
SECTION
  2
OBJECTS
  0
DICTIONARY
  5
C
330
0
100
AcDbDictionary
281
     1
  3
ACAD_COLOR
350
6B
  3
ACAD_GROUP
350
D
  3
ACAD_IMAGE_VARS
350
8D
  3
ACAD_LAYOUT
350
1A
  3
ACAD_MATERIAL
350
6A
  3
ACAD_MLEADERSTYLE
350
D8
  3
ACAD_MLINESTYLE
350
17
  3
ACAD_PLOTSETTINGS
350
19
  3
ACAD_PLOTSTYLENAME
350
E
  3
ACAD_SCALELIST
350
98
  3
ACAD_TABLESTYLE
350
D6
  3
ACAD_VISUALSTYLE
350
BD
  3
ACDBHEADERROUNDTRIPXREC
350
2B2
  3
AcDbVariableDictionary
350
5E
  0
DICTIONARY
  5
2B5
330
8
100
AcDbDictionary
280
     1
281
     1
  3
ACAD_XREC_ROUNDTRIP
360
2B6
  0
DICTIONARY
  5
6B
102
{ACAD_REACTORS
330
C
102
}
330
C
100
AcDbDictionary
281
     1
  0
DICTIONARY
  5
D
102
{ACAD_REACTORS
330
C
102
}
330
C
100
AcDbDictionary
281
     1
  0
RASTERVARIABLES
  5
8D
102
{ACAD_REACTORS
330
C
102
}
330
C
100
AcDbRasterVariables
 90
        0
 70
     0
 71
     1
 72
     1
  0
DICTIONARY
  5
1A
102
{ACAD_REACTORS
330
C
102
}
330
C
100
AcDbDictionary
281
     1
  3
Layout1
350
51
  3
Layout2
350
56
  3
Model
350
22
  0
DICTIONARY
  5
6A
102
{ACAD_REACTORS
330
C
102
}
330
C
100
AcDbDictionary
281
     1
  3
ByBlock
350
BB
  3
ByLayer
350
BA
  3
Global
350
BC
  0
DICTIONARY
  5
D8
102
{ACAD_REACTORS
330
C
102
}
330
C
100
AcDbDictionary
281
     1
  3
Standard
350
D9
  0
DICTIONARY
  5
17
102
{ACAD_REACTORS
330
C
102
}
330
C
100
AcDbDictionary
281
     1
  3
Standard
350
18
  0
DICTIONARY
  5
19
102
{ACAD_REACTORS
330
C
102
}
330
C
100
AcDbDictionary
281
     1
  0
ACDBDICTIONARYWDFLT
  5
E
102
{ACAD_REACTORS
330
C
102
}
330
C
100
AcDbDictionary
281
     1
  3
Normal
350
F
100
AcDbDictionaryWithDefault
340
F
  0
DICTIONARY
  5
98
102
{ACAD_REACTORS
330
C
102
}
330
C
100
AcDbDictionary
281
     1
  3
A0
350
99
  3
A1
350
9A
  3
A2
350
9B
  3
A3
350
9C
  3
A4
350
9D
  3
A5
350
9E
  3
A6
350
9F
  3
A7
350
A0
  3
A8
350
A1
  3
A9
350
A2
  3
B0
350
A3
  3
B1
350
A4
  3
B2
350
A5
  3
B3
350
A6
  3
B4
350
A7
  3
B5
350
A8
  3
B6
350
A9
  3
B7
350
AA
  3
B8
350
AB
  3
B9
350
AC
  3
C0
350
AD
  3
C1
350
AE
  3
C2
350
AF
  3
C3
350
B0
  3
C4
350
B1
  3
C5
350
B2
  3
C6
350
B3
  3
C7
350
B4
  3
C8
350
B5
  3
C9
350
B6
  3
D0
350
B7
  3
D1
350
B8
  3
D2
350
B9
  0
DICTIONARY
  5
D6
102
{ACAD_REACTORS
330
C
102
}
330
C
100
AcDbDictionary
281
     1
  3
Standard
350
D7
  0
DICTIONARY
  5
BD
102
{ACAD_REACTORS
330
C
102
}
330
C
100
AcDbDictionary
281
     1
  3
2dWireframe
350
C2
  3
Basic
350
C5
  3
Brighten
350
C9
  3
ColorChange
350
CD
  3
Conceptual
350
C7
  3
Dim
350
C8
  3
EdgeColorOff
350
D0
  3
Facepattern
350
CC
  3
Flat
350
BE
  3
FlatWithEdges
350
BF
  3
Gouraud
350
C0
  3
GouraudWithEdges
350
C1
  3
Hidden
350
C4
  3
JitterOff
350
CE
  3
Linepattern
350
CB
  3
OverhangOff
350
CF
  3
Realistic
350
C6
  3
Shaded
350
D5
  3
Shaded with edges
350
D4
  3
Shades of Gray
350
D1
  3
Sketchy
350
D2
  3
Thicken
350
CA
  3
Wireframe
350
C3
  3
X-Ray
350
D3
  0
DICTIONARY
  5
2B2
102
{ACAD_REACTORS
330
C
102
}
330
C
100
AcDbDictionary
281
     1
  3
COLORDICT
350
2B3
  3
MATERIALDICT
350
2B4
  0
DICTIONARY
  5
5E
102
{ACAD_REACTORS
330
C
102
}
330
C
100
AcDbDictionary
281
     1
  3
CANNOSCALE
350
2B7
  3
CMLEADERSTYLE
350
2AE
  3
CTABLESTYLE
350
2AD
  3
DIMASSOC
350
5F
  3
HIDETEXT
350
63
  3
MSLTSCALE
350
2AF
  3
PROJECTNAME
350
89
  0
XRECORD
  5
2B6
102
{ACAD_REACTORS
330
2B5
102
}
330
2B5
100
AcDbXrecord
280
     1
102
VTR_0.000_0.000_1.000_1.000_VISUALSTYLE
340
C2
102
VTR_0.000_0.000_1.000_1.000_GRIDDISPLAY
 70
     3
102
VTR_0.000_0.000_1.000_1.000_GRIDMAJOR
 70
     5
102
VTR_0.000_0.000_1.000_1.000_DEFAULTLIGHTING
280
     1
102
VTR_0.000_0.000_1.000_1.000_DEFAULTLIGHTINGTYPE
 70
     1
102
VTR_0.000_0.000_1.000_1.000_BRIGHTNESS
141
0.0
102
VTR_0.000_0.000_1.000_1.000_CONTRAST
142
0.0
  0
LAYOUT
  5
51
102
{ACAD_REACTORS
330
1A
102
}
330
1A
100
AcDbPlotSettings
  1

  2
None
  4

  6

 40
0.0
 41
0.0
 42
0.0
 43
0.0
 44
0.0
 45
0.0
 46
0.0
 47
0.0
 48
0.0
 49
0.0
140
0.0
141
0.0
142
1.0
143
1.0
 70
   688
 72
     0
 73
     0
 74
     5
  7

 75
    16
147
1.0
148
0.0
149
0.0
100
AcDbLayout
  1
Layout1
 70
     1
 71
     1
 10
0.0
 20
0.0
 11
12.0
 21
9.0
 12
0.0
 22
0.0
 32
0.0
 14
0.0
 24
0.0
 34
0.0
 15
0.0
 25
0.0
 35
0.0
146
0.0
 13
0.0
 23
0.0
 33
0.0
 16
1.0
 26
0.0
 36
0.0
 17
0.0
 27
1.0
 37
0.0
 76
     0
330
50
  0
LAYOUT
  5
56
102
{ACAD_REACTORS
330
1A
102
}
330
1A
100
AcDbPlotSettings
  1

  2
None
  4

  6

 40
0.0
 41
0.0
 42
0.0
 43
0.0
 44
0.0
 45
0.0
 46
0.0
 47
0.0
 48
0.0
 49
0.0
140
0.0
141
0.0
142
1.0
143
1.0
 70
   688
 72
     0
 73
     0
 74
     5
  7

 75
    16
147
1.0
148
0.0
149
0.0
100
AcDbLayout
  1
Layout2
 70
     1
 71
     2
 10
0.0
 20
0.0
 11
12.0
 21
9.0
 12
0.0
 22
0.0
 32
0.0
 14
0.0
 24
0.0
 34
0.0
 15
0.0
 25
0.0
 35
0.0
146
0.0
 13
0.0
 23
0.0
 33
0.0
 16
1.0
 26
0.0
 36
0.0
 17
0.0
 27
1.0
 37
0.0
 76
     0
330
55
  0
LAYOUT
  5
22
102
{ACAD_REACTORS
330
1A
102
}
330
1A
100
AcDbPlotSettings
  1

  2
none_device
  4
ANSI_A_(8.50_x_11.00_Inches)
  6

 40
6.35
 41
19.049999
 42
6.350006
 43
19.049988
 44
215.899994
 45
279.399994
 46
0.0
 47
0.0
 48
0.0
 49
0.0
140
0.0
141
0.0
142
1.0
143
78.436453
 70
 11952
 72
     0
 73
     1
 74
     0
  7

 75
     0
147
0.012749
148
0.0
149
0.0
100
AcDbLayout
  1
Model
 70
     1
 71
     0
 10
0.0
 20
0.0
 11
12.0
 21
9.0
 12
0.0
 22
0.0
 32
0.0
 14
0.0
 24
0.0
 34
0.0
 15
0.0
 25
0.0
 35
0.0
146
0.0
 13
0.0
 23
0.0
 33
0.0
 16
1.0
 26
0.0
 36
0.0
 17
0.0
 27
1.0
 37
0.0
 76
     0
330
1F
331
8E
  0
MATERIAL
  5
BB
102
{ACAD_REACTORS
330
6A
102
}
102
{ACAD_XDICTIONARY
360
2BA
102
}
330
6A
100
AcDbMaterial
  1
ByBlock
  0
MATERIAL
  5
BA
102
{ACAD_REACTORS
330
6A
102
}
102
{ACAD_XDICTIONARY
360
2B8
102
}
330
6A
100
AcDbMaterial
  1
ByLayer
  0
MATERIAL
  5
BC
102
{ACAD_REACTORS
330
6A
102
}
102
{ACAD_XDICTIONARY
360
2BC
102
}
330
6A
100
AcDbMaterial
  1
Global
  0
MLEADERSTYLE
  5
D9
102
{ACAD_REACTORS
330
D8
102
}
102
{ACAD_XDICTIONARY
360
2EF
102
}
330
D8
100
AcDbMLeaderStyle
170
     2
171
     1
172
     0
 90
        2
 40
0.0
 41
0.0
173
     1
 91
-1056964608
340
14
 92
       -2
290
     1
 42
2.0
291
     1
 43
8.0
  3
Standard
341
0
 44
4.0
300

342
11
174
     1
178
     6
175
     1
176
     0
 93
-1056964608
 45
4.0
292
     0
297
     0
 46
4.0
343
0
 94
-1056964608
 47
1.0
 49
1.0
140
1.0
293
     1
141
0.0
294
     1
177
     0
142
1.0
295
     0
296
     0
143
3.75
1001
ACAD_MLEADERVER
1070
     2
  0
MLINESTYLE
  5
18
102
{ACAD_REACTORS
330
17
102
}
330
17
100
AcDbMlineStyle
  2
STANDARD
 70
     0
  3

 62
   256
 51
90.0
 52
90.0
 71
     2
 49
0.5
 62
   256
  6
BYLAYER
 49
-0.5
 62
   256
  6
BYLAYER
  0
ACDBPLACEHOLDER
  5
F
102
{ACAD_REACTORS
330
E
102
}
330
E
  0
SCALE
  5
99
102
{ACAD_REACTORS
330
98
102
}
330
98
100
AcDbScale
 70
     0
300
1:1
140
1.0
141
1.0
290
     1
  0
SCALE
  5
9A
102
{ACAD_REACTORS
330
98
102
}
330
98
100
AcDbScale
 70
     0
300
1:2
140
1.0
141
2.0
290
     0
  0
SCALE
  5
9B
102
{ACAD_REACTORS
330
98
102
}
330
98
100
AcDbScale
 70
     0
300
1:4
140
1.0
141
4.0
290
     0
  0
SCALE
  5
9C
102
{ACAD_REACTORS
330
98
102
}
330
98
100
AcDbScale
 70
     0
300
1:5
140
1.0
141
5.0
290
     0
  0
SCALE
  5
9D
102
{ACAD_REACTORS
330
98
102
}
330
98
100
AcDbScale
 70
     0
300
1:8
140
1.0
141
8.0
290
     0
  0
SCALE
  5
9E
102
{ACAD_REACTORS
330
98
102
}
330
98
100
AcDbScale
 70
     0
300
1:10
140
1.0
141
10.0
290
     0
  0
SCALE
  5
9F
102
{ACAD_REACTORS
330
98
102
}
330
98
100
AcDbScale
 70
     0
300
1:16
140
1.0
141
16.0
290
     0
  0
SCALE
  5
A0
102
{ACAD_REACTORS
330
98
102
}
330
98
100
AcDbScale
 70
     0
300
1:20
140
1.0
141
20.0
290
     0
  0
SCALE
  5
A1
102
{ACAD_REACTORS
330
98
102
}
330
98
100
AcDbScale
 70
     0
300
1:30
140
1.0
141
30.0
290
     0
  0
SCALE
  5
A2
102
{ACAD_REACTORS
330
98
102
}
330
98
100
AcDbScale
 70
     0
300
1:40
140
1.0
141
40.0
290
     0
  0
SCALE
  5
A3
102
{ACAD_REACTORS
330
98
102
}
330
98
100
AcDbScale
 70
     0
300
1:50
140
1.0
141
50.0
290
     0
  0
SCALE
  5
A4
102
{ACAD_REACTORS
330
98
102
}
330
98
100
AcDbScale
 70
     0
300
1:100
140
1.0
141
100.0
290
     0
  0
SCALE
  5
A5
102
{ACAD_REACTORS
330
98
102
}
330
98
100
AcDbScale
 70
     0
300
2:1
140
2.0
141
1.0
290
     0
  0
SCALE
  5
A6
102
{ACAD_REACTORS
330
98
102
}
330
98
100
AcDbScale
 70
     0
300
4:1
140
4.0
141
1.0
290
     0
  0
SCALE
  5
A7
102
{ACAD_REACTORS
330
98
102
}
330
98
100
AcDbScale
 70
     0
300
8:1
140
8.0
141
1.0
290
     0
  0
SCALE
  5
A8
102
{ACAD_REACTORS
330
98
102
}
330
98
100
AcDbScale
 70
     0
300
10:1
140
10.0
141
1.0
290
     0
  0
SCALE
  5
A9
102
{ACAD_REACTORS
330
98
102
}
330
98
100
AcDbScale
 70
     0
300
100:1
140
100.0
141
1.0
290
     0
  0
SCALE
  5
AA
102
{ACAD_REACTORS
330
98
102
}
330
98
100
AcDbScale
 70
     0
300
1/128" = 1'-0"
140
0.007812
141
12.0
290
     0
  0
SCALE
  5
AB
102
{ACAD_REACTORS
330
98
102
}
330
98
100
AcDbScale
 70
     0
300
1/64" = 1'-0"
140
0.015625
141
12.0
290
     0
  0
SCALE
  5
AC
102
{ACAD_REACTORS
330
98
102
}
330
98
100
AcDbScale
 70
     0
300
1/32" = 1'-0"
140
0.03125
141
12.0
290
     0
  0
SCALE
  5
AD
102
{ACAD_REACTORS
330
98
102
}
330
98
100
AcDbScale
 70
     0
300
1/16" = 1'-0"
140
0.0625
141
12.0
290
     0
  0
SCALE
  5
AE
102
{ACAD_REACTORS
330
98
102
}
330
98
100
AcDbScale
 70
     0
300
3/32" = 1'-0"
140
0.09375
141
12.0
290
     0
  0
SCALE
  5
AF
102
{ACAD_REACTORS
330
98
102
}
330
98
100
AcDbScale
 70
     0
300
1/8" = 1'-0"
140
0.125
141
12.0
290
     0
  0
SCALE
  5
B0
102
{ACAD_REACTORS
330
98
102
}
330
98
100
AcDbScale
 70
     0
300
3/16" = 1'-0"
140
0.1875
141
12.0
290
     0
  0
SCALE
  5
B1
102
{ACAD_REACTORS
330
98
102
}
330
98
100
AcDbScale
 70
     0
300
1/4" = 1'-0"
140
0.25
141
12.0
290
     0
  0
SCALE
  5
B2
102
{ACAD_REACTORS
330
98
102
}
330
98
100
AcDbScale
 70
     0
300
3/8" = 1'-0"
140
0.375
141
12.0
290
     0
  0
SCALE
  5
B3
102
{ACAD_REACTORS
330
98
102
}
330
98
100
AcDbScale
 70
     0
300
1/2" = 1'-0"
140
0.5
141
12.0
290
     0
  0
SCALE
  5
B4
102
{ACAD_REACTORS
330
98
102
}
330
98
100
AcDbScale
 70
     0
300
3/4" = 1'-0"
140
0.75
141
12.0
290
     0
  0
SCALE
  5
B5
102
{ACAD_REACTORS
330
98
102
}
330
98
100
AcDbScale
 70
     0
300
1" = 1'-0"
140
1.0
141
12.0
290
     0
  0
SCALE
  5
B6
102
{ACAD_REACTORS
330
98
102
}
330
98
100
AcDbScale
 70
     0
300
1-1/2" = 1'-0"
140
1.5
141
12.0
290
     0
  0
SCALE
  5
B7
102
{ACAD_REACTORS
330
98
102
}
330
98
100
AcDbScale
 70
     0
300
3" = 1'-0"
140
3.0
141
12.0
290
     0
  0
SCALE
  5
B8
102
{ACAD_REACTORS
330
98
102
}
330
98
100
AcDbScale
 70
     0
300
6" = 1'-0"
140
6.0
141
12.0
290
     0
  0
SCALE
  5
B9
102
{ACAD_REACTORS
330
98
102
}
330
98
100
AcDbScale
 70
     0
300
1'-0" = 1'-0"
140
12.0
141
12.0
290
     0
  0
TABLESTYLE
  5
D7
102
{ACAD_REACTORS
330
D6
102
}
330
D6
100
AcDbTableStyle
  3
Standard
 70
     0
 71
     0
 40
1.5
 41
1.5
280
     0
281
     0
  7
Standard
140
4.5
170
     2
 62
     0
 63
   257
283
     0
274
    -2
284
     1
 64
     0
275
    -2
285
     1
 65
     0
276
    -2
286
     1
 66
     0
277
    -2
287
     1
 67
     0
278
    -2
288
     1
 68
     0
279
    -2
289
     1
 69
     0
  7
Standard
140
6.0
170
     5
 62
     0
 63
   257
283
     0
274
    -2
284
     1
 64
     0
275
    -2
285
     1
 65
     0
276
    -2
286
     1
 66
     0
277
    -2
287
     1
 67
     0
278
    -2
288
     1
 68
     0
279
    -2
289
     1
 69
     0
  7
Standard
140
4.5
170
     5
 62
     0
 63
   257
283
     0
274
    -2
284
     1
 64
     0
275
    -2
285
     1
 65
     0
276
    -2
286
     1
 66
     0
277
    -2
287
     1
 67
     0
278
    -2
288
     1
 68
     0
279
    -2
289
     1
 69
     0
  0
VISUALSTYLE
  5
C2
102
{ACAD_REACTORS
330
BD
102
}
102
{ACAD_XDICTIONARY
360
2C6
102
}
330
BD
100
AcDbVisualStyle
  2
2dWireframe
 70
     4
 71
     0
 72
     2
 73
     0
 90
        0
 40
0.6
 41
30.0
 62
     5
 63
     7
 74
     1
 91
        4
 64
     7
 65
   257
 75
     1
175
     1
 42
1.0
 92
        0
 66
   257
 43
1.0
 76
     1
 77
     6
 78
     2
 67
     7
 79
     5
170
     0
171
     0
290
     0
174
     0
 93
        1
 44
0.0
173
     0
291
     0
 45
0.0
1001
ACAD
1000
AcDbSavedByObjectVersion
1070
     0
  0
VISUALSTYLE
  5
C5
102
{ACAD_REACTORS
330
BD
102
}
102
{ACAD_XDICTIONARY
360
2CC
102
}
330
BD
100
AcDbVisualStyle
  2
Basic
 70
     7
 71
     1
 72
     0
 73
     1
 90
        0
 40
0.6
 41
30.0
 62
     5
 63
     7
 74
     0
 91
        4
 64
     7
 65
   257
 75
     1
175
     1
 42
1.0
 92
        8
 66
     7
 43
1.0
 76
     1
 77
     6
 78
     2
 67
     7
 79
     5
170
     0
171
     0
290
     0
174
     0
 93
        1
 44
0.0
173
     0
291
     1
 45
0.0
1001
ACAD
1000
AcDbSavedByObjectVersion
1070
     0
  0
VISUALSTYLE
  5
C9
102
{ACAD_REACTORS
330
BD
102
}
102
{ACAD_XDICTIONARY
360
2D4
102
}
330
BD
100
AcDbVisualStyle
  2
Brighten
 70
    12
 71
     2
 72
     2
 73
     0
 90
        0
 40
0.6
 41
30.0
 62
     5
 63
     7
 74
     1
 91
        4
 64
     7
 65
   257
 75
     1
175
     1
 42
1.0
 92
        8
 66
     7
 43
1.0
 76
     1
 77
     6
 78
     2
 67
     7
 79
     5
170
     0
171
     0
290
     0
174
     0
 93
        1
 44
50.0
173
     0
291
     1
 45
0.0
1001
ACAD
1000
AcDbSavedByObjectVersion
1070
     0
  0
VISUALSTYLE
  5
CD
102
{ACAD_REACTORS
330
BD
102
}
102
{ACAD_XDICTIONARY
360
2DC
102
}
330
BD
100
AcDbVisualStyle
  2
ColorChange
 70
    16
 71
     2
 72
     2
 73
     3
 90
        0
 40
0.6
 41
30.0
 62
     5
 63
     8
 74
     1
 91
        4
 64
     7
 65
   257
 75
     1
175
     1
 42
1.0
 92
        8
 66
     8
 43
1.0
 76
     1
 77
     6
 78
     2
 67
     7
 79
     5
170
     0
171
     0
290
     0
174
     0
 93
        1
 44
0.0
173
     0
291
     1
 45
0.0
1001
ACAD
1000
AcDbSavedByObjectVersion
1070
     0
  0
VISUALSTYLE
  5
C7
102
{ACAD_REACTORS
330
BD
102
}
102
{ACAD_XDICTIONARY
360
2D0
102
}
330
BD
100
AcDbVisualStyle
  2
Conceptual
 70
     9
 71
     3
 72
     2
 73
     0
 90
        0
 40
0.6
 41
30.0
 62
     5
 63
     7
 74
     2
 91
        2
 64
     7
 65
   257
 75
     1
175
     1
 42
179.0
 92
        8
 66
     7
 43
1.0
 76
     1
 77
     6
 78
     2
 67
     7
 79
     3
170
     0
171
     0
290
     0
174
     0
 93
        1
 44
0.0
173
     0
291
     0
 45
0.0
1001
ACAD
1000
AcDbSavedByObjectVersion
1070
     0
  0
VISUALSTYLE
  5
C8
102
{ACAD_REACTORS
330
BD
102
}
102
{ACAD_XDICTIONARY
360
2D2
102
}
330
BD
100
AcDbVisualStyle
  2
Dim
 70
    11
 71
     2
 72
     2
 73
     0
 90
        0
 40
0.6
 41
30.0
 62
     5
 63
     7
 74
     1
 91
        4
 64
     7
 65
   257
 75
     1
175
     1
 42
1.0
 92
        8
 66
     7
 43
1.0
 76
     1
 77
     6
 78
     2
 67
     7
 79
     5
170
     0
171
     0
290
     0
174
     0
 93
        1
 44
-50.0
173
     0
291
     1
 45
0.0
1001
ACAD
1000
AcDbSavedByObjectVersion
1070
     0
  0
VISUALSTYLE
  5
D0
102
{ACAD_REACTORS
330
BD
102
}
102
{ACAD_XDICTIONARY
360
2E2
102
}
330
BD
100
AcDbVisualStyle
  2
EdgeColorOff
 70
    22
 71
     2
 72
     2
 73
     0
 90
        0
 40
0.6
 41
30.0
 62
     5
 63
     7
 74
     1
 91
        4
 64
     7
 65
   257
 75
     1
175
     1
 42
1.0
 92
        8
 66
     7
 43
1.0
 76
     1
 77
     6
 78
     2
 67
     7
 79
     5
170
     0
171
     0
290
     0
174
     0
 93
        1
 44
0.0
173
     0
291
     1
 45
0.0
1001
ACAD
1000
AcDbSavedByObjectVersion
1070
     0
  0
VISUALSTYLE
  5
CC
102
{ACAD_REACTORS
330
BD
102
}
102
{ACAD_XDICTIONARY
360
2DA
102
}
330
BD
100
AcDbVisualStyle
  2
Facepattern
 70
    15
 71
     2
 72
     2
 73
     0
 90
        0
 40
0.6
 41
30.0
 62
     5
 63
     7
 74
     1
 91
        4
 64
     7
 65
   257
 75
     1
175
     1
 42
1.0
 92
        8
 66
     7
 43
1.0
 76
     1
 77
     6
 78
     2
 67
     7
 79
     5
170
     0
171
     0
290
     0
174
     0
 93
        1
 44
0.0
173
     0
291
     1
 45
0.0
1001
ACAD
1000
AcDbSavedByObjectVersion
1070
     0
  0
VISUALSTYLE
  5
BE
102
{ACAD_REACTORS
330
BD
102
}
102
{ACAD_XDICTIONARY
360
2BE
102
}
330
BD
100
AcDbVisualStyle
  2
Flat
 70
     0
 71
     2
 72
     1
 73
     1
 90
        2
 40
0.6
 41
30.0
 62
     5
 63
     7
 74
     0
 91
        0
 64
     7
 65
   257
 75
     1
175
     1
 42
1.0
 92
        8
 66
     7
 43
1.0
 76
     1
 77
     6
 78
     2
 67
     7
 79
     5
170
     0
171
     0
290
     0
174
     0
 93
       13
 44
0.0
173
     0
291
     1
 45
0.0
1001
ACAD
1000
AcDbSavedByObjectVersion
1070
     0
  0
VISUALSTYLE
  5
BF
102
{ACAD_REACTORS
330
BD
102
}
102
{ACAD_XDICTIONARY
360
2C0
102
}
330
BD
100
AcDbVisualStyle
  2
FlatWithEdges
 70
     1
 71
     2
 72
     1
 73
     1
 90
        2
 40
0.6
 41
30.0
 62
     5
 63
     7
 74
     1
 91
        0
 64
     7
 65
   257
 75
     1
175
     1
 42
1.0
 92
        0
 66
   257
 43
1.0
 76
     1
 77
     6
 78
     2
 67
     7
 79
     5
170
     0
171
     0
290
     0
174
     0
 93
       13
 44
0.0
173
     0
291
     1
 45
0.0
1001
ACAD
1000
AcDbSavedByObjectVersion
1070
     0
  0
VISUALSTYLE
  5
C0
102
{ACAD_REACTORS
330
BD
102
}
102
{ACAD_XDICTIONARY
360
2C2
102
}
330
BD
100
AcDbVisualStyle
  2
Gouraud
 70
     2
 71
     2
 72
     2
 73
     1
 90
        2
 40
0.6
 41
30.0
 62
     5
 63
     7
 74
     0
 91
        0
 64
     7
 65
   257
 75
     1
175
     1
 42
1.0
 92
        0
 66
     7
 43
1.0
 76
     1
 77
     6
 78
     2
 67
     7
 79
     5
170
     0
171
     0
290
     0
174
     0
 93
       13
 44
0.0
173
     0
291
     1
 45
0.0
1001
ACAD
1000
AcDbSavedByObjectVersion
1070
     0
  0
VISUALSTYLE
  5
C1
102
{ACAD_REACTORS
330
BD
102
}
102
{ACAD_XDICTIONARY
360
2C4
102
}
330
BD
100
AcDbVisualStyle
  2
GouraudWithEdges
 70
     3
 71
     2
 72
     2
 73
     1
 90
        2
 40
0.6
 41
30.0
 62
     5
 63
     7
 74
     1
 91
        0
 64
     7
 65
   257
 75
     1
175
     1
 42
1.0
 92
        0
 66
   257
 43
1.0
 76
     1
 77
     6
 78
     2
 67
     7
 79
     5
170
     0
171
     0
290
     0
174
     0
 93
       13
 44
0.0
173
     0
291
     1
 45
0.0
1001
ACAD
1000
AcDbSavedByObjectVersion
1070
     0
  0
VISUALSTYLE
  5
C4
102
{ACAD_REACTORS
330
BD
102
}
102
{ACAD_XDICTIONARY
360
2CA
102
}
330
BD
100
AcDbVisualStyle
  2
Hidden
 70
     6
 71
     1
 72
     2
 73
     2
 90
        0
 40
0.6
 41
30.0
 62
     5
 63
     7
 74
     2
 91
        2
 64
     7
 65
   257
 75
     2
175
     1
 42
40.0
 92
        0
 66
   257
 43
1.0
 76
     1
 77
     6
 78
     2
 67
     7
 79
     3
170
     0
171
     0
290
     0
174
     0
 93
        1
 44
0.0
173
     0
291
     0
 45
0.0
1001
ACAD
1000
AcDbSavedByObjectVersion
1070
     0
  0
VISUALSTYLE
  5
CE
102
{ACAD_REACTORS
330
BD
102
}
102
{ACAD_XDICTIONARY
360
2DE
102
}
330
BD
100
AcDbVisualStyle
  2
JitterOff
 70
    20
 71
     2
 72
     2
 73
     0
 90
        0
 40
0.6
 41
30.0
 62
     5
 63
     7
 74
     1
 91
        4
 64
     7
 65
   257
 75
     1
175
     1
 42
1.0
 92
       10
 66
     7
 43
1.0
 76
     1
 77
     6
 78
     2
 67
     7
 79
     5
170
     0
171
     0
290
     0
174
     0
 93
        1
 44
0.0
173
     0
291
     1
 45
0.0
1001
ACAD
1000
AcDbSavedByObjectVersion
1070
     0
  0
VISUALSTYLE
  5
CB
102
{ACAD_REACTORS
330
BD
102
}
102
{ACAD_XDICTIONARY
360
2D8
102
}
330
BD
100
AcDbVisualStyle
  2
Linepattern
 70
    14
 71
     2
 72
     2
 73
     0
 90
        0
 40
0.6
 41
30.0
 62
     5
 63
     7
 74
     1
 91
        4
 64
     7
 65
   257
 75
     7
175
     7
 42
1.0
 92
        8
 66
     7
 43
1.0
 76
     1
 77
     6
 78
     2
 67
     7
 79
     5
170
     0
171
     0
290
     0
174
     0
 93
        1
 44
0.0
173
     0
291
     1
 45
0.0
1001
ACAD
1000
AcDbSavedByObjectVersion
1070
     0
  0
VISUALSTYLE
  5
CF
102
{ACAD_REACTORS
330
BD
102
}
102
{ACAD_XDICTIONARY
360
2E0
102
}
330
BD
100
AcDbVisualStyle
  2
OverhangOff
 70
    21
 71
     2
 72
     2
 73
     0
 90
        0
 40
0.6
 41
30.0
 62
     5
 63
     7
 74
     1
 91
        4
 64
     7
 65
   257
 75
     1
175
     1
 42
1.0
 92
        9
 66
     7
 43
1.0
 76
     1
 77
     6
 78
     2
 67
     7
 79
     5
170
     0
171
     0
290
     0
174
     0
 93
        1
 44
0.0
173
     0
291
     1
 45
0.0
1001
ACAD
1000
AcDbSavedByObjectVersion
1070
     0
  0
VISUALSTYLE
  5
C6
102
{ACAD_REACTORS
330
BD
102
}
102
{ACAD_XDICTIONARY
360
2CE
102
}
330
BD
100
AcDbVisualStyle
  2
Realistic
 70
     8
 71
     2
 72
     3
 73
     0
 90
        2
 40
0.6
 41
30.0
 62
     5
 63
     7
 74
     0
 91
        0
 64
     7
 65
   257
 75
     1
175
     1
 42
1.0
 92
        8
 66
   257
 43
1.0
 76
     1
 77
     6
 78
     2
 67
     7
 79
     3
170
     0
171
     0
290
     0
174
     0
 93
       13
 44
0.0
173
     0
291
     0
 45
0.0
1001
ACAD
1000
AcDbSavedByObjectVersion
1070
     0
  0
VISUALSTYLE
  5
D5
102
{ACAD_REACTORS
330
BD
102
}
102
{ACAD_XDICTIONARY
360
2EC
102
}
330
BD
100
AcDbVisualStyle
  2
Shaded
 70
    27
 71
     2
 72
     2
 73
     1
 90
        2
 40
0.6
 41
30.0
 62
     5
 63
     7
 74
     0
 91
        4
 64
     7
 65
   257
 75
     1
175
     1
 42
1.0
 92
        8
 66
   257
 43
1.0
 76
     1
 77
     6
 78
     2
 67
     8
 79
     3
170
     0
171
     0
290
     0
174
     0
 93
        5
 44
0.0
173
     0
291
     0
 45
0.0
1001
ACAD
1000
AcDbSavedByObjectVersion
1070
     0
  0
VISUALSTYLE
  5
D4
102
{ACAD_REACTORS
330
BD
102
}
102
{ACAD_XDICTIONARY
360
2EA
102
}
330
BD
100
AcDbVisualStyle
  2
Shaded with edges
 70
    26
 71
     2
 72
     2
 73
     1
 90
        2
 40
0.6
 41
30.0
 62
     5
 63
     7
 74
     1
 91
       10
 64
     7
 65
   257
 75
     2
175
     1
 42
1.0
 92
        8
 66
   257
 43
1.0
 76
     1
 77
     6
 78
     2
 67
     7
 79
     3
170
     0
171
     0
290
     0
174
     0
 93
        5
 44
0.0
173
     0
291
     0
 45
0.0
1001
ACAD
1000
AcDbSavedByObjectVersion
1070
     0
  0
VISUALSTYLE
  5
D1
102
{ACAD_REACTORS
330
BD
102
}
102
{ACAD_XDICTIONARY
360
2E4
102
}
330
BD
100
AcDbVisualStyle
  2
Shades of Gray
 70
    23
 71
     2
 72
     2
 73
     3
 90
        0
 40
0.6
 41
30.0
 62
     5
 63
     7
 74
     2
 91
        2
 64
     7
 65
     7
 75
     1
175
     1
 42
40.0
 92
        8
 66
     7
 43
1.0
 76
     1
 77
     6
 78
     2
 67
     7
 79
     3
170
     0
171
     0
290
     0
174
     0
 93
        1
 44
0.0
173
     0
291
     0
 45
0.0
1001
ACAD
1000
AcDbSavedByObjectVersion
1070
     0
  0
VISUALSTYLE
  5
D2
102
{ACAD_REACTORS
330
BD
102
}
102
{ACAD_XDICTIONARY
360
2E6
102
}
330
BD
100
AcDbVisualStyle
  2
Sketchy
 70
    24
 71
     1
 72
     2
 73
     2
 90
        0
 40
0.6
 41
30.0
 62
     5
 63
     7
 74
     2
 91
        2
 64
     7
 65
     7
 75
     1
175
     1
 42
40.0
 92
       11
 66
     7
 43
1.0
 76
     1
 77
     6
 78
     2
 67
     7
 79
     6
170
     0
171
     0
290
     0
174
     0
 93
        1
 44
0.0
173
     0
291
     0
 45
0.0
1001
ACAD
1000
AcDbSavedByObjectVersion
1070
     0
  0
VISUALSTYLE
  5
CA
102
{ACAD_REACTORS
330
BD
102
}
102
{ACAD_XDICTIONARY
360
2D6
102
}
330
BD
100
AcDbVisualStyle
  2
Thicken
 70
    13
 71
     2
 72
     2
 73
     0
 90
        0
 40
0.6
 41
30.0
 62
     5
 63
     7
 74
     1
 91
        4
 64
     7
 65
   257
 75
     1
175
     1
 42
1.0
 92
       12
 66
     7
 43
1.0
 76
     1
 77
     6
 78
     2
 67
     7
 79
     5
170
     0
171
     0
290
     0
174
     0
 93
        1
 44
0.0
173
     0
291
     1
 45
0.0
1001
ACAD
1000
AcDbSavedByObjectVersion
1070
     0
  0
VISUALSTYLE
  5
C3
102
{ACAD_REACTORS
330
BD
102
}
102
{ACAD_XDICTIONARY
360
2C8
102
}
330
BD
100
AcDbVisualStyle
  2
Wireframe
 70
     5
 71
     0
 72
     2
 73
     0
 90
        0
 40
0.6
 41
30.0
 62
     5
 63
     7
 74
     1
 91
        4
 64
     7
 65
   257
 75
     1
175
     1
 42
1.0
 92
        0
 66
   257
 43
1.0
 76
     1
 77
     6
 78
     2
 67
     7
 79
     3
170
     0
171
     0
290
     0
174
     0
 93
        1
 44
0.0
173
     0
291
     0
 45
0.0
1001
ACAD
1000
AcDbSavedByObjectVersion
1070
     0
  0
VISUALSTYLE
  5
D3
102
{ACAD_REACTORS
330
BD
102
}
102
{ACAD_XDICTIONARY
360
2E8
102
}
330
BD
100
AcDbVisualStyle
  2
X-Ray
 70
    25
 71
     2
 72
     2
 73
     1
 90
        1
 40
0.5
 41
30.0
 62
     5
 63
     7
 74
     1
 91
        0
 64
     7
 65
   257
 75
     1
175
     1
 42
1.0
 92
        8
 66
     7
 43
1.0
 76
     1
 77
     6
 78
     2
 67
     7
 79
     3
170
     0
171
     0
290
     0
174
     0
 93
       13
 44
0.0
173
     0
291
     0
 45
0.0
1001
ACAD
1000
AcDbSavedByObjectVersion
1070
     0
  0
XRECORD
  5
2B3
102
{ACAD_REACTORS
330
2B2
102
}
330
2B2
100
AcDbXrecord
280
     1
340
6B
  0
XRECORD
  5
2B4
102
{ACAD_REACTORS
330
2B2
102
}
330
2B2
100
AcDbXrecord
280
     1
340
6A
  0
DICTIONARYVAR
  5
2B7
102
{ACAD_REACTORS
330
5E
102
}
330
5E
100
DictionaryVariables
280
     0
  1
1:1
  0
DICTIONARYVAR
  5
2AE
102
{ACAD_REACTORS
330
5E
102
}
330
5E
100
DictionaryVariables
280
     0
  1
Standard
  0
DICTIONARYVAR
  5
2AD
102
{ACAD_REACTORS
330
5E
102
}
330
5E
100
DictionaryVariables
280
     0
  1
Standard
  0
DICTIONARYVAR
  5
5F
102
{ACAD_REACTORS
330
5E
102
}
330
5E
100
DictionaryVariables
280
     0
  1
2
  0
DICTIONARYVAR
  5
63
102
{ACAD_REACTORS
330
5E
102
}
330
5E
100
DictionaryVariables
280
     0
  1
1
  0
DICTIONARYVAR
  5
2AF
102
{ACAD_REACTORS
330
5E
102
}
330
5E
100
DictionaryVariables
280
     0
  1
0
  0
DICTIONARYVAR
  5
89
102
{ACAD_REACTORS
330
5E
102
}
330
5E
100
DictionaryVariables
280
     0
  1

  0
DICTIONARY
  5
2BA
330
BB
100
AcDbDictionary
280
     1
281
     1
  3
ACAD_XREC_ROUNDTRIP
360
2BB
  0
DICTIONARY
  5
2B8
330
BA
100
AcDbDictionary
280
     1
281
     1
  3
ACAD_XREC_ROUNDTRIP
360
2B9
  0
DICTIONARY
  5
2BC
330
BC
100
AcDbDictionary
280
     1
281
     1
  3
ACAD_XREC_ROUNDTRIP
360
2BD
  0
DICTIONARY
  5
2EF
330
D9
100
AcDbDictionary
280
     1
281
     1
  3
ACAD_XREC_ROUNDTRIP
360
2F0
  0
DICTIONARY
  5
2C6
330
C2
100
AcDbDictionary
280
     1
281
     1
  3
ACAD_XREC_ROUNDTRIP
360
2C7
  0
DICTIONARY
  5
2CC
330
C5
100
AcDbDictionary
280
     1
281
     1
  3
ACAD_XREC_ROUNDTRIP
360
2CD
  0
DICTIONARY
  5
2D4
330
C9
100
AcDbDictionary
280
     1
281
     1
  3
ACAD_XREC_ROUNDTRIP
360
2D5
  0
DICTIONARY
  5
2DC
330
CD
100
AcDbDictionary
280
     1
281
     1
  3
ACAD_XREC_ROUNDTRIP
360
2DD
  0
DICTIONARY
  5
2D0
330
C7
100
AcDbDictionary
280
     1
281
     1
  3
ACAD_XREC_ROUNDTRIP
360
2D1
  0
DICTIONARY
  5
2D2
330
C8
100
AcDbDictionary
280
     1
281
     1
  3
ACAD_XREC_ROUNDTRIP
360
2D3
  0
DICTIONARY
  5
2E2
330
D0
100
AcDbDictionary
280
     1
281
     1
  3
ACAD_XREC_ROUNDTRIP
360
2E3
  0
DICTIONARY
  5
2DA
330
CC
100
AcDbDictionary
280
     1
281
     1
  3
ACAD_XREC_ROUNDTRIP
360
2DB
  0
DICTIONARY
  5
2BE
330
BE
100
AcDbDictionary
280
     1
281
     1
  3
ACAD_XREC_ROUNDTRIP
360
2BF
  0
DICTIONARY
  5
2C0
330
BF
100
AcDbDictionary
280
     1
281
     1
  3
ACAD_XREC_ROUNDTRIP
360
2C1
  0
DICTIONARY
  5
2C2
330
C0
100
AcDbDictionary
280
     1
281
     1
  3
ACAD_XREC_ROUNDTRIP
360
2C3
  0
DICTIONARY
  5
2C4
330
C1
100
AcDbDictionary
280
     1
281
     1
  3
ACAD_XREC_ROUNDTRIP
360
2C5
  0
DICTIONARY
  5
2CA
330
C4
100
AcDbDictionary
280
     1
281
     1
  3
ACAD_XREC_ROUNDTRIP
360
2CB
  0
DICTIONARY
  5
2DE
330
CE
100
AcDbDictionary
280
     1
281
     1
  3
ACAD_XREC_ROUNDTRIP
360
2DF
  0
DICTIONARY
  5
2D8
330
CB
100
AcDbDictionary
280
     1
281
     1
  3
ACAD_XREC_ROUNDTRIP
360
2D9
  0
DICTIONARY
  5
2E0
330
CF
100
AcDbDictionary
280
     1
281
     1
  3
ACAD_XREC_ROUNDTRIP
360
2E1
  0
DICTIONARY
  5
2CE
330
C6
100
AcDbDictionary
280
     1
281
     1
  3
ACAD_XREC_ROUNDTRIP
360
2CF
  0
DICTIONARY
  5
2EC
330
D5
100
AcDbDictionary
280
     1
281
     1
  3
ACAD_XREC_ROUNDTRIP
360
2ED
  0
DICTIONARY
  5
2EA
330
D4
100
AcDbDictionary
280
     1
281
     1
  3
ACAD_XREC_ROUNDTRIP
360
2EB
  0
DICTIONARY
  5
2E4
330
D1
100
AcDbDictionary
280
     1
281
     1
  3
ACAD_XREC_ROUNDTRIP
360
2E5
  0
DICTIONARY
  5
2E6
330
D2
100
AcDbDictionary
280
     1
281
     1
  3
ACAD_XREC_ROUNDTRIP
360
2E7
  0
DICTIONARY
  5
2D6
330
CA
100
AcDbDictionary
280
     1
281
     1
  3
ACAD_XREC_ROUNDTRIP
360
2D7
  0
DICTIONARY
  5
2C8
330
C3
100
AcDbDictionary
280
     1
281
     1
  3
ACAD_XREC_ROUNDTRIP
360
2C9
  0
DICTIONARY
  5
2E8
330
D3
100
AcDbDictionary
280
     1
281
     1
  3
ACAD_XREC_ROUNDTRIP
360
2E9
  0
XRECORD
  5
2BB
102
{ACAD_REACTORS
330
2BA
102
}
330
2BA
100
AcDbXrecord
280
     1
102
MATERIAL
148
0.0
149
0.0
149
0.0
 93
        0
 94
      127
282
     0
 72
     1
 77
     1
171
     1
175
     1
179
     1
273
     0
  0
XRECORD
  5
2B9
102
{ACAD_REACTORS
330
2B8
102
}
330
2B8
100
AcDbXrecord
280
     1
102
MATERIAL
148
0.0
149
0.0
149
0.0
 93
        0
 94
      127
282
     0
 72
     1
 77
     1
171
     1
175
     1
179
     1
273
     0
  0
XRECORD
  5
2BD
102
{ACAD_REACTORS
330
2BC
102
}
330
2BC
100
AcDbXrecord
280
     1
102
MATERIAL
148
0.0
149
0.0
149
0.0
 93
        0
 94
      127
282
     0
 72
     1
 77
     1
171
     1
175
     1
179
     1
273
     0
  0
XRECORD
  5
2F0
102
{ACAD_REACTORS
330
2EF
102
}
330
2EF
100
AcDbXrecord
280
     1
102
ACAD_ROUNDTRIP_2010_MLEADER_STYLE
  0
XRECORD
  5
2C7
102
{ACAD_REACTORS
330
2C6
102
}
330
2C6
100
AcDbXrecord
280
     1
102
RTVSPropertyOp0
 70
     1
102
RTVSPropertyOp1
 70
     1
102
RTVSPropertyOp2
 70
     1
102
RTVSPropertyOp3
 70
     1
102
RTVSPropertyOp4
 70
     1
102
RTVSPropertyOp5
 70
     1
102
RTVSPropertyOp6
 70
     1
102
RTVSPropertyOp7
 70
     1
102
RTVSPropertyOp8
 70
     1
102
RTVSPropertyOp9
 70
     1
102
RTVSPropertyOp10
 70
     1
102
RTVSPropertyOp11
 70
     1
102
RTVSPropertyOp12
 70
     1
102
RTVSPropertyOp13
 70
     1
102
RTVSPropertyOp14
 70
     1
102
RTVSPropertyOp15
 70
     1
102
RTVSPropertyOp16
 70
     1
102
RTVSPropertyOp17
 70
     1
102
RTVSPropertyOp18
 70
     1
102
RTVSPropertyOp19
 70
     1
102
RTVSPropertyOp20
 70
     1
102
RTVSPropertyOp21
 70
     1
102
RTVSPropertyOp22
 70
     1
102
RTVSPropertyOp23
 70
     1
102
RTVSPropertyOp24
 70
     1
102
RTVSPropertyOp25
 70
     1
102
RTVSPropertyOp26
 70
     1
102
RTVSPropertyOp27
 70
     1
102
RTVSPropertyOp28
 70
     1
102
RTVSPropertyOp29
 70
     1
102
RTVSPropertyOp30
 70
     1
102
RTVSPropertyOp31
 70
     1
102
RTVSPropertyOp32
 70
     1
102
RTVSPropertyOp33
 70
     1
102
RTVSPropertyOp34
 70
     1
102
RTVSPropertyOp35
 70
     1
102
RTVSPropertyOp36
 70
     1
102
RTVSPropertyOp37
 70
     1
102
RTVSPropertyOp38
 70
     1
102
RTVSPropertyOp39
 70
     1
102
RTVSPropertyOp40
 70
     1
102
RTVSPropertyOp41
 70
     1
102
RTVSPropertyOp42
 70
     1
102
RTVSPropertyOp43
 70
     1
102
RTVSPropertyOp44
 70
     1
102
RTVSPropertyOp45
 70
     1
102
RTVSPropertyOp46
 70
     1
102
RTVSPropertyOp47
 70
     1
102
RTVSPropertyOp48
 70
     1
102
RTVSPropertyOp49
 70
     1
102
RTVSPropertyOp50
 70
     1
102
RTVSPropertyOp51
 70
     0
102
RTVSPropertyOp52
 70
     0
102
RTVSPropertyOp53
 70
     1
102
RTVSPropertyOp54
 70
     1
102
RTVSPropertyOp55
 70
     1
102
RTVSPropertyOp56
 70
     1
102
RTVSPropertyOp57
 70
     1
102
RTVSPost2010Prop28
280
     1
102
RTVSPost2010PropOp28
 70
     1
102
RTVSPost2010Prop29
280
     1
102
RTVSPost2010PropOp29
 70
     1
102
RTVSPost2010Prop30
280
     0
102
RTVSPost2010PropOp30
 70
     1
102
RTVSPost2010Prop31
280
     0
102
RTVSPost2010PropOp31
 70
     1
102
RTVSPost2010Prop32
280
     0
102
RTVSPost2010PropOp32
 70
     1
102
RTVSPost2010Prop33
280
     0
102
RTVSPost2010PropOp33
 70
     1
102
RTVSPost2010Prop34
280
     0
102
RTVSPost2010PropOp34
 70
     1
102
RTVSPost2010Prop35
280
     0
102
RTVSPost2010PropOp35
 70
     1
102
RTVSPost2010Prop36
280
     0
102
RTVSPost2010PropOp36
 70
     1
102
RTVSPost2010Prop37
 90
       50
102
RTVSPost2010PropOp37
 70
     1
102
RTVSPost2010Prop38
140
0.0
102
RTVSPost2010PropOp38
 70
     1
102
RTVSPost2010Prop39
140
1.0
102
RTVSPost2010PropOp39
 70
     1
102
RTVSPost2010Prop40
 90
        0
102
RTVSPost2010PropOp40
 70
     1
102
RTVSPost2010Prop41ColorIndex
 90
       18
102
RTVSPost2010Prop41ColorRGB
 90
        0
102
RTVSPost2010PropOp41
 70
     1
102
RTVSPost2010Prop42
 90
       50
102
RTVSPost2010PropOp42
 70
     1
102
RTVSPost2010Prop43
 90
        3
102
RTVSPost2010PropOp43
 70
     1
102
RTVSPost2010Prop44ColorIndex
 90
        5
102
RTVSPost2010Prop44ColorRGB
 90
      255
102
RTVSPost2010PropOp44
 70
     1
102
RTVSPost2010Prop45
280
     0
102
RTVSPost2010PropOp45
 70
     1
102
RTVSPost2010Prop46
 90
       50
102
RTVSPost2010PropOp46
 70
     1
102
RTVSPost2010Prop47
 90
       50
102
RTVSPost2010PropOp47
 70
     1
102
RTVSPost2010Prop48
 90
       50
102
RTVSPost2010PropOp48
 70
     1
102
RTVSPost2010Prop49
280
     0
102
RTVSPost2010PropOp49
 70
     1
102
RTVSPost2010Prop50
 90
       50
102
RTVSPost2010PropOp50
 70
     1
102
RTVSPost2010Prop51ColorIndex
 90
      256
102
RTVSPost2010Prop51ColorRGB
 90
-16777216
102
RTVSPost2010PropOp51
 70
     0
102
RTVSPost2010Prop52
140
1.0
102
RTVSPost2010PropOp52
 70
     0
102
RTVSPost2010Prop53
 90
        2
102
RTVSPost2010PropOp53
 70
     1
102
RTVSPost2010Prop54
  1
strokes_ogs.tif
102
RTVSPost2010PropOp54
 70
     1
102
RTVSPost2010Prop55
280
     0
102
RTVSPost2010PropOp55
 70
     1
102
RTVSPost2010Prop56
140
1.0
102
RTVSPost2010PropOp56
 70
     1
102
RTVSPost2010Prop57
140
1.0
102
RTVSPost2010PropOp57
 70
     1
  0
XRECORD
  5
2CD
102
{ACAD_REACTORS
330
2CC
102
}
330
2CC
100
AcDbXrecord
280
     1
102
RTVSPropertyOp0
 70
     1
102
RTVSPropertyOp1
 70
     1
102
RTVSPropertyOp2
 70
     1
102
RTVSPropertyOp3
 70
     1
102
RTVSPropertyOp4
 70
     1
102
RTVSPropertyOp5
 70
     1
102
RTVSPropertyOp6
 70
     1
102
RTVSPropertyOp7
 70
     1
102
RTVSPropertyOp8
 70
     1
102
RTVSPropertyOp9
 70
     1
102
RTVSPropertyOp10
 70
     1
102
RTVSPropertyOp11
 70
     1
102
RTVSPropertyOp12
 70
     1
102
RTVSPropertyOp13
 70
     1
102
RTVSPropertyOp14
 70
     1
102
RTVSPropertyOp15
 70
     1
102
RTVSPropertyOp16
 70
     1
102
RTVSPropertyOp17
 70
     1
102
RTVSPropertyOp18
 70
     1
102
RTVSPropertyOp19
 70
     1
102
RTVSPropertyOp20
 70
     1
102
RTVSPropertyOp21
 70
     1
102
RTVSPropertyOp22
 70
     1
102
RTVSPropertyOp23
 70
     1
102
RTVSPropertyOp24
 70
     1
102
RTVSPropertyOp25
 70
     1
102
RTVSPropertyOp26
 70
     1
102
RTVSPropertyOp27
 70
     1
102
RTVSPropertyOp28
 70
     1
102
RTVSPropertyOp29
 70
     1
102
RTVSPropertyOp30
 70
     1
102
RTVSPropertyOp31
 70
     1
102
RTVSPropertyOp32
 70
     1
102
RTVSPropertyOp33
 70
     1
102
RTVSPropertyOp34
 70
     1
102
RTVSPropertyOp35
 70
     1
102
RTVSPropertyOp36
 70
     1
102
RTVSPropertyOp37
 70
     1
102
RTVSPropertyOp38
 70
     1
102
RTVSPropertyOp39
 70
     1
102
RTVSPropertyOp40
 70
     1
102
RTVSPropertyOp41
 70
     1
102
RTVSPropertyOp42
 70
     1
102
RTVSPropertyOp43
 70
     1
102
RTVSPropertyOp44
 70
     1
102
RTVSPropertyOp45
 70
     1
102
RTVSPropertyOp46
 70
     1
102
RTVSPropertyOp47
 70
     1
102
RTVSPropertyOp48
 70
     1
102
RTVSPropertyOp49
 70
     1
102
RTVSPropertyOp50
 70
     1
102
RTVSPropertyOp51
 70
     0
102
RTVSPropertyOp52
 70
     0
102
RTVSPropertyOp53
 70
     1
102
RTVSPropertyOp54
 70
     1
102
RTVSPropertyOp55
 70
     1
102
RTVSPropertyOp56
 70
     1
102
RTVSPropertyOp57
 70
     1
102
RTVSPost2010Prop28
280
     0
102
RTVSPost2010PropOp28
 70
     1
102
RTVSPost2010Prop29
280
     1
102
RTVSPost2010PropOp29
 70
     1
102
RTVSPost2010Prop30
280
     1
102
RTVSPost2010PropOp30
 70
     1
102
RTVSPost2010Prop31
280
     0
102
RTVSPost2010PropOp31
 70
     1
102
RTVSPost2010Prop32
280
     0
102
RTVSPost2010PropOp32
 70
     1
102
RTVSPost2010Prop33
280
     0
102
RTVSPost2010PropOp33
 70
     1
102
RTVSPost2010Prop34
280
     0
102
RTVSPost2010PropOp34
 70
     1
102
RTVSPost2010Prop35
280
     0
102
RTVSPost2010PropOp35
 70
     1
102
RTVSPost2010Prop36
280
     0
102
RTVSPost2010PropOp36
 70
     1
102
RTVSPost2010Prop37
 90
       50
102
RTVSPost2010PropOp37
 70
     1
102
RTVSPost2010Prop38
140
0.0
102
RTVSPost2010PropOp38
 70
     1
102
RTVSPost2010Prop39
140
1.0
102
RTVSPost2010PropOp39
 70
     1
102
RTVSPost2010Prop40
 90
        0
102
RTVSPost2010PropOp40
 70
     1
102
RTVSPost2010Prop41ColorIndex
 90
       18
102
RTVSPost2010Prop41ColorRGB
 90
        0
102
RTVSPost2010PropOp41
 70
     1
102
RTVSPost2010Prop42
 90
       50
102
RTVSPost2010PropOp42
 70
     1
102
RTVSPost2010Prop43
 90
        3
102
RTVSPost2010PropOp43
 70
     1
102
RTVSPost2010Prop44ColorIndex
 90
        5
102
RTVSPost2010Prop44ColorRGB
 90
      255
102
RTVSPost2010PropOp44
 70
     1
102
RTVSPost2010Prop45
280
     0
102
RTVSPost2010PropOp45
 70
     1
102
RTVSPost2010Prop46
 90
       50
102
RTVSPost2010PropOp46
 70
     1
102
RTVSPost2010Prop47
 90
       50
102
RTVSPost2010PropOp47
 70
     1
102
RTVSPost2010Prop48
 90
       50
102
RTVSPost2010PropOp48
 70
     1
102
RTVSPost2010Prop49
280
     0
102
RTVSPost2010PropOp49
 70
     1
102
RTVSPost2010Prop50
 90
       50
102
RTVSPost2010PropOp50
 70
     1
102
RTVSPost2010Prop51ColorIndex
 90
      256
102
RTVSPost2010Prop51ColorRGB
 90
-16777216
102
RTVSPost2010PropOp51
 70
     0
102
RTVSPost2010Prop52
140
1.0
102
RTVSPost2010PropOp52
 70
     0
102
RTVSPost2010Prop53
 90
        2
102
RTVSPost2010PropOp53
 70
     1
102
RTVSPost2010Prop54
  1
strokes_ogs.tif
102
RTVSPost2010PropOp54
 70
     1
102
RTVSPost2010Prop55
280
     0
102
RTVSPost2010PropOp55
 70
     1
102
RTVSPost2010Prop56
140
1.0
102
RTVSPost2010PropOp56
 70
     1
102
RTVSPost2010Prop57
140
1.0
102
RTVSPost2010PropOp57
 70
     1
  0
XRECORD
  5
2D5
102
{ACAD_REACTORS
330
2D4
102
}
330
2D4
100
AcDbXrecord
280
     1
102
RTVSPropertyOp0
 70
     1
102
RTVSPropertyOp1
 70
     1
102
RTVSPropertyOp2
 70
     1
102
RTVSPropertyOp3
 70
     1
102
RTVSPropertyOp4
 70
     1
102
RTVSPropertyOp5
 70
     1
102
RTVSPropertyOp6
 70
     1
102
RTVSPropertyOp7
 70
     1
102
RTVSPropertyOp8
 70
     1
102
RTVSPropertyOp9
 70
     1
102
RTVSPropertyOp10
 70
     1
102
RTVSPropertyOp11
 70
     1
102
RTVSPropertyOp12
 70
     1
102
RTVSPropertyOp13
 70
     1
102
RTVSPropertyOp14
 70
     1
102
RTVSPropertyOp15
 70
     1
102
RTVSPropertyOp16
 70
     1
102
RTVSPropertyOp17
 70
     1
102
RTVSPropertyOp18
 70
     1
102
RTVSPropertyOp19
 70
     1
102
RTVSPropertyOp20
 70
     1
102
RTVSPropertyOp21
 70
     1
102
RTVSPropertyOp22
 70
     1
102
RTVSPropertyOp23
 70
     1
102
RTVSPropertyOp24
 70
     1
102
RTVSPropertyOp25
 70
     1
102
RTVSPropertyOp26
 70
     1
102
RTVSPropertyOp27
 70
     1
102
RTVSPropertyOp28
 70
     1
102
RTVSPropertyOp29
 70
     1
102
RTVSPropertyOp30
 70
     1
102
RTVSPropertyOp31
 70
     1
102
RTVSPropertyOp32
 70
     1
102
RTVSPropertyOp33
 70
     1
102
RTVSPropertyOp34
 70
     1
102
RTVSPropertyOp35
 70
     1
102
RTVSPropertyOp36
 70
     1
102
RTVSPropertyOp37
 70
     1
102
RTVSPropertyOp38
 70
     1
102
RTVSPropertyOp39
 70
     1
102
RTVSPropertyOp40
 70
     1
102
RTVSPropertyOp41
 70
     1
102
RTVSPropertyOp42
 70
     1
102
RTVSPropertyOp43
 70
     1
102
RTVSPropertyOp44
 70
     1
102
RTVSPropertyOp45
 70
     1
102
RTVSPropertyOp46
 70
     1
102
RTVSPropertyOp47
 70
     1
102
RTVSPropertyOp48
 70
     1
102
RTVSPropertyOp49
 70
     1
102
RTVSPropertyOp50
 70
     1
102
RTVSPropertyOp51
 70
     0
102
RTVSPropertyOp52
 70
     0
102
RTVSPropertyOp53
 70
     1
102
RTVSPropertyOp54
 70
     1
102
RTVSPropertyOp55
 70
     1
102
RTVSPropertyOp56
 70
     1
102
RTVSPropertyOp57
 70
     1
102
RTVSPost2010Prop28
280
     0
102
RTVSPost2010PropOp28
 70
     1
102
RTVSPost2010Prop29
280
     1
102
RTVSPost2010PropOp29
 70
     1
102
RTVSPost2010Prop30
280
     1
102
RTVSPost2010PropOp30
 70
     1
102
RTVSPost2010Prop31
280
     0
102
RTVSPost2010PropOp31
 70
     1
102
RTVSPost2010Prop32
280
     0
102
RTVSPost2010PropOp32
 70
     1
102
RTVSPost2010Prop33
280
     0
102
RTVSPost2010PropOp33
 70
     1
102
RTVSPost2010Prop34
280
     0
102
RTVSPost2010PropOp34
 70
     1
102
RTVSPost2010Prop35
280
     0
102
RTVSPost2010PropOp35
 70
     1
102
RTVSPost2010Prop36
280
     0
102
RTVSPost2010PropOp36
 70
     1
102
RTVSPost2010Prop37
 90
       50
102
RTVSPost2010PropOp37
 70
     1
102
RTVSPost2010Prop38
140
0.0
102
RTVSPost2010PropOp38
 70
     1
102
RTVSPost2010Prop39
140
1.0
102
RTVSPost2010PropOp39
 70
     1
102
RTVSPost2010Prop40
 90
        0
102
RTVSPost2010PropOp40
 70
     1
102
RTVSPost2010Prop41ColorIndex
 90
       18
102
RTVSPost2010Prop41ColorRGB
 90
        0
102
RTVSPost2010PropOp41
 70
     1
102
RTVSPost2010Prop42
 90
       50
102
RTVSPost2010PropOp42
 70
     1
102
RTVSPost2010Prop43
 90
        3
102
RTVSPost2010PropOp43
 70
     1
102
RTVSPost2010Prop44ColorIndex
 90
        5
102
RTVSPost2010Prop44ColorRGB
 90
      255
102
RTVSPost2010PropOp44
 70
     1
102
RTVSPost2010Prop45
280
     0
102
RTVSPost2010PropOp45
 70
     1
102
RTVSPost2010Prop46
 90
       50
102
RTVSPost2010PropOp46
 70
     1
102
RTVSPost2010Prop47
 90
       50
102
RTVSPost2010PropOp47
 70
     1
102
RTVSPost2010Prop48
 90
       50
102
RTVSPost2010PropOp48
 70
     1
102
RTVSPost2010Prop49
280
     0
102
RTVSPost2010PropOp49
 70
     1
102
RTVSPost2010Prop50
 90
       50
102
RTVSPost2010PropOp50
 70
     1
102
RTVSPost2010Prop51ColorIndex
 90
      256
102
RTVSPost2010Prop51ColorRGB
 90
-16777216
102
RTVSPost2010PropOp51
 70
     0
102
RTVSPost2010Prop52
140
1.0
102
RTVSPost2010PropOp52
 70
     0
102
RTVSPost2010Prop53
 90
        2
102
RTVSPost2010PropOp53
 70
     1
102
RTVSPost2010Prop54
  1
strokes_ogs.tif
102
RTVSPost2010PropOp54
 70
     1
102
RTVSPost2010Prop55
280
     0
102
RTVSPost2010PropOp55
 70
     1
102
RTVSPost2010Prop56
140
1.0
102
RTVSPost2010PropOp56
 70
     1
102
RTVSPost2010Prop57
140
1.0
102
RTVSPost2010PropOp57
 70
     1
  0
XRECORD
  5
2DD
102
{ACAD_REACTORS
330
2DC
102
}
330
2DC
100
AcDbXrecord
280
     1
102
RTVSPropertyOp0
 70
     1
102
RTVSPropertyOp1
 70
     1
102
RTVSPropertyOp2
 70
     1
102
RTVSPropertyOp3
 70
     1
102
RTVSPropertyOp4
 70
     1
102
RTVSPropertyOp5
 70
     1
102
RTVSPropertyOp6
 70
     1
102
RTVSPropertyOp7
 70
     1
102
RTVSPropertyOp8
 70
     1
102
RTVSPropertyOp9
 70
     1
102
RTVSPropertyOp10
 70
     1
102
RTVSPropertyOp11
 70
     1
102
RTVSPropertyOp12
 70
     1
102
RTVSPropertyOp13
 70
     1
102
RTVSPropertyOp14
 70
     1
102
RTVSPropertyOp15
 70
     1
102
RTVSPropertyOp16
 70
     1
102
RTVSPropertyOp17
 70
     1
102
RTVSPropertyOp18
 70
     1
102
RTVSPropertyOp19
 70
     1
102
RTVSPropertyOp20
 70
     1
102
RTVSPropertyOp21
 70
     1
102
RTVSPropertyOp22
 70
     1
102
RTVSPropertyOp23
 70
     1
102
RTVSPropertyOp24
 70
     1
102
RTVSPropertyOp25
 70
     1
102
RTVSPropertyOp26
 70
     1
102
RTVSPropertyOp27
 70
     1
102
RTVSPropertyOp28
 70
     1
102
RTVSPropertyOp29
 70
     1
102
RTVSPropertyOp30
 70
     1
102
RTVSPropertyOp31
 70
     1
102
RTVSPropertyOp32
 70
     1
102
RTVSPropertyOp33
 70
     1
102
RTVSPropertyOp34
 70
     1
102
RTVSPropertyOp35
 70
     1
102
RTVSPropertyOp36
 70
     1
102
RTVSPropertyOp37
 70
     1
102
RTVSPropertyOp38
 70
     1
102
RTVSPropertyOp39
 70
     1
102
RTVSPropertyOp40
 70
     1
102
RTVSPropertyOp41
 70
     1
102
RTVSPropertyOp42
 70
     1
102
RTVSPropertyOp43
 70
     1
102
RTVSPropertyOp44
 70
     1
102
RTVSPropertyOp45
 70
     1
102
RTVSPropertyOp46
 70
     1
102
RTVSPropertyOp47
 70
     1
102
RTVSPropertyOp48
 70
     1
102
RTVSPropertyOp49
 70
     1
102
RTVSPropertyOp50
 70
     1
102
RTVSPropertyOp51
 70
     0
102
RTVSPropertyOp52
 70
     0
102
RTVSPropertyOp53
 70
     1
102
RTVSPropertyOp54
 70
     1
102
RTVSPropertyOp55
 70
     1
102
RTVSPropertyOp56
 70
     1
102
RTVSPropertyOp57
 70
     1
102
RTVSPost2010Prop28
280
     0
102
RTVSPost2010PropOp28
 70
     1
102
RTVSPost2010Prop29
280
     1
102
RTVSPost2010PropOp29
 70
     1
102
RTVSPost2010Prop30
280
     1
102
RTVSPost2010PropOp30
 70
     1
102
RTVSPost2010Prop31
280
     0
102
RTVSPost2010PropOp31
 70
     1
102
RTVSPost2010Prop32
280
     0
102
RTVSPost2010PropOp32
 70
     1
102
RTVSPost2010Prop33
280
     0
102
RTVSPost2010PropOp33
 70
     1
102
RTVSPost2010Prop34
280
     0
102
RTVSPost2010PropOp34
 70
     1
102
RTVSPost2010Prop35
280
     0
102
RTVSPost2010PropOp35
 70
     1
102
RTVSPost2010Prop36
280
     0
102
RTVSPost2010PropOp36
 70
     1
102
RTVSPost2010Prop37
 90
       50
102
RTVSPost2010PropOp37
 70
     1
102
RTVSPost2010Prop38
140
0.0
102
RTVSPost2010PropOp38
 70
     1
102
RTVSPost2010Prop39
140
1.0
102
RTVSPost2010PropOp39
 70
     1
102
RTVSPost2010Prop40
 90
        0
102
RTVSPost2010PropOp40
 70
     1
102
RTVSPost2010Prop41ColorIndex
 90
       18
102
RTVSPost2010Prop41ColorRGB
 90
        0
102
RTVSPost2010PropOp41
 70
     1
102
RTVSPost2010Prop42
 90
       50
102
RTVSPost2010PropOp42
 70
     1
102
RTVSPost2010Prop43
 90
        3
102
RTVSPost2010PropOp43
 70
     1
102
RTVSPost2010Prop44ColorIndex
 90
        5
102
RTVSPost2010Prop44ColorRGB
 90
      255
102
RTVSPost2010PropOp44
 70
     1
102
RTVSPost2010Prop45
280
     0
102
RTVSPost2010PropOp45
 70
     1
102
RTVSPost2010Prop46
 90
       50
102
RTVSPost2010PropOp46
 70
     1
102
RTVSPost2010Prop47
 90
       50
102
RTVSPost2010PropOp47
 70
     1
102
RTVSPost2010Prop48
 90
       50
102
RTVSPost2010PropOp48
 70
     1
102
RTVSPost2010Prop49
280
     0
102
RTVSPost2010PropOp49
 70
     1
102
RTVSPost2010Prop50
 90
       50
102
RTVSPost2010PropOp50
 70
     1
102
RTVSPost2010Prop51ColorIndex
 90
      256
102
RTVSPost2010Prop51ColorRGB
 90
-16777216
102
RTVSPost2010PropOp51
 70
     0
102
RTVSPost2010Prop52
140
1.0
102
RTVSPost2010PropOp52
 70
     0
102
RTVSPost2010Prop53
 90
        2
102
RTVSPost2010PropOp53
 70
     1
102
RTVSPost2010Prop54
  1
strokes_ogs.tif
102
RTVSPost2010PropOp54
 70
     1
102
RTVSPost2010Prop55
280
     0
102
RTVSPost2010PropOp55
 70
     1
102
RTVSPost2010Prop56
140
1.0
102
RTVSPost2010PropOp56
 70
     1
102
RTVSPost2010Prop57
140
1.0
102
RTVSPost2010PropOp57
 70
     1
  0
XRECORD
  5
2D1
102
{ACAD_REACTORS
330
2D0
102
}
330
2D0
100
AcDbXrecord
280
     1
102
RTVSPropertyOp0
 70
     1
102
RTVSPropertyOp1
 70
     1
102
RTVSPropertyOp2
 70
     1
102
RTVSPropertyOp3
 70
     1
102
RTVSPropertyOp4
 70
     1
102
RTVSPropertyOp5
 70
     1
102
RTVSPropertyOp6
 70
     1
102
RTVSPropertyOp7
 70
     1
102
RTVSPropertyOp8
 70
     1
102
RTVSPropertyOp9
 70
     1
102
RTVSPropertyOp10
 70
     1
102
RTVSPropertyOp11
 70
     1
102
RTVSPropertyOp12
 70
     1
102
RTVSPropertyOp13
 70
     1
102
RTVSPropertyOp14
 70
     1
102
RTVSPropertyOp15
 70
     1
102
RTVSPropertyOp16
 70
     1
102
RTVSPropertyOp17
 70
     1
102
RTVSPropertyOp18
 70
     1
102
RTVSPropertyOp19
 70
     1
102
RTVSPropertyOp20
 70
     1
102
RTVSPropertyOp21
 70
     1
102
RTVSPropertyOp22
 70
     1
102
RTVSPropertyOp23
 70
     1
102
RTVSPropertyOp24
 70
     1
102
RTVSPropertyOp25
 70
     1
102
RTVSPropertyOp26
 70
     1
102
RTVSPropertyOp27
 70
     1
102
RTVSPropertyOp28
 70
     1
102
RTVSPropertyOp29
 70
     1
102
RTVSPropertyOp30
 70
     1
102
RTVSPropertyOp31
 70
     1
102
RTVSPropertyOp32
 70
     1
102
RTVSPropertyOp33
 70
     1
102
RTVSPropertyOp34
 70
     1
102
RTVSPropertyOp35
 70
     1
102
RTVSPropertyOp36
 70
     1
102
RTVSPropertyOp37
 70
     1
102
RTVSPropertyOp38
 70
     1
102
RTVSPropertyOp39
 70
     1
102
RTVSPropertyOp40
 70
     1
102
RTVSPropertyOp41
 70
     1
102
RTVSPropertyOp42
 70
     1
102
RTVSPropertyOp43
 70
     1
102
RTVSPropertyOp44
 70
     1
102
RTVSPropertyOp45
 70
     1
102
RTVSPropertyOp46
 70
     1
102
RTVSPropertyOp47
 70
     1
102
RTVSPropertyOp48
 70
     1
102
RTVSPropertyOp49
 70
     1
102
RTVSPropertyOp50
 70
     1
102
RTVSPropertyOp51
 70
     0
102
RTVSPropertyOp52
 70
     0
102
RTVSPropertyOp53
 70
     1
102
RTVSPropertyOp54
 70
     1
102
RTVSPropertyOp55
 70
     1
102
RTVSPropertyOp56
 70
     1
102
RTVSPropertyOp57
 70
     1
102
RTVSPost2010Prop28
280
     0
102
RTVSPost2010PropOp28
 70
     1
102
RTVSPost2010Prop29
280
     1
102
RTVSPost2010PropOp29
 70
     1
102
RTVSPost2010Prop30
280
     1
102
RTVSPost2010PropOp30
 70
     1
102
RTVSPost2010Prop31
280
     0
102
RTVSPost2010PropOp31
 70
     1
102
RTVSPost2010Prop32
280
     0
102
RTVSPost2010PropOp32
 70
     1
102
RTVSPost2010Prop33
280
     0
102
RTVSPost2010PropOp33
 70
     1
102
RTVSPost2010Prop34
280
     0
102
RTVSPost2010PropOp34
 70
     1
102
RTVSPost2010Prop35
280
     0
102
RTVSPost2010PropOp35
 70
     1
102
RTVSPost2010Prop36
280
     0
102
RTVSPost2010PropOp36
 70
     1
102
RTVSPost2010Prop37
 90
       50
102
RTVSPost2010PropOp37
 70
     1
102
RTVSPost2010Prop38
140
0.0
102
RTVSPost2010PropOp38
 70
     1
102
RTVSPost2010Prop39
140
1.0
102
RTVSPost2010PropOp39
 70
     1
102
RTVSPost2010Prop40
 90
        0
102
RTVSPost2010PropOp40
 70
     1
102
RTVSPost2010Prop41ColorIndex
 90
       18
102
RTVSPost2010Prop41ColorRGB
 90
        0
102
RTVSPost2010PropOp41
 70
     1
102
RTVSPost2010Prop42
 90
       50
102
RTVSPost2010PropOp42
 70
     1
102
RTVSPost2010Prop43
 90
        3
102
RTVSPost2010PropOp43
 70
     1
102
RTVSPost2010Prop44ColorIndex
 90
        5
102
RTVSPost2010Prop44ColorRGB
 90
      255
102
RTVSPost2010PropOp44
 70
     1
102
RTVSPost2010Prop45
280
     0
102
RTVSPost2010PropOp45
 70
     1
102
RTVSPost2010Prop46
 90
       50
102
RTVSPost2010PropOp46
 70
     1
102
RTVSPost2010Prop47
 90
       50
102
RTVSPost2010PropOp47
 70
     1
102
RTVSPost2010Prop48
 90
       50
102
RTVSPost2010PropOp48
 70
     1
102
RTVSPost2010Prop49
280
     0
102
RTVSPost2010PropOp49
 70
     1
102
RTVSPost2010Prop50
 90
       50
102
RTVSPost2010PropOp50
 70
     1
102
RTVSPost2010Prop51ColorIndex
 90
      256
102
RTVSPost2010Prop51ColorRGB
 90
-16777216
102
RTVSPost2010PropOp51
 70
     0
102
RTVSPost2010Prop52
140
1.0
102
RTVSPost2010PropOp52
 70
     0
102
RTVSPost2010Prop53
 90
        2
102
RTVSPost2010PropOp53
 70
     1
102
RTVSPost2010Prop54
  1
strokes_ogs.tif
102
RTVSPost2010PropOp54
 70
     1
102
RTVSPost2010Prop55
280
     0
102
RTVSPost2010PropOp55
 70
     1
102
RTVSPost2010Prop56
140
1.0
102
RTVSPost2010PropOp56
 70
     1
102
RTVSPost2010Prop57
140
1.0
102
RTVSPost2010PropOp57
 70
     1
  0
XRECORD
  5
2D3
102
{ACAD_REACTORS
330
2D2
102
}
330
2D2
100
AcDbXrecord
280
     1
102
RTVSPropertyOp0
 70
     1
102
RTVSPropertyOp1
 70
     1
102
RTVSPropertyOp2
 70
     1
102
RTVSPropertyOp3
 70
     1
102
RTVSPropertyOp4
 70
     1
102
RTVSPropertyOp5
 70
     1
102
RTVSPropertyOp6
 70
     1
102
RTVSPropertyOp7
 70
     1
102
RTVSPropertyOp8
 70
     1
102
RTVSPropertyOp9
 70
     1
102
RTVSPropertyOp10
 70
     1
102
RTVSPropertyOp11
 70
     1
102
RTVSPropertyOp12
 70
     1
102
RTVSPropertyOp13
 70
     1
102
RTVSPropertyOp14
 70
     1
102
RTVSPropertyOp15
 70
     1
102
RTVSPropertyOp16
 70
     1
102
RTVSPropertyOp17
 70
     1
102
RTVSPropertyOp18
 70
     1
102
RTVSPropertyOp19
 70
     1
102
RTVSPropertyOp20
 70
     1
102
RTVSPropertyOp21
 70
     1
102
RTVSPropertyOp22
 70
     1
102
RTVSPropertyOp23
 70
     1
102
RTVSPropertyOp24
 70
     1
102
RTVSPropertyOp25
 70
     1
102
RTVSPropertyOp26
 70
     1
102
RTVSPropertyOp27
 70
     1
102
RTVSPropertyOp28
 70
     1
102
RTVSPropertyOp29
 70
     1
102
RTVSPropertyOp30
 70
     1
102
RTVSPropertyOp31
 70
     1
102
RTVSPropertyOp32
 70
     1
102
RTVSPropertyOp33
 70
     1
102
RTVSPropertyOp34
 70
     1
102
RTVSPropertyOp35
 70
     1
102
RTVSPropertyOp36
 70
     1
102
RTVSPropertyOp37
 70
     1
102
RTVSPropertyOp38
 70
     1
102
RTVSPropertyOp39
 70
     1
102
RTVSPropertyOp40
 70
     1
102
RTVSPropertyOp41
 70
     1
102
RTVSPropertyOp42
 70
     1
102
RTVSPropertyOp43
 70
     1
102
RTVSPropertyOp44
 70
     1
102
RTVSPropertyOp45
 70
     1
102
RTVSPropertyOp46
 70
     1
102
RTVSPropertyOp47
 70
     1
102
RTVSPropertyOp48
 70
     1
102
RTVSPropertyOp49
 70
     1
102
RTVSPropertyOp50
 70
     1
102
RTVSPropertyOp51
 70
     0
102
RTVSPropertyOp52
 70
     0
102
RTVSPropertyOp53
 70
     1
102
RTVSPropertyOp54
 70
     1
102
RTVSPropertyOp55
 70
     1
102
RTVSPropertyOp56
 70
     1
102
RTVSPropertyOp57
 70
     1
102
RTVSPost2010Prop28
280
     0
102
RTVSPost2010PropOp28
 70
     1
102
RTVSPost2010Prop29
280
     1
102
RTVSPost2010PropOp29
 70
     1
102
RTVSPost2010Prop30
280
     1
102
RTVSPost2010PropOp30
 70
     1
102
RTVSPost2010Prop31
280
     0
102
RTVSPost2010PropOp31
 70
     1
102
RTVSPost2010Prop32
280
     0
102
RTVSPost2010PropOp32
 70
     1
102
RTVSPost2010Prop33
280
     0
102
RTVSPost2010PropOp33
 70
     1
102
RTVSPost2010Prop34
280
     0
102
RTVSPost2010PropOp34
 70
     1
102
RTVSPost2010Prop35
280
     0
102
RTVSPost2010PropOp35
 70
     1
102
RTVSPost2010Prop36
280
     0
102
RTVSPost2010PropOp36
 70
     1
102
RTVSPost2010Prop37
 90
       50
102
RTVSPost2010PropOp37
 70
     1
102
RTVSPost2010Prop38
140
0.0
102
RTVSPost2010PropOp38
 70
     1
102
RTVSPost2010Prop39
140
1.0
102
RTVSPost2010PropOp39
 70
     1
102
RTVSPost2010Prop40
 90
        0
102
RTVSPost2010PropOp40
 70
     1
102
RTVSPost2010Prop41ColorIndex
 90
       18
102
RTVSPost2010Prop41ColorRGB
 90
        0
102
RTVSPost2010PropOp41
 70
     1
102
RTVSPost2010Prop42
 90
       50
102
RTVSPost2010PropOp42
 70
     1
102
RTVSPost2010Prop43
 90
        3
102
RTVSPost2010PropOp43
 70
     1
102
RTVSPost2010Prop44ColorIndex
 90
        5
102
RTVSPost2010Prop44ColorRGB
 90
      255
102
RTVSPost2010PropOp44
 70
     1
102
RTVSPost2010Prop45
280
     0
102
RTVSPost2010PropOp45
 70
     1
102
RTVSPost2010Prop46
 90
       50
102
RTVSPost2010PropOp46
 70
     1
102
RTVSPost2010Prop47
 90
       50
102
RTVSPost2010PropOp47
 70
     1
102
RTVSPost2010Prop48
 90
       50
102
RTVSPost2010PropOp48
 70
     1
102
RTVSPost2010Prop49
280
     0
102
RTVSPost2010PropOp49
 70
     1
102
RTVSPost2010Prop50
 90
       50
102
RTVSPost2010PropOp50
 70
     1
102
RTVSPost2010Prop51ColorIndex
 90
      256
102
RTVSPost2010Prop51ColorRGB
 90
-16777216
102
RTVSPost2010PropOp51
 70
     0
102
RTVSPost2010Prop52
140
1.0
102
RTVSPost2010PropOp52
 70
     0
102
RTVSPost2010Prop53
 90
        2
102
RTVSPost2010PropOp53
 70
     1
102
RTVSPost2010Prop54
  1
strokes_ogs.tif
102
RTVSPost2010PropOp54
 70
     1
102
RTVSPost2010Prop55
280
     0
102
RTVSPost2010PropOp55
 70
     1
102
RTVSPost2010Prop56
140
1.0
102
RTVSPost2010PropOp56
 70
     1
102
RTVSPost2010Prop57
140
1.0
102
RTVSPost2010PropOp57
 70
     1
  0
XRECORD
  5
2E3
102
{ACAD_REACTORS
330
2E2
102
}
330
2E2
100
AcDbXrecord
280
     1
102
RTVSPropertyOp0
 70
     0
102
RTVSPropertyOp1
 70
     0
102
RTVSPropertyOp2
 70
     0
102
RTVSPropertyOp3
 70
     0
102
RTVSPropertyOp4
 70
     0
102
RTVSPropertyOp5
 70
     0
102
RTVSPropertyOp6
 70
     0
102
RTVSPropertyOp7
 70
     0
102
RTVSPropertyOp8
 70
     0
102
RTVSPropertyOp9
 70
     0
102
RTVSPropertyOp10
 70
     0
102
RTVSPropertyOp11
 70
     0
102
RTVSPropertyOp12
 70
     0
102
RTVSPropertyOp13
 70
     0
102
RTVSPropertyOp14
 70
     2
102
RTVSPropertyOp15
 70
     0
102
RTVSPropertyOp16
 70
     0
102
RTVSPropertyOp17
 70
     0
102
RTVSPropertyOp18
 70
     0
102
RTVSPropertyOp19
 70
     0
102
RTVSPropertyOp20
 70
     0
102
RTVSPropertyOp21
 70
     0
102
RTVSPropertyOp22
 70
     0
102
RTVSPropertyOp23
 70
     0
102
RTVSPropertyOp24
 70
     0
102
RTVSPropertyOp25
 70
     0
102
RTVSPropertyOp26
 70
     0
102
RTVSPropertyOp27
 70
     0
102
RTVSPropertyOp28
 70
     0
102
RTVSPropertyOp29
 70
     0
102
RTVSPropertyOp30
 70
     0
102
RTVSPropertyOp31
 70
     0
102
RTVSPropertyOp32
 70
     0
102
RTVSPropertyOp33
 70
     0
102
RTVSPropertyOp34
 70
     0
102
RTVSPropertyOp35
 70
     0
102
RTVSPropertyOp36
 70
     0
102
RTVSPropertyOp37
 70
     0
102
RTVSPropertyOp38
 70
     0
102
RTVSPropertyOp39
 70
     0
102
RTVSPropertyOp40
 70
     0
102
RTVSPropertyOp41
 70
     0
102
RTVSPropertyOp42
 70
     0
102
RTVSPropertyOp43
 70
     0
102
RTVSPropertyOp44
 70
     0
102
RTVSPropertyOp45
 70
     0
102
RTVSPropertyOp46
 70
     0
102
RTVSPropertyOp47
 70
     0
102
RTVSPropertyOp48
 70
     0
102
RTVSPropertyOp49
 70
     0
102
RTVSPropertyOp50
 70
     0
102
RTVSPropertyOp51
 70
     0
102
RTVSPropertyOp52
 70
     0
102
RTVSPropertyOp53
 70
     0
102
RTVSPropertyOp54
 70
     0
102
RTVSPropertyOp55
 70
     0
102
RTVSPropertyOp56
 70
     0
102
RTVSPropertyOp57
 70
     0
102
RTVSPost2010Prop28
280
     0
102
RTVSPost2010PropOp28
 70
     0
102
RTVSPost2010Prop29
280
     1
102
RTVSPost2010PropOp29
 70
     0
102
RTVSPost2010Prop30
280
     1
102
RTVSPost2010PropOp30
 70
     0
102
RTVSPost2010Prop31
280
     0
102
RTVSPost2010PropOp31
 70
     0
102
RTVSPost2010Prop32
280
     0
102
RTVSPost2010PropOp32
 70
     0
102
RTVSPost2010Prop33
280
     0
102
RTVSPost2010PropOp33
 70
     0
102
RTVSPost2010Prop34
280
     0
102
RTVSPost2010PropOp34
 70
     0
102
RTVSPost2010Prop35
280
     0
102
RTVSPost2010PropOp35
 70
     0
102
RTVSPost2010Prop36
280
     0
102
RTVSPost2010PropOp36
 70
     0
102
RTVSPost2010Prop37
 90
       50
102
RTVSPost2010PropOp37
 70
     0
102
RTVSPost2010Prop38
140
0.0
102
RTVSPost2010PropOp38
 70
     0
102
RTVSPost2010Prop39
140
1.0
102
RTVSPost2010PropOp39
 70
     0
102
RTVSPost2010Prop40
 90
        0
102
RTVSPost2010PropOp40
 70
     0
102
RTVSPost2010Prop41ColorIndex
 90
       18
102
RTVSPost2010Prop41ColorRGB
 90
        0
102
RTVSPost2010PropOp41
 70
     0
102
RTVSPost2010Prop42
 90
       50
102
RTVSPost2010PropOp42
 70
     0
102
RTVSPost2010Prop43
 90
        3
102
RTVSPost2010PropOp43
 70
     0
102
RTVSPost2010Prop44ColorIndex
 90
        5
102
RTVSPost2010Prop44ColorRGB
 90
      255
102
RTVSPost2010PropOp44
 70
     0
102
RTVSPost2010Prop45
280
     0
102
RTVSPost2010PropOp45
 70
     0
102
RTVSPost2010Prop46
 90
       50
102
RTVSPost2010PropOp46
 70
     0
102
RTVSPost2010Prop47
 90
       50
102
RTVSPost2010PropOp47
 70
     0
102
RTVSPost2010Prop48
 90
       50
102
RTVSPost2010PropOp48
 70
     0
102
RTVSPost2010Prop49
280
     0
102
RTVSPost2010PropOp49
 70
     0
102
RTVSPost2010Prop50
 90
       50
102
RTVSPost2010PropOp50
 70
     0
102
RTVSPost2010Prop51ColorIndex
 90
      256
102
RTVSPost2010Prop51ColorRGB
 90
-16777216
102
RTVSPost2010PropOp51
 70
     0
102
RTVSPost2010Prop52
140
1.0
102
RTVSPost2010PropOp52
 70
     0
102
RTVSPost2010Prop53
 90
        2
102
RTVSPost2010PropOp53
 70
     0
102
RTVSPost2010Prop54
  1
strokes_ogs.tif
102
RTVSPost2010PropOp54
 70
     0
102
RTVSPost2010Prop55
280
     0
102
RTVSPost2010PropOp55
 70
     0
102
RTVSPost2010Prop56
140
1.0
102
RTVSPost2010PropOp56
 70
     0
102
RTVSPost2010Prop57
140
1.0
102
RTVSPost2010PropOp57
 70
     0
  0
XRECORD
  5
2DB
102
{ACAD_REACTORS
330
2DA
102
}
330
2DA
100
AcDbXrecord
280
     1
102
RTVSPropertyOp0
 70
     1
102
RTVSPropertyOp1
 70
     1
102
RTVSPropertyOp2
 70
     1
102
RTVSPropertyOp3
 70
     1
102
RTVSPropertyOp4
 70
     1
102
RTVSPropertyOp5
 70
     1
102
RTVSPropertyOp6
 70
     1
102
RTVSPropertyOp7
 70
     1
102
RTVSPropertyOp8
 70
     1
102
RTVSPropertyOp9
 70
     1
102
RTVSPropertyOp10
 70
     1
102
RTVSPropertyOp11
 70
     1
102
RTVSPropertyOp12
 70
     1
102
RTVSPropertyOp13
 70
     1
102
RTVSPropertyOp14
 70
     1
102
RTVSPropertyOp15
 70
     1
102
RTVSPropertyOp16
 70
     1
102
RTVSPropertyOp17
 70
     1
102
RTVSPropertyOp18
 70
     1
102
RTVSPropertyOp19
 70
     1
102
RTVSPropertyOp20
 70
     1
102
RTVSPropertyOp21
 70
     1
102
RTVSPropertyOp22
 70
     1
102
RTVSPropertyOp23
 70
     1
102
RTVSPropertyOp24
 70
     1
102
RTVSPropertyOp25
 70
     1
102
RTVSPropertyOp26
 70
     1
102
RTVSPropertyOp27
 70
     1
102
RTVSPropertyOp28
 70
     1
102
RTVSPropertyOp29
 70
     1
102
RTVSPropertyOp30
 70
     1
102
RTVSPropertyOp31
 70
     1
102
RTVSPropertyOp32
 70
     1
102
RTVSPropertyOp33
 70
     1
102
RTVSPropertyOp34
 70
     1
102
RTVSPropertyOp35
 70
     1
102
RTVSPropertyOp36
 70
     1
102
RTVSPropertyOp37
 70
     1
102
RTVSPropertyOp38
 70
     1
102
RTVSPropertyOp39
 70
     1
102
RTVSPropertyOp40
 70
     1
102
RTVSPropertyOp41
 70
     1
102
RTVSPropertyOp42
 70
     1
102
RTVSPropertyOp43
 70
     1
102
RTVSPropertyOp44
 70
     1
102
RTVSPropertyOp45
 70
     1
102
RTVSPropertyOp46
 70
     1
102
RTVSPropertyOp47
 70
     1
102
RTVSPropertyOp48
 70
     1
102
RTVSPropertyOp49
 70
     1
102
RTVSPropertyOp50
 70
     1
102
RTVSPropertyOp51
 70
     0
102
RTVSPropertyOp52
 70
     0
102
RTVSPropertyOp53
 70
     1
102
RTVSPropertyOp54
 70
     1
102
RTVSPropertyOp55
 70
     1
102
RTVSPropertyOp56
 70
     1
102
RTVSPropertyOp57
 70
     1
102
RTVSPost2010Prop28
280
     0
102
RTVSPost2010PropOp28
 70
     1
102
RTVSPost2010Prop29
280
     1
102
RTVSPost2010PropOp29
 70
     1
102
RTVSPost2010Prop30
280
     1
102
RTVSPost2010PropOp30
 70
     1
102
RTVSPost2010Prop31
280
     0
102
RTVSPost2010PropOp31
 70
     1
102
RTVSPost2010Prop32
280
     0
102
RTVSPost2010PropOp32
 70
     1
102
RTVSPost2010Prop33
280
     0
102
RTVSPost2010PropOp33
 70
     1
102
RTVSPost2010Prop34
280
     0
102
RTVSPost2010PropOp34
 70
     1
102
RTVSPost2010Prop35
280
     0
102
RTVSPost2010PropOp35
 70
     1
102
RTVSPost2010Prop36
280
     0
102
RTVSPost2010PropOp36
 70
     1
102
RTVSPost2010Prop37
 90
       50
102
RTVSPost2010PropOp37
 70
     1
102
RTVSPost2010Prop38
140
0.0
102
RTVSPost2010PropOp38
 70
     1
102
RTVSPost2010Prop39
140
1.0
102
RTVSPost2010PropOp39
 70
     1
102
RTVSPost2010Prop40
 90
        0
102
RTVSPost2010PropOp40
 70
     1
102
RTVSPost2010Prop41ColorIndex
 90
       18
102
RTVSPost2010Prop41ColorRGB
 90
        0
102
RTVSPost2010PropOp41
 70
     1
102
RTVSPost2010Prop42
 90
       50
102
RTVSPost2010PropOp42
 70
     1
102
RTVSPost2010Prop43
 90
        3
102
RTVSPost2010PropOp43
 70
     1
102
RTVSPost2010Prop44ColorIndex
 90
        5
102
RTVSPost2010Prop44ColorRGB
 90
      255
102
RTVSPost2010PropOp44
 70
     1
102
RTVSPost2010Prop45
280
     0
102
RTVSPost2010PropOp45
 70
     1
102
RTVSPost2010Prop46
 90
       50
102
RTVSPost2010PropOp46
 70
     1
102
RTVSPost2010Prop47
 90
       50
102
RTVSPost2010PropOp47
 70
     1
102
RTVSPost2010Prop48
 90
       50
102
RTVSPost2010PropOp48
 70
     1
102
RTVSPost2010Prop49
280
     0
102
RTVSPost2010PropOp49
 70
     1
102
RTVSPost2010Prop50
 90
       50
102
RTVSPost2010PropOp50
 70
     1
102
RTVSPost2010Prop51ColorIndex
 90
      256
102
RTVSPost2010Prop51ColorRGB
 90
-16777216
102
RTVSPost2010PropOp51
 70
     0
102
RTVSPost2010Prop52
140
1.0
102
RTVSPost2010PropOp52
 70
     0
102
RTVSPost2010Prop53
 90
        2
102
RTVSPost2010PropOp53
 70
     1
102
RTVSPost2010Prop54
  1
strokes_ogs.tif
102
RTVSPost2010PropOp54
 70
     1
102
RTVSPost2010Prop55
280
     0
102
RTVSPost2010PropOp55
 70
     1
102
RTVSPost2010Prop56
140
1.0
102
RTVSPost2010PropOp56
 70
     1
102
RTVSPost2010Prop57
140
1.0
102
RTVSPost2010PropOp57
 70
     1
  0
XRECORD
  5
2BF
102
{ACAD_REACTORS
330
2BE
102
}
330
2BE
100
AcDbXrecord
280
     1
102
RTVSPropertyOp0
 70
     1
102
RTVSPropertyOp1
 70
     1
102
RTVSPropertyOp2
 70
     1
102
RTVSPropertyOp3
 70
     1
102
RTVSPropertyOp4
 70
     1
102
RTVSPropertyOp5
 70
     1
102
RTVSPropertyOp6
 70
     1
102
RTVSPropertyOp7
 70
     1
102
RTVSPropertyOp8
 70
     1
102
RTVSPropertyOp9
 70
     1
102
RTVSPropertyOp10
 70
     1
102
RTVSPropertyOp11
 70
     1
102
RTVSPropertyOp12
 70
     1
102
RTVSPropertyOp13
 70
     1
102
RTVSPropertyOp14
 70
     1
102
RTVSPropertyOp15
 70
     1
102
RTVSPropertyOp16
 70
     1
102
RTVSPropertyOp17
 70
     1
102
RTVSPropertyOp18
 70
     1
102
RTVSPropertyOp19
 70
     1
102
RTVSPropertyOp20
 70
     1
102
RTVSPropertyOp21
 70
     1
102
RTVSPropertyOp22
 70
     1
102
RTVSPropertyOp23
 70
     1
102
RTVSPropertyOp24
 70
     1
102
RTVSPropertyOp25
 70
     1
102
RTVSPropertyOp26
 70
     1
102
RTVSPropertyOp27
 70
     1
102
RTVSPropertyOp28
 70
     1
102
RTVSPropertyOp29
 70
     1
102
RTVSPropertyOp30
 70
     1
102
RTVSPropertyOp31
 70
     1
102
RTVSPropertyOp32
 70
     1
102
RTVSPropertyOp33
 70
     1
102
RTVSPropertyOp34
 70
     1
102
RTVSPropertyOp35
 70
     1
102
RTVSPropertyOp36
 70
     1
102
RTVSPropertyOp37
 70
     1
102
RTVSPropertyOp38
 70
     1
102
RTVSPropertyOp39
 70
     1
102
RTVSPropertyOp40
 70
     1
102
RTVSPropertyOp41
 70
     1
102
RTVSPropertyOp42
 70
     1
102
RTVSPropertyOp43
 70
     1
102
RTVSPropertyOp44
 70
     1
102
RTVSPropertyOp45
 70
     1
102
RTVSPropertyOp46
 70
     1
102
RTVSPropertyOp47
 70
     1
102
RTVSPropertyOp48
 70
     1
102
RTVSPropertyOp49
 70
     1
102
RTVSPropertyOp50
 70
     1
102
RTVSPropertyOp51
 70
     0
102
RTVSPropertyOp52
 70
     0
102
RTVSPropertyOp53
 70
     1
102
RTVSPropertyOp54
 70
     1
102
RTVSPropertyOp55
 70
     1
102
RTVSPropertyOp56
 70
     1
102
RTVSPropertyOp57
 70
     1
102
RTVSPost2010Prop28
280
     0
102
RTVSPost2010PropOp28
 70
     1
102
RTVSPost2010Prop29
280
     1
102
RTVSPost2010PropOp29
 70
     1
102
RTVSPost2010Prop30
280
     1
102
RTVSPost2010PropOp30
 70
     1
102
RTVSPost2010Prop31
280
     0
102
RTVSPost2010PropOp31
 70
     1
102
RTVSPost2010Prop32
280
     0
102
RTVSPost2010PropOp32
 70
     1
102
RTVSPost2010Prop33
280
     0
102
RTVSPost2010PropOp33
 70
     1
102
RTVSPost2010Prop34
280
     0
102
RTVSPost2010PropOp34
 70
     1
102
RTVSPost2010Prop35
280
     0
102
RTVSPost2010PropOp35
 70
     1
102
RTVSPost2010Prop36
280
     0
102
RTVSPost2010PropOp36
 70
     1
102
RTVSPost2010Prop37
 90
       50
102
RTVSPost2010PropOp37
 70
     1
102
RTVSPost2010Prop38
140
0.0
102
RTVSPost2010PropOp38
 70
     1
102
RTVSPost2010Prop39
140
1.0
102
RTVSPost2010PropOp39
 70
     1
102
RTVSPost2010Prop40
 90
        0
102
RTVSPost2010PropOp40
 70
     1
102
RTVSPost2010Prop41ColorIndex
 90
       18
102
RTVSPost2010Prop41ColorRGB
 90
        0
102
RTVSPost2010PropOp41
 70
     1
102
RTVSPost2010Prop42
 90
       50
102
RTVSPost2010PropOp42
 70
     1
102
RTVSPost2010Prop43
 90
        3
102
RTVSPost2010PropOp43
 70
     1
102
RTVSPost2010Prop44ColorIndex
 90
        5
102
RTVSPost2010Prop44ColorRGB
 90
      255
102
RTVSPost2010PropOp44
 70
     1
102
RTVSPost2010Prop45
280
     0
102
RTVSPost2010PropOp45
 70
     1
102
RTVSPost2010Prop46
 90
       50
102
RTVSPost2010PropOp46
 70
     1
102
RTVSPost2010Prop47
 90
       50
102
RTVSPost2010PropOp47
 70
     1
102
RTVSPost2010Prop48
 90
       50
102
RTVSPost2010PropOp48
 70
     1
102
RTVSPost2010Prop49
280
     0
102
RTVSPost2010PropOp49
 70
     1
102
RTVSPost2010Prop50
 90
       50
102
RTVSPost2010PropOp50
 70
     1
102
RTVSPost2010Prop51ColorIndex
 90
      256
102
RTVSPost2010Prop51ColorRGB
 90
-16777216
102
RTVSPost2010PropOp51
 70
     0
102
RTVSPost2010Prop52
140
1.0
102
RTVSPost2010PropOp52
 70
     0
102
RTVSPost2010Prop53
 90
        2
102
RTVSPost2010PropOp53
 70
     1
102
RTVSPost2010Prop54
  1
strokes_ogs.tif
102
RTVSPost2010PropOp54
 70
     1
102
RTVSPost2010Prop55
280
     0
102
RTVSPost2010PropOp55
 70
     1
102
RTVSPost2010Prop56
140
1.0
102
RTVSPost2010PropOp56
 70
     1
102
RTVSPost2010Prop57
140
1.0
102
RTVSPost2010PropOp57
 70
     1
  0
XRECORD
  5
2C1
102
{ACAD_REACTORS
330
2C0
102
}
330
2C0
100
AcDbXrecord
280
     1
102
RTVSPropertyOp0
 70
     1
102
RTVSPropertyOp1
 70
     1
102
RTVSPropertyOp2
 70
     1
102
RTVSPropertyOp3
 70
     1
102
RTVSPropertyOp4
 70
     1
102
RTVSPropertyOp5
 70
     1
102
RTVSPropertyOp6
 70
     1
102
RTVSPropertyOp7
 70
     1
102
RTVSPropertyOp8
 70
     1
102
RTVSPropertyOp9
 70
     1
102
RTVSPropertyOp10
 70
     1
102
RTVSPropertyOp11
 70
     1
102
RTVSPropertyOp12
 70
     1
102
RTVSPropertyOp13
 70
     1
102
RTVSPropertyOp14
 70
     1
102
RTVSPropertyOp15
 70
     1
102
RTVSPropertyOp16
 70
     1
102
RTVSPropertyOp17
 70
     1
102
RTVSPropertyOp18
 70
     1
102
RTVSPropertyOp19
 70
     1
102
RTVSPropertyOp20
 70
     1
102
RTVSPropertyOp21
 70
     1
102
RTVSPropertyOp22
 70
     1
102
RTVSPropertyOp23
 70
     1
102
RTVSPropertyOp24
 70
     1
102
RTVSPropertyOp25
 70
     1
102
RTVSPropertyOp26
 70
     1
102
RTVSPropertyOp27
 70
     1
102
RTVSPropertyOp28
 70
     1
102
RTVSPropertyOp29
 70
     1
102
RTVSPropertyOp30
 70
     1
102
RTVSPropertyOp31
 70
     1
102
RTVSPropertyOp32
 70
     1
102
RTVSPropertyOp33
 70
     1
102
RTVSPropertyOp34
 70
     1
102
RTVSPropertyOp35
 70
     1
102
RTVSPropertyOp36
 70
     1
102
RTVSPropertyOp37
 70
     1
102
RTVSPropertyOp38
 70
     1
102
RTVSPropertyOp39
 70
     1
102
RTVSPropertyOp40
 70
     1
102
RTVSPropertyOp41
 70
     1
102
RTVSPropertyOp42
 70
     1
102
RTVSPropertyOp43
 70
     1
102
RTVSPropertyOp44
 70
     1
102
RTVSPropertyOp45
 70
     1
102
RTVSPropertyOp46
 70
     1
102
RTVSPropertyOp47
 70
     1
102
RTVSPropertyOp48
 70
     1
102
RTVSPropertyOp49
 70
     1
102
RTVSPropertyOp50
 70
     1
102
RTVSPropertyOp51
 70
     0
102
RTVSPropertyOp52
 70
     0
102
RTVSPropertyOp53
 70
     1
102
RTVSPropertyOp54
 70
     1
102
RTVSPropertyOp55
 70
     1
102
RTVSPropertyOp56
 70
     1
102
RTVSPropertyOp57
 70
     1
102
RTVSPost2010Prop28
280
     0
102
RTVSPost2010PropOp28
 70
     1
102
RTVSPost2010Prop29
280
     1
102
RTVSPost2010PropOp29
 70
     1
102
RTVSPost2010Prop30
280
     1
102
RTVSPost2010PropOp30
 70
     1
102
RTVSPost2010Prop31
280
     0
102
RTVSPost2010PropOp31
 70
     1
102
RTVSPost2010Prop32
280
     0
102
RTVSPost2010PropOp32
 70
     1
102
RTVSPost2010Prop33
280
     0
102
RTVSPost2010PropOp33
 70
     1
102
RTVSPost2010Prop34
280
     0
102
RTVSPost2010PropOp34
 70
     1
102
RTVSPost2010Prop35
280
     0
102
RTVSPost2010PropOp35
 70
     1
102
RTVSPost2010Prop36
280
     0
102
RTVSPost2010PropOp36
 70
     1
102
RTVSPost2010Prop37
 90
       50
102
RTVSPost2010PropOp37
 70
     1
102
RTVSPost2010Prop38
140
0.0
102
RTVSPost2010PropOp38
 70
     1
102
RTVSPost2010Prop39
140
1.0
102
RTVSPost2010PropOp39
 70
     1
102
RTVSPost2010Prop40
 90
        0
102
RTVSPost2010PropOp40
 70
     1
102
RTVSPost2010Prop41ColorIndex
 90
       18
102
RTVSPost2010Prop41ColorRGB
 90
        0
102
RTVSPost2010PropOp41
 70
     1
102
RTVSPost2010Prop42
 90
       50
102
RTVSPost2010PropOp42
 70
     1
102
RTVSPost2010Prop43
 90
        3
102
RTVSPost2010PropOp43
 70
     1
102
RTVSPost2010Prop44ColorIndex
 90
        5
102
RTVSPost2010Prop44ColorRGB
 90
      255
102
RTVSPost2010PropOp44
 70
     1
102
RTVSPost2010Prop45
280
     0
102
RTVSPost2010PropOp45
 70
     1
102
RTVSPost2010Prop46
 90
       50
102
RTVSPost2010PropOp46
 70
     1
102
RTVSPost2010Prop47
 90
       50
102
RTVSPost2010PropOp47
 70
     1
102
RTVSPost2010Prop48
 90
       50
102
RTVSPost2010PropOp48
 70
     1
102
RTVSPost2010Prop49
280
     0
102
RTVSPost2010PropOp49
 70
     1
102
RTVSPost2010Prop50
 90
       50
102
RTVSPost2010PropOp50
 70
     1
102
RTVSPost2010Prop51ColorIndex
 90
      256
102
RTVSPost2010Prop51ColorRGB
 90
-16777216
102
RTVSPost2010PropOp51
 70
     0
102
RTVSPost2010Prop52
140
1.0
102
RTVSPost2010PropOp52
 70
     0
102
RTVSPost2010Prop53
 90
        2
102
RTVSPost2010PropOp53
 70
     1
102
RTVSPost2010Prop54
  1
strokes_ogs.tif
102
RTVSPost2010PropOp54
 70
     1
102
RTVSPost2010Prop55
280
     0
102
RTVSPost2010PropOp55
 70
     1
102
RTVSPost2010Prop56
140
1.0
102
RTVSPost2010PropOp56
 70
     1
102
RTVSPost2010Prop57
140
1.0
102
RTVSPost2010PropOp57
 70
     1
  0
XRECORD
  5
2C3
102
{ACAD_REACTORS
330
2C2
102
}
330
2C2
100
AcDbXrecord
280
     1
102
RTVSPropertyOp0
 70
     1
102
RTVSPropertyOp1
 70
     1
102
RTVSPropertyOp2
 70
     1
102
RTVSPropertyOp3
 70
     1
102
RTVSPropertyOp4
 70
     1
102
RTVSPropertyOp5
 70
     1
102
RTVSPropertyOp6
 70
     1
102
RTVSPropertyOp7
 70
     1
102
RTVSPropertyOp8
 70
     1
102
RTVSPropertyOp9
 70
     1
102
RTVSPropertyOp10
 70
     1
102
RTVSPropertyOp11
 70
     1
102
RTVSPropertyOp12
 70
     1
102
RTVSPropertyOp13
 70
     1
102
RTVSPropertyOp14
 70
     1
102
RTVSPropertyOp15
 70
     1
102
RTVSPropertyOp16
 70
     1
102
RTVSPropertyOp17
 70
     1
102
RTVSPropertyOp18
 70
     1
102
RTVSPropertyOp19
 70
     1
102
RTVSPropertyOp20
 70
     1
102
RTVSPropertyOp21
 70
     1
102
RTVSPropertyOp22
 70
     1
102
RTVSPropertyOp23
 70
     1
102
RTVSPropertyOp24
 70
     1
102
RTVSPropertyOp25
 70
     1
102
RTVSPropertyOp26
 70
     1
102
RTVSPropertyOp27
 70
     1
102
RTVSPropertyOp28
 70
     1
102
RTVSPropertyOp29
 70
     1
102
RTVSPropertyOp30
 70
     1
102
RTVSPropertyOp31
 70
     1
102
RTVSPropertyOp32
 70
     1
102
RTVSPropertyOp33
 70
     1
102
RTVSPropertyOp34
 70
     1
102
RTVSPropertyOp35
 70
     1
102
RTVSPropertyOp36
 70
     1
102
RTVSPropertyOp37
 70
     1
102
RTVSPropertyOp38
 70
     1
102
RTVSPropertyOp39
 70
     1
102
RTVSPropertyOp40
 70
     1
102
RTVSPropertyOp41
 70
     1
102
RTVSPropertyOp42
 70
     1
102
RTVSPropertyOp43
 70
     1
102
RTVSPropertyOp44
 70
     1
102
RTVSPropertyOp45
 70
     1
102
RTVSPropertyOp46
 70
     1
102
RTVSPropertyOp47
 70
     1
102
RTVSPropertyOp48
 70
     1
102
RTVSPropertyOp49
 70
     1
102
RTVSPropertyOp50
 70
     1
102
RTVSPropertyOp51
 70
     0
102
RTVSPropertyOp52
 70
     0
102
RTVSPropertyOp53
 70
     1
102
RTVSPropertyOp54
 70
     1
102
RTVSPropertyOp55
 70
     1
102
RTVSPropertyOp56
 70
     1
102
RTVSPropertyOp57
 70
     1
102
RTVSPost2010Prop28
280
     0
102
RTVSPost2010PropOp28
 70
     1
102
RTVSPost2010Prop29
280
     1
102
RTVSPost2010PropOp29
 70
     1
102
RTVSPost2010Prop30
280
     1
102
RTVSPost2010PropOp30
 70
     1
102
RTVSPost2010Prop31
280
     0
102
RTVSPost2010PropOp31
 70
     1
102
RTVSPost2010Prop32
280
     0
102
RTVSPost2010PropOp32
 70
     1
102
RTVSPost2010Prop33
280
     0
102
RTVSPost2010PropOp33
 70
     1
102
RTVSPost2010Prop34
280
     0
102
RTVSPost2010PropOp34
 70
     1
102
RTVSPost2010Prop35
280
     0
102
RTVSPost2010PropOp35
 70
     1
102
RTVSPost2010Prop36
280
     0
102
RTVSPost2010PropOp36
 70
     1
102
RTVSPost2010Prop37
 90
       50
102
RTVSPost2010PropOp37
 70
     1
102
RTVSPost2010Prop38
140
0.0
102
RTVSPost2010PropOp38
 70
     1
102
RTVSPost2010Prop39
140
1.0
102
RTVSPost2010PropOp39
 70
     1
102
RTVSPost2010Prop40
 90
        0
102
RTVSPost2010PropOp40
 70
     1
102
RTVSPost2010Prop41ColorIndex
 90
       18
102
RTVSPost2010Prop41ColorRGB
 90
        0
102
RTVSPost2010PropOp41
 70
     1
102
RTVSPost2010Prop42
 90
       50
102
RTVSPost2010PropOp42
 70
     1
102
RTVSPost2010Prop43
 90
        3
102
RTVSPost2010PropOp43
 70
     1
102
RTVSPost2010Prop44ColorIndex
 90
        5
102
RTVSPost2010Prop44ColorRGB
 90
      255
102
RTVSPost2010PropOp44
 70
     1
102
RTVSPost2010Prop45
280
     0
102
RTVSPost2010PropOp45
 70
     1
102
RTVSPost2010Prop46
 90
       50
102
RTVSPost2010PropOp46
 70
     1
102
RTVSPost2010Prop47
 90
       50
102
RTVSPost2010PropOp47
 70
     1
102
RTVSPost2010Prop48
 90
       50
102
RTVSPost2010PropOp48
 70
     1
102
RTVSPost2010Prop49
280
     0
102
RTVSPost2010PropOp49
 70
     1
102
RTVSPost2010Prop50
 90
       50
102
RTVSPost2010PropOp50
 70
     1
102
RTVSPost2010Prop51ColorIndex
 90
      256
102
RTVSPost2010Prop51ColorRGB
 90
-16777216
102
RTVSPost2010PropOp51
 70
     0
102
RTVSPost2010Prop52
140
1.0
102
RTVSPost2010PropOp52
 70
     0
102
RTVSPost2010Prop53
 90
        2
102
RTVSPost2010PropOp53
 70
     1
102
RTVSPost2010Prop54
  1
strokes_ogs.tif
102
RTVSPost2010PropOp54
 70
     1
102
RTVSPost2010Prop55
280
     0
102
RTVSPost2010PropOp55
 70
     1
102
RTVSPost2010Prop56
140
1.0
102
RTVSPost2010PropOp56
 70
     1
102
RTVSPost2010Prop57
140
1.0
102
RTVSPost2010PropOp57
 70
     1
  0
XRECORD
  5
2C5
102
{ACAD_REACTORS
330
2C4
102
}
330
2C4
100
AcDbXrecord
280
     1
102
RTVSPropertyOp0
 70
     1
102
RTVSPropertyOp1
 70
     1
102
RTVSPropertyOp2
 70
     1
102
RTVSPropertyOp3
 70
     1
102
RTVSPropertyOp4
 70
     1
102
RTVSPropertyOp5
 70
     1
102
RTVSPropertyOp6
 70
     1
102
RTVSPropertyOp7
 70
     1
102
RTVSPropertyOp8
 70
     1
102
RTVSPropertyOp9
 70
     1
102
RTVSPropertyOp10
 70
     1
102
RTVSPropertyOp11
 70
     1
102
RTVSPropertyOp12
 70
     1
102
RTVSPropertyOp13
 70
     1
102
RTVSPropertyOp14
 70
     1
102
RTVSPropertyOp15
 70
     1
102
RTVSPropertyOp16
 70
     1
102
RTVSPropertyOp17
 70
     1
102
RTVSPropertyOp18
 70
     1
102
RTVSPropertyOp19
 70
     1
102
RTVSPropertyOp20
 70
     1
102
RTVSPropertyOp21
 70
     1
102
RTVSPropertyOp22
 70
     1
102
RTVSPropertyOp23
 70
     1
102
RTVSPropertyOp24
 70
     1
102
RTVSPropertyOp25
 70
     1
102
RTVSPropertyOp26
 70
     1
102
RTVSPropertyOp27
 70
     1
102
RTVSPropertyOp28
 70
     1
102
RTVSPropertyOp29
 70
     1
102
RTVSPropertyOp30
 70
     1
102
RTVSPropertyOp31
 70
     1
102
RTVSPropertyOp32
 70
     1
102
RTVSPropertyOp33
 70
     1
102
RTVSPropertyOp34
 70
     1
102
RTVSPropertyOp35
 70
     1
102
RTVSPropertyOp36
 70
     1
102
RTVSPropertyOp37
 70
     1
102
RTVSPropertyOp38
 70
     1
102
RTVSPropertyOp39
 70
     1
102
RTVSPropertyOp40
 70
     1
102
RTVSPropertyOp41
 70
     1
102
RTVSPropertyOp42
 70
     1
102
RTVSPropertyOp43
 70
     1
102
RTVSPropertyOp44
 70
     1
102
RTVSPropertyOp45
 70
     1
102
RTVSPropertyOp46
 70
     1
102
RTVSPropertyOp47
 70
     1
102
RTVSPropertyOp48
 70
     1
102
RTVSPropertyOp49
 70
     1
102
RTVSPropertyOp50
 70
     1
102
RTVSPropertyOp51
 70
     0
102
RTVSPropertyOp52
 70
     0
102
RTVSPropertyOp53
 70
     1
102
RTVSPropertyOp54
 70
     1
102
RTVSPropertyOp55
 70
     1
102
RTVSPropertyOp56
 70
     1
102
RTVSPropertyOp57
 70
     1
102
RTVSPost2010Prop28
280
     0
102
RTVSPost2010PropOp28
 70
     1
102
RTVSPost2010Prop29
280
     1
102
RTVSPost2010PropOp29
 70
     1
102
RTVSPost2010Prop30
280
     1
102
RTVSPost2010PropOp30
 70
     1
102
RTVSPost2010Prop31
280
     0
102
RTVSPost2010PropOp31
 70
     1
102
RTVSPost2010Prop32
280
     0
102
RTVSPost2010PropOp32
 70
     1
102
RTVSPost2010Prop33
280
     0
102
RTVSPost2010PropOp33
 70
     1
102
RTVSPost2010Prop34
280
     0
102
RTVSPost2010PropOp34
 70
     1
102
RTVSPost2010Prop35
280
     0
102
RTVSPost2010PropOp35
 70
     1
102
RTVSPost2010Prop36
280
     0
102
RTVSPost2010PropOp36
 70
     1
102
RTVSPost2010Prop37
 90
       50
102
RTVSPost2010PropOp37
 70
     1
102
RTVSPost2010Prop38
140
0.0
102
RTVSPost2010PropOp38
 70
     1
102
RTVSPost2010Prop39
140
1.0
102
RTVSPost2010PropOp39
 70
     1
102
RTVSPost2010Prop40
 90
        0
102
RTVSPost2010PropOp40
 70
     1
102
RTVSPost2010Prop41ColorIndex
 90
       18
102
RTVSPost2010Prop41ColorRGB
 90
        0
102
RTVSPost2010PropOp41
 70
     1
102
RTVSPost2010Prop42
 90
       50
102
RTVSPost2010PropOp42
 70
     1
102
RTVSPost2010Prop43
 90
        3
102
RTVSPost2010PropOp43
 70
     1
102
RTVSPost2010Prop44ColorIndex
 90
        5
102
RTVSPost2010Prop44ColorRGB
 90
      255
102
RTVSPost2010PropOp44
 70
     1
102
RTVSPost2010Prop45
280
     0
102
RTVSPost2010PropOp45
 70
     1
102
RTVSPost2010Prop46
 90
       50
102
RTVSPost2010PropOp46
 70
     1
102
RTVSPost2010Prop47
 90
       50
102
RTVSPost2010PropOp47
 70
     1
102
RTVSPost2010Prop48
 90
       50
102
RTVSPost2010PropOp48
 70
     1
102
RTVSPost2010Prop49
280
     0
102
RTVSPost2010PropOp49
 70
     1
102
RTVSPost2010Prop50
 90
       50
102
RTVSPost2010PropOp50
 70
     1
102
RTVSPost2010Prop51ColorIndex
 90
      256
102
RTVSPost2010Prop51ColorRGB
 90
-16777216
102
RTVSPost2010PropOp51
 70
     0
102
RTVSPost2010Prop52
140
1.0
102
RTVSPost2010PropOp52
 70
     0
102
RTVSPost2010Prop53
 90
        2
102
RTVSPost2010PropOp53
 70
     1
102
RTVSPost2010Prop54
  1
strokes_ogs.tif
102
RTVSPost2010PropOp54
 70
     1
102
RTVSPost2010Prop55
280
     0
102
RTVSPost2010PropOp55
 70
     1
102
RTVSPost2010Prop56
140
1.0
102
RTVSPost2010PropOp56
 70
     1
102
RTVSPost2010Prop57
140
1.0
102
RTVSPost2010PropOp57
 70
     1
  0
XRECORD
  5
2CB
102
{ACAD_REACTORS
330
2CA
102
}
330
2CA
100
AcDbXrecord
280
     1
102
RTVSPropertyOp0
 70
     1
102
RTVSPropertyOp1
 70
     1
102
RTVSPropertyOp2
 70
     1
102
RTVSPropertyOp3
 70
     1
102
RTVSPropertyOp4
 70
     1
102
RTVSPropertyOp5
 70
     1
102
RTVSPropertyOp6
 70
     1
102
RTVSPropertyOp7
 70
     1
102
RTVSPropertyOp8
 70
     1
102
RTVSPropertyOp9
 70
     1
102
RTVSPropertyOp10
 70
     1
102
RTVSPropertyOp11
 70
     1
102
RTVSPropertyOp12
 70
     1
102
RTVSPropertyOp13
 70
     1
102
RTVSPropertyOp14
 70
     1
102
RTVSPropertyOp15
 70
     1
102
RTVSPropertyOp16
 70
     1
102
RTVSPropertyOp17
 70
     1
102
RTVSPropertyOp18
 70
     1
102
RTVSPropertyOp19
 70
     1
102
RTVSPropertyOp20
 70
     1
102
RTVSPropertyOp21
 70
     1
102
RTVSPropertyOp22
 70
     1
102
RTVSPropertyOp23
 70
     1
102
RTVSPropertyOp24
 70
     1
102
RTVSPropertyOp25
 70
     1
102
RTVSPropertyOp26
 70
     1
102
RTVSPropertyOp27
 70
     1
102
RTVSPropertyOp28
 70
     1
102
RTVSPropertyOp29
 70
     1
102
RTVSPropertyOp30
 70
     1
102
RTVSPropertyOp31
 70
     1
102
RTVSPropertyOp32
 70
     1
102
RTVSPropertyOp33
 70
     1
102
RTVSPropertyOp34
 70
     1
102
RTVSPropertyOp35
 70
     1
102
RTVSPropertyOp36
 70
     1
102
RTVSPropertyOp37
 70
     1
102
RTVSPropertyOp38
 70
     1
102
RTVSPropertyOp39
 70
     1
102
RTVSPropertyOp40
 70
     1
102
RTVSPropertyOp41
 70
     1
102
RTVSPropertyOp42
 70
     1
102
RTVSPropertyOp43
 70
     1
102
RTVSPropertyOp44
 70
     1
102
RTVSPropertyOp45
 70
     1
102
RTVSPropertyOp46
 70
     1
102
RTVSPropertyOp47
 70
     1
102
RTVSPropertyOp48
 70
     1
102
RTVSPropertyOp49
 70
     1
102
RTVSPropertyOp50
 70
     1
102
RTVSPropertyOp51
 70
     0
102
RTVSPropertyOp52
 70
     0
102
RTVSPropertyOp53
 70
     1
102
RTVSPropertyOp54
 70
     1
102
RTVSPropertyOp55
 70
     1
102
RTVSPropertyOp56
 70
     1
102
RTVSPropertyOp57
 70
     1
102
RTVSPost2010Prop28
280
     0
102
RTVSPost2010PropOp28
 70
     1
102
RTVSPost2010Prop29
280
     1
102
RTVSPost2010PropOp29
 70
     1
102
RTVSPost2010Prop30
280
     1
102
RTVSPost2010PropOp30
 70
     1
102
RTVSPost2010Prop31
280
     0
102
RTVSPost2010PropOp31
 70
     1
102
RTVSPost2010Prop32
280
     0
102
RTVSPost2010PropOp32
 70
     1
102
RTVSPost2010Prop33
280
     0
102
RTVSPost2010PropOp33
 70
     1
102
RTVSPost2010Prop34
280
     0
102
RTVSPost2010PropOp34
 70
     1
102
RTVSPost2010Prop35
280
     0
102
RTVSPost2010PropOp35
 70
     1
102
RTVSPost2010Prop36
280
     0
102
RTVSPost2010PropOp36
 70
     1
102
RTVSPost2010Prop37
 90
       50
102
RTVSPost2010PropOp37
 70
     1
102
RTVSPost2010Prop38
140
0.0
102
RTVSPost2010PropOp38
 70
     1
102
RTVSPost2010Prop39
140
1.0
102
RTVSPost2010PropOp39
 70
     1
102
RTVSPost2010Prop40
 90
        0
102
RTVSPost2010PropOp40
 70
     1
102
RTVSPost2010Prop41ColorIndex
 90
       18
102
RTVSPost2010Prop41ColorRGB
 90
        0
102
RTVSPost2010PropOp41
 70
     1
102
RTVSPost2010Prop42
 90
       50
102
RTVSPost2010PropOp42
 70
     1
102
RTVSPost2010Prop43
 90
        3
102
RTVSPost2010PropOp43
 70
     1
102
RTVSPost2010Prop44ColorIndex
 90
        5
102
RTVSPost2010Prop44ColorRGB
 90
      255
102
RTVSPost2010PropOp44
 70
     1
102
RTVSPost2010Prop45
280
     0
102
RTVSPost2010PropOp45
 70
     1
102
RTVSPost2010Prop46
 90
       50
102
RTVSPost2010PropOp46
 70
     1
102
RTVSPost2010Prop47
 90
       50
102
RTVSPost2010PropOp47
 70
     1
102
RTVSPost2010Prop48
 90
       50
102
RTVSPost2010PropOp48
 70
     1
102
RTVSPost2010Prop49
280
     0
102
RTVSPost2010PropOp49
 70
     1
102
RTVSPost2010Prop50
 90
       50
102
RTVSPost2010PropOp50
 70
     1
102
RTVSPost2010Prop51ColorIndex
 90
      256
102
RTVSPost2010Prop51ColorRGB
 90
-16777216
102
RTVSPost2010PropOp51
 70
     0
102
RTVSPost2010Prop52
140
1.0
102
RTVSPost2010PropOp52
 70
     0
102
RTVSPost2010Prop53
 90
        2
102
RTVSPost2010PropOp53
 70
     1
102
RTVSPost2010Prop54
  1
strokes_ogs.tif
102
RTVSPost2010PropOp54
 70
     1
102
RTVSPost2010Prop55
280
     0
102
RTVSPost2010PropOp55
 70
     1
102
RTVSPost2010Prop56
140
1.0
102
RTVSPost2010PropOp56
 70
     1
102
RTVSPost2010Prop57
140
1.0
102
RTVSPost2010PropOp57
 70
     1
  0
XRECORD
  5
2DF
102
{ACAD_REACTORS
330
2DE
102
}
330
2DE
100
AcDbXrecord
280
     1
102
RTVSPropertyOp0
 70
     0
102
RTVSPropertyOp1
 70
     0
102
RTVSPropertyOp2
 70
     0
102
RTVSPropertyOp3
 70
     0
102
RTVSPropertyOp4
 70
     0
102
RTVSPropertyOp5
 70
     0
102
RTVSPropertyOp6
 70
     0
102
RTVSPropertyOp7
 70
     0
102
RTVSPropertyOp8
 70
     0
102
RTVSPropertyOp9
 70
     0
102
RTVSPropertyOp10
 70
     0
102
RTVSPropertyOp11
 70
     0
102
RTVSPropertyOp12
 70
     0
102
RTVSPropertyOp13
 70
     0
102
RTVSPropertyOp14
 70
     2
102
RTVSPropertyOp15
 70
     0
102
RTVSPropertyOp16
 70
     0
102
RTVSPropertyOp17
 70
     0
102
RTVSPropertyOp18
 70
     0
102
RTVSPropertyOp19
 70
     0
102
RTVSPropertyOp20
 70
     0
102
RTVSPropertyOp21
 70
     0
102
RTVSPropertyOp22
 70
     0
102
RTVSPropertyOp23
 70
     0
102
RTVSPropertyOp24
 70
     0
102
RTVSPropertyOp25
 70
     0
102
RTVSPropertyOp26
 70
     0
102
RTVSPropertyOp27
 70
     0
102
RTVSPropertyOp28
 70
     0
102
RTVSPropertyOp29
 70
     0
102
RTVSPropertyOp30
 70
     0
102
RTVSPropertyOp31
 70
     0
102
RTVSPropertyOp32
 70
     0
102
RTVSPropertyOp33
 70
     0
102
RTVSPropertyOp34
 70
     0
102
RTVSPropertyOp35
 70
     0
102
RTVSPropertyOp36
 70
     0
102
RTVSPropertyOp37
 70
     0
102
RTVSPropertyOp38
 70
     0
102
RTVSPropertyOp39
 70
     0
102
RTVSPropertyOp40
 70
     0
102
RTVSPropertyOp41
 70
     0
102
RTVSPropertyOp42
 70
     0
102
RTVSPropertyOp43
 70
     0
102
RTVSPropertyOp44
 70
     0
102
RTVSPropertyOp45
 70
     0
102
RTVSPropertyOp46
 70
     0
102
RTVSPropertyOp47
 70
     0
102
RTVSPropertyOp48
 70
     0
102
RTVSPropertyOp49
 70
     0
102
RTVSPropertyOp50
 70
     0
102
RTVSPropertyOp51
 70
     0
102
RTVSPropertyOp52
 70
     0
102
RTVSPropertyOp53
 70
     0
102
RTVSPropertyOp54
 70
     0
102
RTVSPropertyOp55
 70
     0
102
RTVSPropertyOp56
 70
     0
102
RTVSPropertyOp57
 70
     0
102
RTVSPost2010Prop28
280
     0
102
RTVSPost2010PropOp28
 70
     0
102
RTVSPost2010Prop29
280
     1
102
RTVSPost2010PropOp29
 70
     0
102
RTVSPost2010Prop30
280
     1
102
RTVSPost2010PropOp30
 70
     0
102
RTVSPost2010Prop31
280
     0
102
RTVSPost2010PropOp31
 70
     0
102
RTVSPost2010Prop32
280
     0
102
RTVSPost2010PropOp32
 70
     0
102
RTVSPost2010Prop33
280
     0
102
RTVSPost2010PropOp33
 70
     0
102
RTVSPost2010Prop34
280
     0
102
RTVSPost2010PropOp34
 70
     0
102
RTVSPost2010Prop35
280
     0
102
RTVSPost2010PropOp35
 70
     0
102
RTVSPost2010Prop36
280
     0
102
RTVSPost2010PropOp36
 70
     0
102
RTVSPost2010Prop37
 90
       50
102
RTVSPost2010PropOp37
 70
     0
102
RTVSPost2010Prop38
140
0.0
102
RTVSPost2010PropOp38
 70
     0
102
RTVSPost2010Prop39
140
1.0
102
RTVSPost2010PropOp39
 70
     0
102
RTVSPost2010Prop40
 90
        0
102
RTVSPost2010PropOp40
 70
     0
102
RTVSPost2010Prop41ColorIndex
 90
       18
102
RTVSPost2010Prop41ColorRGB
 90
        0
102
RTVSPost2010PropOp41
 70
     0
102
RTVSPost2010Prop42
 90
       50
102
RTVSPost2010PropOp42
 70
     0
102
RTVSPost2010Prop43
 90
        3
102
RTVSPost2010PropOp43
 70
     0
102
RTVSPost2010Prop44ColorIndex
 90
        5
102
RTVSPost2010Prop44ColorRGB
 90
      255
102
RTVSPost2010PropOp44
 70
     0
102
RTVSPost2010Prop45
280
     0
102
RTVSPost2010PropOp45
 70
     0
102
RTVSPost2010Prop46
 90
       50
102
RTVSPost2010PropOp46
 70
     0
102
RTVSPost2010Prop47
 90
       50
102
RTVSPost2010PropOp47
 70
     0
102
RTVSPost2010Prop48
 90
       50
102
RTVSPost2010PropOp48
 70
     0
102
RTVSPost2010Prop49
280
     0
102
RTVSPost2010PropOp49
 70
     0
102
RTVSPost2010Prop50
 90
       50
102
RTVSPost2010PropOp50
 70
     0
102
RTVSPost2010Prop51ColorIndex
 90
      256
102
RTVSPost2010Prop51ColorRGB
 90
-16777216
102
RTVSPost2010PropOp51
 70
     0
102
RTVSPost2010Prop52
140
1.0
102
RTVSPost2010PropOp52
 70
     0
102
RTVSPost2010Prop53
 90
        2
102
RTVSPost2010PropOp53
 70
     0
102
RTVSPost2010Prop54
  1
strokes_ogs.tif
102
RTVSPost2010PropOp54
 70
     0
102
RTVSPost2010Prop55
280
     0
102
RTVSPost2010PropOp55
 70
     0
102
RTVSPost2010Prop56
140
1.0
102
RTVSPost2010PropOp56
 70
     0
102
RTVSPost2010Prop57
140
1.0
102
RTVSPost2010PropOp57
 70
     0
  0
XRECORD
  5
2D9
102
{ACAD_REACTORS
330
2D8
102
}
330
2D8
100
AcDbXrecord
280
     1
102
RTVSPropertyOp0
 70
     1
102
RTVSPropertyOp1
 70
     1
102
RTVSPropertyOp2
 70
     1
102
RTVSPropertyOp3
 70
     1
102
RTVSPropertyOp4
 70
     1
102
RTVSPropertyOp5
 70
     1
102
RTVSPropertyOp6
 70
     1
102
RTVSPropertyOp7
 70
     1
102
RTVSPropertyOp8
 70
     1
102
RTVSPropertyOp9
 70
     1
102
RTVSPropertyOp10
 70
     1
102
RTVSPropertyOp11
 70
     1
102
RTVSPropertyOp12
 70
     1
102
RTVSPropertyOp13
 70
     1
102
RTVSPropertyOp14
 70
     1
102
RTVSPropertyOp15
 70
     1
102
RTVSPropertyOp16
 70
     1
102
RTVSPropertyOp17
 70
     1
102
RTVSPropertyOp18
 70
     1
102
RTVSPropertyOp19
 70
     1
102
RTVSPropertyOp20
 70
     1
102
RTVSPropertyOp21
 70
     1
102
RTVSPropertyOp22
 70
     1
102
RTVSPropertyOp23
 70
     1
102
RTVSPropertyOp24
 70
     1
102
RTVSPropertyOp25
 70
     1
102
RTVSPropertyOp26
 70
     1
102
RTVSPropertyOp27
 70
     1
102
RTVSPropertyOp28
 70
     1
102
RTVSPropertyOp29
 70
     1
102
RTVSPropertyOp30
 70
     1
102
RTVSPropertyOp31
 70
     1
102
RTVSPropertyOp32
 70
     1
102
RTVSPropertyOp33
 70
     1
102
RTVSPropertyOp34
 70
     1
102
RTVSPropertyOp35
 70
     1
102
RTVSPropertyOp36
 70
     1
102
RTVSPropertyOp37
 70
     1
102
RTVSPropertyOp38
 70
     1
102
RTVSPropertyOp39
 70
     1
102
RTVSPropertyOp40
 70
     1
102
RTVSPropertyOp41
 70
     1
102
RTVSPropertyOp42
 70
     1
102
RTVSPropertyOp43
 70
     1
102
RTVSPropertyOp44
 70
     1
102
RTVSPropertyOp45
 70
     1
102
RTVSPropertyOp46
 70
     1
102
RTVSPropertyOp47
 70
     1
102
RTVSPropertyOp48
 70
     1
102
RTVSPropertyOp49
 70
     1
102
RTVSPropertyOp50
 70
     1
102
RTVSPropertyOp51
 70
     0
102
RTVSPropertyOp52
 70
     0
102
RTVSPropertyOp53
 70
     1
102
RTVSPropertyOp54
 70
     1
102
RTVSPropertyOp55
 70
     1
102
RTVSPropertyOp56
 70
     1
102
RTVSPropertyOp57
 70
     1
102
RTVSPost2010Prop28
280
     0
102
RTVSPost2010PropOp28
 70
     1
102
RTVSPost2010Prop29
280
     1
102
RTVSPost2010PropOp29
 70
     1
102
RTVSPost2010Prop30
280
     1
102
RTVSPost2010PropOp30
 70
     1
102
RTVSPost2010Prop31
280
     0
102
RTVSPost2010PropOp31
 70
     1
102
RTVSPost2010Prop32
280
     0
102
RTVSPost2010PropOp32
 70
     1
102
RTVSPost2010Prop33
280
     0
102
RTVSPost2010PropOp33
 70
     1
102
RTVSPost2010Prop34
280
     0
102
RTVSPost2010PropOp34
 70
     1
102
RTVSPost2010Prop35
280
     0
102
RTVSPost2010PropOp35
 70
     1
102
RTVSPost2010Prop36
280
     0
102
RTVSPost2010PropOp36
 70
     1
102
RTVSPost2010Prop37
 90
       50
102
RTVSPost2010PropOp37
 70
     1
102
RTVSPost2010Prop38
140
0.0
102
RTVSPost2010PropOp38
 70
     1
102
RTVSPost2010Prop39
140
1.0
102
RTVSPost2010PropOp39
 70
     1
102
RTVSPost2010Prop40
 90
        0
102
RTVSPost2010PropOp40
 70
     1
102
RTVSPost2010Prop41ColorIndex
 90
       18
102
RTVSPost2010Prop41ColorRGB
 90
        0
102
RTVSPost2010PropOp41
 70
     1
102
RTVSPost2010Prop42
 90
       50
102
RTVSPost2010PropOp42
 70
     1
102
RTVSPost2010Prop43
 90
        3
102
RTVSPost2010PropOp43
 70
     1
102
RTVSPost2010Prop44ColorIndex
 90
        5
102
RTVSPost2010Prop44ColorRGB
 90
      255
102
RTVSPost2010PropOp44
 70
     1
102
RTVSPost2010Prop45
280
     0
102
RTVSPost2010PropOp45
 70
     1
102
RTVSPost2010Prop46
 90
       50
102
RTVSPost2010PropOp46
 70
     1
102
RTVSPost2010Prop47
 90
       50
102
RTVSPost2010PropOp47
 70
     1
102
RTVSPost2010Prop48
 90
       50
102
RTVSPost2010PropOp48
 70
     1
102
RTVSPost2010Prop49
280
     0
102
RTVSPost2010PropOp49
 70
     1
102
RTVSPost2010Prop50
 90
       50
102
RTVSPost2010PropOp50
 70
     1
102
RTVSPost2010Prop51ColorIndex
 90
      256
102
RTVSPost2010Prop51ColorRGB
 90
-16777216
102
RTVSPost2010PropOp51
 70
     0
102
RTVSPost2010Prop52
140
1.0
102
RTVSPost2010PropOp52
 70
     0
102
RTVSPost2010Prop53
 90
        2
102
RTVSPost2010PropOp53
 70
     1
102
RTVSPost2010Prop54
  1
strokes_ogs.tif
102
RTVSPost2010PropOp54
 70
     1
102
RTVSPost2010Prop55
280
     0
102
RTVSPost2010PropOp55
 70
     1
102
RTVSPost2010Prop56
140
1.0
102
RTVSPost2010PropOp56
 70
     1
102
RTVSPost2010Prop57
140
1.0
102
RTVSPost2010PropOp57
 70
     1
  0
XRECORD
  5
2E1
102
{ACAD_REACTORS
330
2E0
102
}
330
2E0
100
AcDbXrecord
280
     1
102
RTVSPropertyOp0
 70
     0
102
RTVSPropertyOp1
 70
     0
102
RTVSPropertyOp2
 70
     0
102
RTVSPropertyOp3
 70
     0
102
RTVSPropertyOp4
 70
     0
102
RTVSPropertyOp5
 70
     0
102
RTVSPropertyOp6
 70
     0
102
RTVSPropertyOp7
 70
     0
102
RTVSPropertyOp8
 70
     0
102
RTVSPropertyOp9
 70
     0
102
RTVSPropertyOp10
 70
     0
102
RTVSPropertyOp11
 70
     0
102
RTVSPropertyOp12
 70
     0
102
RTVSPropertyOp13
 70
     0
102
RTVSPropertyOp14
 70
     2
102
RTVSPropertyOp15
 70
     0
102
RTVSPropertyOp16
 70
     0
102
RTVSPropertyOp17
 70
     0
102
RTVSPropertyOp18
 70
     0
102
RTVSPropertyOp19
 70
     0
102
RTVSPropertyOp20
 70
     0
102
RTVSPropertyOp21
 70
     0
102
RTVSPropertyOp22
 70
     0
102
RTVSPropertyOp23
 70
     0
102
RTVSPropertyOp24
 70
     0
102
RTVSPropertyOp25
 70
     0
102
RTVSPropertyOp26
 70
     0
102
RTVSPropertyOp27
 70
     0
102
RTVSPropertyOp28
 70
     0
102
RTVSPropertyOp29
 70
     0
102
RTVSPropertyOp30
 70
     0
102
RTVSPropertyOp31
 70
     0
102
RTVSPropertyOp32
 70
     0
102
RTVSPropertyOp33
 70
     0
102
RTVSPropertyOp34
 70
     0
102
RTVSPropertyOp35
 70
     0
102
RTVSPropertyOp36
 70
     0
102
RTVSPropertyOp37
 70
     0
102
RTVSPropertyOp38
 70
     0
102
RTVSPropertyOp39
 70
     0
102
RTVSPropertyOp40
 70
     0
102
RTVSPropertyOp41
 70
     0
102
RTVSPropertyOp42
 70
     0
102
RTVSPropertyOp43
 70
     0
102
RTVSPropertyOp44
 70
     0
102
RTVSPropertyOp45
 70
     0
102
RTVSPropertyOp46
 70
     0
102
RTVSPropertyOp47
 70
     0
102
RTVSPropertyOp48
 70
     0
102
RTVSPropertyOp49
 70
     0
102
RTVSPropertyOp50
 70
     0
102
RTVSPropertyOp51
 70
     0
102
RTVSPropertyOp52
 70
     0
102
RTVSPropertyOp53
 70
     0
102
RTVSPropertyOp54
 70
     0
102
RTVSPropertyOp55
 70
     0
102
RTVSPropertyOp56
 70
     0
102
RTVSPropertyOp57
 70
     0
102
RTVSPost2010Prop28
280
     0
102
RTVSPost2010PropOp28
 70
     0
102
RTVSPost2010Prop29
280
     1
102
RTVSPost2010PropOp29
 70
     0
102
RTVSPost2010Prop30
280
     1
102
RTVSPost2010PropOp30
 70
     0
102
RTVSPost2010Prop31
280
     0
102
RTVSPost2010PropOp31
 70
     0
102
RTVSPost2010Prop32
280
     0
102
RTVSPost2010PropOp32
 70
     0
102
RTVSPost2010Prop33
280
     0
102
RTVSPost2010PropOp33
 70
     0
102
RTVSPost2010Prop34
280
     0
102
RTVSPost2010PropOp34
 70
     0
102
RTVSPost2010Prop35
280
     0
102
RTVSPost2010PropOp35
 70
     0
102
RTVSPost2010Prop36
280
     0
102
RTVSPost2010PropOp36
 70
     0
102
RTVSPost2010Prop37
 90
       50
102
RTVSPost2010PropOp37
 70
     0
102
RTVSPost2010Prop38
140
0.0
102
RTVSPost2010PropOp38
 70
     0
102
RTVSPost2010Prop39
140
1.0
102
RTVSPost2010PropOp39
 70
     0
102
RTVSPost2010Prop40
 90
        0
102
RTVSPost2010PropOp40
 70
     0
102
RTVSPost2010Prop41ColorIndex
 90
       18
102
RTVSPost2010Prop41ColorRGB
 90
        0
102
RTVSPost2010PropOp41
 70
     0
102
RTVSPost2010Prop42
 90
       50
102
RTVSPost2010PropOp42
 70
     0
102
RTVSPost2010Prop43
 90
        3
102
RTVSPost2010PropOp43
 70
     0
102
RTVSPost2010Prop44ColorIndex
 90
        5
102
RTVSPost2010Prop44ColorRGB
 90
      255
102
RTVSPost2010PropOp44
 70
     0
102
RTVSPost2010Prop45
280
     0
102
RTVSPost2010PropOp45
 70
     0
102
RTVSPost2010Prop46
 90
       50
102
RTVSPost2010PropOp46
 70
     0
102
RTVSPost2010Prop47
 90
       50
102
RTVSPost2010PropOp47
 70
     0
102
RTVSPost2010Prop48
 90
       50
102
RTVSPost2010PropOp48
 70
     0
102
RTVSPost2010Prop49
280
     0
102
RTVSPost2010PropOp49
 70
     0
102
RTVSPost2010Prop50
 90
       50
102
RTVSPost2010PropOp50
 70
     0
102
RTVSPost2010Prop51ColorIndex
 90
      256
102
RTVSPost2010Prop51ColorRGB
 90
-16777216
102
RTVSPost2010PropOp51
 70
     0
102
RTVSPost2010Prop52
140
1.0
102
RTVSPost2010PropOp52
 70
     0
102
RTVSPost2010Prop53
 90
        2
102
RTVSPost2010PropOp53
 70
     0
102
RTVSPost2010Prop54
  1
strokes_ogs.tif
102
RTVSPost2010PropOp54
 70
     0
102
RTVSPost2010Prop55
280
     0
102
RTVSPost2010PropOp55
 70
     0
102
RTVSPost2010Prop56
140
1.0
102
RTVSPost2010PropOp56
 70
     0
102
RTVSPost2010Prop57
140
1.0
102
RTVSPost2010PropOp57
 70
     0
  0
XRECORD
  5
2CF
102
{ACAD_REACTORS
330
2CE
102
}
330
2CE
100
AcDbXrecord
280
     1
102
RTVSPropertyOp0
 70
     1
102
RTVSPropertyOp1
 70
     1
102
RTVSPropertyOp2
 70
     1
102
RTVSPropertyOp3
 70
     1
102
RTVSPropertyOp4
 70
     1
102
RTVSPropertyOp5
 70
     1
102
RTVSPropertyOp6
 70
     1
102
RTVSPropertyOp7
 70
     1
102
RTVSPropertyOp8
 70
     1
102
RTVSPropertyOp9
 70
     1
102
RTVSPropertyOp10
 70
     1
102
RTVSPropertyOp11
 70
     1
102
RTVSPropertyOp12
 70
     1
102
RTVSPropertyOp13
 70
     1
102
RTVSPropertyOp14
 70
     1
102
RTVSPropertyOp15
 70
     1
102
RTVSPropertyOp16
 70
     1
102
RTVSPropertyOp17
 70
     1
102
RTVSPropertyOp18
 70
     1
102
RTVSPropertyOp19
 70
     1
102
RTVSPropertyOp20
 70
     1
102
RTVSPropertyOp21
 70
     1
102
RTVSPropertyOp22
 70
     1
102
RTVSPropertyOp23
 70
     1
102
RTVSPropertyOp24
 70
     1
102
RTVSPropertyOp25
 70
     1
102
RTVSPropertyOp26
 70
     1
102
RTVSPropertyOp27
 70
     1
102
RTVSPropertyOp28
 70
     1
102
RTVSPropertyOp29
 70
     1
102
RTVSPropertyOp30
 70
     1
102
RTVSPropertyOp31
 70
     1
102
RTVSPropertyOp32
 70
     1
102
RTVSPropertyOp33
 70
     1
102
RTVSPropertyOp34
 70
     1
102
RTVSPropertyOp35
 70
     1
102
RTVSPropertyOp36
 70
     1
102
RTVSPropertyOp37
 70
     1
102
RTVSPropertyOp38
 70
     1
102
RTVSPropertyOp39
 70
     1
102
RTVSPropertyOp40
 70
     1
102
RTVSPropertyOp41
 70
     1
102
RTVSPropertyOp42
 70
     1
102
RTVSPropertyOp43
 70
     1
102
RTVSPropertyOp44
 70
     1
102
RTVSPropertyOp45
 70
     1
102
RTVSPropertyOp46
 70
     1
102
RTVSPropertyOp47
 70
     1
102
RTVSPropertyOp48
 70
     1
102
RTVSPropertyOp49
 70
     1
102
RTVSPropertyOp50
 70
     1
102
RTVSPropertyOp51
 70
     0
102
RTVSPropertyOp52
 70
     0
102
RTVSPropertyOp53
 70
     1
102
RTVSPropertyOp54
 70
     1
102
RTVSPropertyOp55
 70
     1
102
RTVSPropertyOp56
 70
     1
102
RTVSPropertyOp57
 70
     1
102
RTVSPost2010Prop28
280
     0
102
RTVSPost2010PropOp28
 70
     1
102
RTVSPost2010Prop29
280
     1
102
RTVSPost2010PropOp29
 70
     1
102
RTVSPost2010Prop30
280
     1
102
RTVSPost2010PropOp30
 70
     1
102
RTVSPost2010Prop31
280
     0
102
RTVSPost2010PropOp31
 70
     1
102
RTVSPost2010Prop32
280
     0
102
RTVSPost2010PropOp32
 70
     1
102
RTVSPost2010Prop33
280
     0
102
RTVSPost2010PropOp33
 70
     1
102
RTVSPost2010Prop34
280
     0
102
RTVSPost2010PropOp34
 70
     1
102
RTVSPost2010Prop35
280
     0
102
RTVSPost2010PropOp35
 70
     1
102
RTVSPost2010Prop36
280
     0
102
RTVSPost2010PropOp36
 70
     1
102
RTVSPost2010Prop37
 90
       50
102
RTVSPost2010PropOp37
 70
     1
102
RTVSPost2010Prop38
140
0.0
102
RTVSPost2010PropOp38
 70
     1
102
RTVSPost2010Prop39
140
1.0
102
RTVSPost2010PropOp39
 70
     1
102
RTVSPost2010Prop40
 90
        0
102
RTVSPost2010PropOp40
 70
     1
102
RTVSPost2010Prop41ColorIndex
 90
       18
102
RTVSPost2010Prop41ColorRGB
 90
        0
102
RTVSPost2010PropOp41
 70
     1
102
RTVSPost2010Prop42
 90
       50
102
RTVSPost2010PropOp42
 70
     1
102
RTVSPost2010Prop43
 90
        3
102
RTVSPost2010PropOp43
 70
     1
102
RTVSPost2010Prop44ColorIndex
 90
        5
102
RTVSPost2010Prop44ColorRGB
 90
      255
102
RTVSPost2010PropOp44
 70
     1
102
RTVSPost2010Prop45
280
     0
102
RTVSPost2010PropOp45
 70
     1
102
RTVSPost2010Prop46
 90
       50
102
RTVSPost2010PropOp46
 70
     1
102
RTVSPost2010Prop47
 90
       50
102
RTVSPost2010PropOp47
 70
     1
102
RTVSPost2010Prop48
 90
       50
102
RTVSPost2010PropOp48
 70
     1
102
RTVSPost2010Prop49
280
     0
102
RTVSPost2010PropOp49
 70
     1
102
RTVSPost2010Prop50
 90
       50
102
RTVSPost2010PropOp50
 70
     1
102
RTVSPost2010Prop51ColorIndex
 90
      256
102
RTVSPost2010Prop51ColorRGB
 90
-16777216
102
RTVSPost2010PropOp51
 70
     0
102
RTVSPost2010Prop52
140
1.0
102
RTVSPost2010PropOp52
 70
     0
102
RTVSPost2010Prop53
 90
        2
102
RTVSPost2010PropOp53
 70
     1
102
RTVSPost2010Prop54
  1
strokes_ogs.tif
102
RTVSPost2010PropOp54
 70
     1
102
RTVSPost2010Prop55
280
     0
102
RTVSPost2010PropOp55
 70
     1
102
RTVSPost2010Prop56
140
1.0
102
RTVSPost2010PropOp56
 70
     1
102
RTVSPost2010Prop57
140
1.0
102
RTVSPost2010PropOp57
 70
     1
  0
XRECORD
  5
2ED
102
{ACAD_REACTORS
330
2EC
102
}
330
2EC
100
AcDbXrecord
280
     1
102
RTVSPropertyOp0
 70
     1
102
RTVSPropertyOp1
 70
     1
102
RTVSPropertyOp2
 70
     1
102
RTVSPropertyOp3
 70
     1
102
RTVSPropertyOp4
 70
     1
102
RTVSPropertyOp5
 70
     1
102
RTVSPropertyOp6
 70
     1
102
RTVSPropertyOp7
 70
     1
102
RTVSPropertyOp8
 70
     1
102
RTVSPropertyOp9
 70
     1
102
RTVSPropertyOp10
 70
     1
102
RTVSPropertyOp11
 70
     1
102
RTVSPropertyOp12
 70
     1
102
RTVSPropertyOp13
 70
     1
102
RTVSPropertyOp14
 70
     1
102
RTVSPropertyOp15
 70
     1
102
RTVSPropertyOp16
 70
     1
102
RTVSPropertyOp17
 70
     1
102
RTVSPropertyOp18
 70
     1
102
RTVSPropertyOp19
 70
     1
102
RTVSPropertyOp20
 70
     1
102
RTVSPropertyOp21
 70
     1
102
RTVSPropertyOp22
 70
     1
102
RTVSPropertyOp23
 70
     1
102
RTVSPropertyOp24
 70
     1
102
RTVSPropertyOp25
 70
     1
102
RTVSPropertyOp26
 70
     1
102
RTVSPropertyOp27
 70
     1
102
RTVSPropertyOp28
 70
     1
102
RTVSPropertyOp29
 70
     1
102
RTVSPropertyOp30
 70
     1
102
RTVSPropertyOp31
 70
     1
102
RTVSPropertyOp32
 70
     1
102
RTVSPropertyOp33
 70
     1
102
RTVSPropertyOp34
 70
     1
102
RTVSPropertyOp35
 70
     1
102
RTVSPropertyOp36
 70
     1
102
RTVSPropertyOp37
 70
     1
102
RTVSPropertyOp38
 70
     1
102
RTVSPropertyOp39
 70
     1
102
RTVSPropertyOp40
 70
     1
102
RTVSPropertyOp41
 70
     1
102
RTVSPropertyOp42
 70
     1
102
RTVSPropertyOp43
 70
     1
102
RTVSPropertyOp44
 70
     1
102
RTVSPropertyOp45
 70
     1
102
RTVSPropertyOp46
 70
     1
102
RTVSPropertyOp47
 70
     1
102
RTVSPropertyOp48
 70
     1
102
RTVSPropertyOp49
 70
     1
102
RTVSPropertyOp50
 70
     1
102
RTVSPropertyOp51
 70
     0
102
RTVSPropertyOp52
 70
     0
102
RTVSPropertyOp53
 70
     1
102
RTVSPropertyOp54
 70
     1
102
RTVSPropertyOp55
 70
     1
102
RTVSPropertyOp56
 70
     1
102
RTVSPropertyOp57
 70
     1
102
RTVSPost2010Prop28
280
     0
102
RTVSPost2010PropOp28
 70
     1
102
RTVSPost2010Prop29
280
     1
102
RTVSPost2010PropOp29
 70
     1
102
RTVSPost2010Prop30
280
     1
102
RTVSPost2010PropOp30
 70
     1
102
RTVSPost2010Prop31
280
     0
102
RTVSPost2010PropOp31
 70
     1
102
RTVSPost2010Prop32
280
     0
102
RTVSPost2010PropOp32
 70
     1
102
RTVSPost2010Prop33
280
     0
102
RTVSPost2010PropOp33
 70
     1
102
RTVSPost2010Prop34
280
     0
102
RTVSPost2010PropOp34
 70
     1
102
RTVSPost2010Prop35
280
     0
102
RTVSPost2010PropOp35
 70
     1
102
RTVSPost2010Prop36
280
     0
102
RTVSPost2010PropOp36
 70
     1
102
RTVSPost2010Prop37
 90
       50
102
RTVSPost2010PropOp37
 70
     1
102
RTVSPost2010Prop38
140
0.0
102
RTVSPost2010PropOp38
 70
     1
102
RTVSPost2010Prop39
140
1.0
102
RTVSPost2010PropOp39
 70
     1
102
RTVSPost2010Prop40
 90
        0
102
RTVSPost2010PropOp40
 70
     1
102
RTVSPost2010Prop41ColorIndex
 90
       18
102
RTVSPost2010Prop41ColorRGB
 90
        0
102
RTVSPost2010PropOp41
 70
     1
102
RTVSPost2010Prop42
 90
       50
102
RTVSPost2010PropOp42
 70
     1
102
RTVSPost2010Prop43
 90
        3
102
RTVSPost2010PropOp43
 70
     1
102
RTVSPost2010Prop44ColorIndex
 90
        5
102
RTVSPost2010Prop44ColorRGB
 90
      255
102
RTVSPost2010PropOp44
 70
     1
102
RTVSPost2010Prop45
280
     0
102
RTVSPost2010PropOp45
 70
     1
102
RTVSPost2010Prop46
 90
       50
102
RTVSPost2010PropOp46
 70
     1
102
RTVSPost2010Prop47
 90
       50
102
RTVSPost2010PropOp47
 70
     1
102
RTVSPost2010Prop48
 90
       50
102
RTVSPost2010PropOp48
 70
     1
102
RTVSPost2010Prop49
280
     0
102
RTVSPost2010PropOp49
 70
     1
102
RTVSPost2010Prop50
 90
       50
102
RTVSPost2010PropOp50
 70
     1
102
RTVSPost2010Prop51ColorIndex
 90
      256
102
RTVSPost2010Prop51ColorRGB
 90
-16777216
102
RTVSPost2010PropOp51
 70
     0
102
RTVSPost2010Prop52
140
1.0
102
RTVSPost2010PropOp52
 70
     0
102
RTVSPost2010Prop53
 90
        2
102
RTVSPost2010PropOp53
 70
     1
102
RTVSPost2010Prop54
  1
strokes_ogs.tif
102
RTVSPost2010PropOp54
 70
     1
102
RTVSPost2010Prop55
280
     0
102
RTVSPost2010PropOp55
 70
     1
102
RTVSPost2010Prop56
140
1.0
102
RTVSPost2010PropOp56
 70
     1
102
RTVSPost2010Prop57
140
1.0
102
RTVSPost2010PropOp57
 70
     1
  0
XRECORD
  5
2EB
102
{ACAD_REACTORS
330
2EA
102
}
330
2EA
100
AcDbXrecord
280
     1
102
RTVSPropertyOp0
 70
     1
102
RTVSPropertyOp1
 70
     1
102
RTVSPropertyOp2
 70
     1
102
RTVSPropertyOp3
 70
     1
102
RTVSPropertyOp4
 70
     1
102
RTVSPropertyOp5
 70
     1
102
RTVSPropertyOp6
 70
     1
102
RTVSPropertyOp7
 70
     1
102
RTVSPropertyOp8
 70
     1
102
RTVSPropertyOp9
 70
     1
102
RTVSPropertyOp10
 70
     1
102
RTVSPropertyOp11
 70
     1
102
RTVSPropertyOp12
 70
     1
102
RTVSPropertyOp13
 70
     1
102
RTVSPropertyOp14
 70
     1
102
RTVSPropertyOp15
 70
     1
102
RTVSPropertyOp16
 70
     1
102
RTVSPropertyOp17
 70
     1
102
RTVSPropertyOp18
 70
     1
102
RTVSPropertyOp19
 70
     1
102
RTVSPropertyOp20
 70
     1
102
RTVSPropertyOp21
 70
     1
102
RTVSPropertyOp22
 70
     1
102
RTVSPropertyOp23
 70
     1
102
RTVSPropertyOp24
 70
     1
102
RTVSPropertyOp25
 70
     1
102
RTVSPropertyOp26
 70
     1
102
RTVSPropertyOp27
 70
     1
102
RTVSPropertyOp28
 70
     1
102
RTVSPropertyOp29
 70
     1
102
RTVSPropertyOp30
 70
     1
102
RTVSPropertyOp31
 70
     1
102
RTVSPropertyOp32
 70
     1
102
RTVSPropertyOp33
 70
     1
102
RTVSPropertyOp34
 70
     1
102
RTVSPropertyOp35
 70
     1
102
RTVSPropertyOp36
 70
     1
102
RTVSPropertyOp37
 70
     1
102
RTVSPropertyOp38
 70
     1
102
RTVSPropertyOp39
 70
     1
102
RTVSPropertyOp40
 70
     1
102
RTVSPropertyOp41
 70
     1
102
RTVSPropertyOp42
 70
     1
102
RTVSPropertyOp43
 70
     1
102
RTVSPropertyOp44
 70
     1
102
RTVSPropertyOp45
 70
     1
102
RTVSPropertyOp46
 70
     1
102
RTVSPropertyOp47
 70
     1
102
RTVSPropertyOp48
 70
     1
102
RTVSPropertyOp49
 70
     1
102
RTVSPropertyOp50
 70
     1
102
RTVSPropertyOp51
 70
     0
102
RTVSPropertyOp52
 70
     0
102
RTVSPropertyOp53
 70
     1
102
RTVSPropertyOp54
 70
     1
102
RTVSPropertyOp55
 70
     1
102
RTVSPropertyOp56
 70
     1
102
RTVSPropertyOp57
 70
     1
102
RTVSPost2010Prop28
280
     0
102
RTVSPost2010PropOp28
 70
     1
102
RTVSPost2010Prop29
280
     1
102
RTVSPost2010PropOp29
 70
     1
102
RTVSPost2010Prop30
280
     1
102
RTVSPost2010PropOp30
 70
     1
102
RTVSPost2010Prop31
280
     0
102
RTVSPost2010PropOp31
 70
     1
102
RTVSPost2010Prop32
280
     0
102
RTVSPost2010PropOp32
 70
     1
102
RTVSPost2010Prop33
280
     0
102
RTVSPost2010PropOp33
 70
     1
102
RTVSPost2010Prop34
280
     0
102
RTVSPost2010PropOp34
 70
     1
102
RTVSPost2010Prop35
280
     0
102
RTVSPost2010PropOp35
 70
     1
102
RTVSPost2010Prop36
280
     0
102
RTVSPost2010PropOp36
 70
     1
102
RTVSPost2010Prop37
 90
       50
102
RTVSPost2010PropOp37
 70
     1
102
RTVSPost2010Prop38
140
0.0
102
RTVSPost2010PropOp38
 70
     1
102
RTVSPost2010Prop39
140
1.0
102
RTVSPost2010PropOp39
 70
     1
102
RTVSPost2010Prop40
 90
        0
102
RTVSPost2010PropOp40
 70
     1
102
RTVSPost2010Prop41ColorIndex
 90
       18
102
RTVSPost2010Prop41ColorRGB
 90
        0
102
RTVSPost2010PropOp41
 70
     1
102
RTVSPost2010Prop42
 90
       50
102
RTVSPost2010PropOp42
 70
     1
102
RTVSPost2010Prop43
 90
        3
102
RTVSPost2010PropOp43
 70
     1
102
RTVSPost2010Prop44ColorIndex
 90
        5
102
RTVSPost2010Prop44ColorRGB
 90
      255
102
RTVSPost2010PropOp44
 70
     1
102
RTVSPost2010Prop45
280
     0
102
RTVSPost2010PropOp45
 70
     1
102
RTVSPost2010Prop46
 90
       50
102
RTVSPost2010PropOp46
 70
     1
102
RTVSPost2010Prop47
 90
       50
102
RTVSPost2010PropOp47
 70
     1
102
RTVSPost2010Prop48
 90
       50
102
RTVSPost2010PropOp48
 70
     1
102
RTVSPost2010Prop49
280
     0
102
RTVSPost2010PropOp49
 70
     1
102
RTVSPost2010Prop50
 90
       50
102
RTVSPost2010PropOp50
 70
     1
102
RTVSPost2010Prop51ColorIndex
 90
      256
102
RTVSPost2010Prop51ColorRGB
 90
-16777216
102
RTVSPost2010PropOp51
 70
     0
102
RTVSPost2010Prop52
140
1.0
102
RTVSPost2010PropOp52
 70
     0
102
RTVSPost2010Prop53
 90
        2
102
RTVSPost2010PropOp53
 70
     1
102
RTVSPost2010Prop54
  1
strokes_ogs.tif
102
RTVSPost2010PropOp54
 70
     1
102
RTVSPost2010Prop55
280
     0
102
RTVSPost2010PropOp55
 70
     1
102
RTVSPost2010Prop56
140
1.0
102
RTVSPost2010PropOp56
 70
     1
102
RTVSPost2010Prop57
140
1.0
102
RTVSPost2010PropOp57
 70
     1
  0
XRECORD
  5
2E5
102
{ACAD_REACTORS
330
2E4
102
}
330
2E4
100
AcDbXrecord
280
     1
102
RTVSPropertyOp0
 70
     1
102
RTVSPropertyOp1
 70
     1
102
RTVSPropertyOp2
 70
     1
102
RTVSPropertyOp3
 70
     1
102
RTVSPropertyOp4
 70
     1
102
RTVSPropertyOp5
 70
     1
102
RTVSPropertyOp6
 70
     1
102
RTVSPropertyOp7
 70
     1
102
RTVSPropertyOp8
 70
     1
102
RTVSPropertyOp9
 70
     1
102
RTVSPropertyOp10
 70
     1
102
RTVSPropertyOp11
 70
     1
102
RTVSPropertyOp12
 70
     1
102
RTVSPropertyOp13
 70
     1
102
RTVSPropertyOp14
 70
     1
102
RTVSPropertyOp15
 70
     1
102
RTVSPropertyOp16
 70
     1
102
RTVSPropertyOp17
 70
     1
102
RTVSPropertyOp18
 70
     1
102
RTVSPropertyOp19
 70
     1
102
RTVSPropertyOp20
 70
     1
102
RTVSPropertyOp21
 70
     1
102
RTVSPropertyOp22
 70
     1
102
RTVSPropertyOp23
 70
     1
102
RTVSPropertyOp24
 70
     1
102
RTVSPropertyOp25
 70
     1
102
RTVSPropertyOp26
 70
     1
102
RTVSPropertyOp27
 70
     1
102
RTVSPropertyOp28
 70
     1
102
RTVSPropertyOp29
 70
     1
102
RTVSPropertyOp30
 70
     1
102
RTVSPropertyOp31
 70
     1
102
RTVSPropertyOp32
 70
     1
102
RTVSPropertyOp33
 70
     1
102
RTVSPropertyOp34
 70
     1
102
RTVSPropertyOp35
 70
     1
102
RTVSPropertyOp36
 70
     1
102
RTVSPropertyOp37
 70
     1
102
RTVSPropertyOp38
 70
     1
102
RTVSPropertyOp39
 70
     1
102
RTVSPropertyOp40
 70
     1
102
RTVSPropertyOp41
 70
     1
102
RTVSPropertyOp42
 70
     1
102
RTVSPropertyOp43
 70
     1
102
RTVSPropertyOp44
 70
     1
102
RTVSPropertyOp45
 70
     1
102
RTVSPropertyOp46
 70
     1
102
RTVSPropertyOp47
 70
     1
102
RTVSPropertyOp48
 70
     1
102
RTVSPropertyOp49
 70
     1
102
RTVSPropertyOp50
 70
     1
102
RTVSPropertyOp51
 70
     0
102
RTVSPropertyOp52
 70
     0
102
RTVSPropertyOp53
 70
     1
102
RTVSPropertyOp54
 70
     1
102
RTVSPropertyOp55
 70
     1
102
RTVSPropertyOp56
 70
     1
102
RTVSPropertyOp57
 70
     1
102
RTVSPost2010Prop28
280
     0
102
RTVSPost2010PropOp28
 70
     1
102
RTVSPost2010Prop29
280
     1
102
RTVSPost2010PropOp29
 70
     1
102
RTVSPost2010Prop30
280
     1
102
RTVSPost2010PropOp30
 70
     1
102
RTVSPost2010Prop31
280
     0
102
RTVSPost2010PropOp31
 70
     1
102
RTVSPost2010Prop32
280
     0
102
RTVSPost2010PropOp32
 70
     1
102
RTVSPost2010Prop33
280
     0
102
RTVSPost2010PropOp33
 70
     1
102
RTVSPost2010Prop34
280
     0
102
RTVSPost2010PropOp34
 70
     1
102
RTVSPost2010Prop35
280
     0
102
RTVSPost2010PropOp35
 70
     1
102
RTVSPost2010Prop36
280
     0
102
RTVSPost2010PropOp36
 70
     1
102
RTVSPost2010Prop37
 90
       50
102
RTVSPost2010PropOp37
 70
     1
102
RTVSPost2010Prop38
140
0.0
102
RTVSPost2010PropOp38
 70
     1
102
RTVSPost2010Prop39
140
1.0
102
RTVSPost2010PropOp39
 70
     1
102
RTVSPost2010Prop40
 90
        0
102
RTVSPost2010PropOp40
 70
     1
102
RTVSPost2010Prop41ColorIndex
 90
       18
102
RTVSPost2010Prop41ColorRGB
 90
        0
102
RTVSPost2010PropOp41
 70
     1
102
RTVSPost2010Prop42
 90
       50
102
RTVSPost2010PropOp42
 70
     1
102
RTVSPost2010Prop43
 90
        3
102
RTVSPost2010PropOp43
 70
     1
102
RTVSPost2010Prop44ColorIndex
 90
        5
102
RTVSPost2010Prop44ColorRGB
 90
      255
102
RTVSPost2010PropOp44
 70
     1
102
RTVSPost2010Prop45
280
     0
102
RTVSPost2010PropOp45
 70
     1
102
RTVSPost2010Prop46
 90
       50
102
RTVSPost2010PropOp46
 70
     1
102
RTVSPost2010Prop47
 90
       50
102
RTVSPost2010PropOp47
 70
     1
102
RTVSPost2010Prop48
 90
       50
102
RTVSPost2010PropOp48
 70
     1
102
RTVSPost2010Prop49
280
     0
102
RTVSPost2010PropOp49
 70
     1
102
RTVSPost2010Prop50
 90
       50
102
RTVSPost2010PropOp50
 70
     1
102
RTVSPost2010Prop51ColorIndex
 90
      256
102
RTVSPost2010Prop51ColorRGB
 90
-16777216
102
RTVSPost2010PropOp51
 70
     0
102
RTVSPost2010Prop52
140
1.0
102
RTVSPost2010PropOp52
 70
     0
102
RTVSPost2010Prop53
 90
        2
102
RTVSPost2010PropOp53
 70
     1
102
RTVSPost2010Prop54
  1
strokes_ogs.tif
102
RTVSPost2010PropOp54
 70
     1
102
RTVSPost2010Prop55
280
     0
102
RTVSPost2010PropOp55
 70
     1
102
RTVSPost2010Prop56
140
1.0
102
RTVSPost2010PropOp56
 70
     1
102
RTVSPost2010Prop57
140
1.0
102
RTVSPost2010PropOp57
 70
     1
  0
XRECORD
  5
2E7
102
{ACAD_REACTORS
330
2E6
102
}
330
2E6
100
AcDbXrecord
280
     1
102
RTVSPropertyOp0
 70
     1
102
RTVSPropertyOp1
 70
     1
102
RTVSPropertyOp2
 70
     1
102
RTVSPropertyOp3
 70
     1
102
RTVSPropertyOp4
 70
     1
102
RTVSPropertyOp5
 70
     1
102
RTVSPropertyOp6
 70
     1
102
RTVSPropertyOp7
 70
     1
102
RTVSPropertyOp8
 70
     1
102
RTVSPropertyOp9
 70
     1
102
RTVSPropertyOp10
 70
     1
102
RTVSPropertyOp11
 70
     1
102
RTVSPropertyOp12
 70
     1
102
RTVSPropertyOp13
 70
     1
102
RTVSPropertyOp14
 70
     1
102
RTVSPropertyOp15
 70
     1
102
RTVSPropertyOp16
 70
     1
102
RTVSPropertyOp17
 70
     1
102
RTVSPropertyOp18
 70
     1
102
RTVSPropertyOp19
 70
     1
102
RTVSPropertyOp20
 70
     1
102
RTVSPropertyOp21
 70
     1
102
RTVSPropertyOp22
 70
     1
102
RTVSPropertyOp23
 70
     1
102
RTVSPropertyOp24
 70
     1
102
RTVSPropertyOp25
 70
     1
102
RTVSPropertyOp26
 70
     1
102
RTVSPropertyOp27
 70
     1
102
RTVSPropertyOp28
 70
     1
102
RTVSPropertyOp29
 70
     1
102
RTVSPropertyOp30
 70
     1
102
RTVSPropertyOp31
 70
     1
102
RTVSPropertyOp32
 70
     1
102
RTVSPropertyOp33
 70
     1
102
RTVSPropertyOp34
 70
     1
102
RTVSPropertyOp35
 70
     1
102
RTVSPropertyOp36
 70
     1
102
RTVSPropertyOp37
 70
     1
102
RTVSPropertyOp38
 70
     1
102
RTVSPropertyOp39
 70
     1
102
RTVSPropertyOp40
 70
     1
102
RTVSPropertyOp41
 70
     1
102
RTVSPropertyOp42
 70
     1
102
RTVSPropertyOp43
 70
     1
102
RTVSPropertyOp44
 70
     1
102
RTVSPropertyOp45
 70
     1
102
RTVSPropertyOp46
 70
     1
102
RTVSPropertyOp47
 70
     1
102
RTVSPropertyOp48
 70
     1
102
RTVSPropertyOp49
 70
     1
102
RTVSPropertyOp50
 70
     1
102
RTVSPropertyOp51
 70
     0
102
RTVSPropertyOp52
 70
     0
102
RTVSPropertyOp53
 70
     1
102
RTVSPropertyOp54
 70
     1
102
RTVSPropertyOp55
 70
     1
102
RTVSPropertyOp56
 70
     1
102
RTVSPropertyOp57
 70
     1
102
RTVSPost2010Prop28
280
     0
102
RTVSPost2010PropOp28
 70
     1
102
RTVSPost2010Prop29
280
     1
102
RTVSPost2010PropOp29
 70
     1
102
RTVSPost2010Prop30
280
     1
102
RTVSPost2010PropOp30
 70
     1
102
RTVSPost2010Prop31
280
     0
102
RTVSPost2010PropOp31
 70
     1
102
RTVSPost2010Prop32
280
     0
102
RTVSPost2010PropOp32
 70
     1
102
RTVSPost2010Prop33
280
     0
102
RTVSPost2010PropOp33
 70
     1
102
RTVSPost2010Prop34
280
     0
102
RTVSPost2010PropOp34
 70
     1
102
RTVSPost2010Prop35
280
     0
102
RTVSPost2010PropOp35
 70
     1
102
RTVSPost2010Prop36
280
     0
102
RTVSPost2010PropOp36
 70
     1
102
RTVSPost2010Prop37
 90
       50
102
RTVSPost2010PropOp37
 70
     1
102
RTVSPost2010Prop38
140
0.0
102
RTVSPost2010PropOp38
 70
     1
102
RTVSPost2010Prop39
140
1.0
102
RTVSPost2010PropOp39
 70
     1
102
RTVSPost2010Prop40
 90
        0
102
RTVSPost2010PropOp40
 70
     1
102
RTVSPost2010Prop41ColorIndex
 90
       18
102
RTVSPost2010Prop41ColorRGB
 90
        0
102
RTVSPost2010PropOp41
 70
     1
102
RTVSPost2010Prop42
 90
       50
102
RTVSPost2010PropOp42
 70
     1
102
RTVSPost2010Prop43
 90
        3
102
RTVSPost2010PropOp43
 70
     1
102
RTVSPost2010Prop44ColorIndex
 90
        5
102
RTVSPost2010Prop44ColorRGB
 90
      255
102
RTVSPost2010PropOp44
 70
     1
102
RTVSPost2010Prop45
280
     0
102
RTVSPost2010PropOp45
 70
     1
102
RTVSPost2010Prop46
 90
       50
102
RTVSPost2010PropOp46
 70
     1
102
RTVSPost2010Prop47
 90
       50
102
RTVSPost2010PropOp47
 70
     1
102
RTVSPost2010Prop48
 90
       50
102
RTVSPost2010PropOp48
 70
     1
102
RTVSPost2010Prop49
280
     0
102
RTVSPost2010PropOp49
 70
     1
102
RTVSPost2010Prop50
 90
       50
102
RTVSPost2010PropOp50
 70
     1
102
RTVSPost2010Prop51ColorIndex
 90
      256
102
RTVSPost2010Prop51ColorRGB
 90
-16777216
102
RTVSPost2010PropOp51
 70
     0
102
RTVSPost2010Prop52
140
1.0
102
RTVSPost2010PropOp52
 70
     0
102
RTVSPost2010Prop53
 90
        2
102
RTVSPost2010PropOp53
 70
     1
102
RTVSPost2010Prop54
  1
strokes_ogs.tif
102
RTVSPost2010PropOp54
 70
     1
102
RTVSPost2010Prop55
280
     0
102
RTVSPost2010PropOp55
 70
     1
102
RTVSPost2010Prop56
140
1.0
102
RTVSPost2010PropOp56
 70
     1
102
RTVSPost2010Prop57
140
1.0
102
RTVSPost2010PropOp57
 70
     1
  0
XRECORD
  5
2D7
102
{ACAD_REACTORS
330
2D6
102
}
330
2D6
100
AcDbXrecord
280
     1
102
RTVSPropertyOp0
 70
     1
102
RTVSPropertyOp1
 70
     1
102
RTVSPropertyOp2
 70
     1
102
RTVSPropertyOp3
 70
     1
102
RTVSPropertyOp4
 70
     1
102
RTVSPropertyOp5
 70
     1
102
RTVSPropertyOp6
 70
     1
102
RTVSPropertyOp7
 70
     1
102
RTVSPropertyOp8
 70
     1
102
RTVSPropertyOp9
 70
     1
102
RTVSPropertyOp10
 70
     1
102
RTVSPropertyOp11
 70
     1
102
RTVSPropertyOp12
 70
     1
102
RTVSPropertyOp13
 70
     1
102
RTVSPropertyOp14
 70
     1
102
RTVSPropertyOp15
 70
     1
102
RTVSPropertyOp16
 70
     1
102
RTVSPropertyOp17
 70
     1
102
RTVSPropertyOp18
 70
     1
102
RTVSPropertyOp19
 70
     1
102
RTVSPropertyOp20
 70
     1
102
RTVSPropertyOp21
 70
     1
102
RTVSPropertyOp22
 70
     1
102
RTVSPropertyOp23
 70
     1
102
RTVSPropertyOp24
 70
     1
102
RTVSPropertyOp25
 70
     1
102
RTVSPropertyOp26
 70
     1
102
RTVSPropertyOp27
 70
     1
102
RTVSPropertyOp28
 70
     1
102
RTVSPropertyOp29
 70
     1
102
RTVSPropertyOp30
 70
     1
102
RTVSPropertyOp31
 70
     1
102
RTVSPropertyOp32
 70
     1
102
RTVSPropertyOp33
 70
     1
102
RTVSPropertyOp34
 70
     1
102
RTVSPropertyOp35
 70
     1
102
RTVSPropertyOp36
 70
     1
102
RTVSPropertyOp37
 70
     1
102
RTVSPropertyOp38
 70
     1
102
RTVSPropertyOp39
 70
     1
102
RTVSPropertyOp40
 70
     1
102
RTVSPropertyOp41
 70
     1
102
RTVSPropertyOp42
 70
     1
102
RTVSPropertyOp43
 70
     1
102
RTVSPropertyOp44
 70
     1
102
RTVSPropertyOp45
 70
     1
102
RTVSPropertyOp46
 70
     1
102
RTVSPropertyOp47
 70
     1
102
RTVSPropertyOp48
 70
     1
102
RTVSPropertyOp49
 70
     1
102
RTVSPropertyOp50
 70
     1
102
RTVSPropertyOp51
 70
     0
102
RTVSPropertyOp52
 70
     0
102
RTVSPropertyOp53
 70
     1
102
RTVSPropertyOp54
 70
     1
102
RTVSPropertyOp55
 70
     1
102
RTVSPropertyOp56
 70
     1
102
RTVSPropertyOp57
 70
     1
102
RTVSPost2010Prop28
280
     0
102
RTVSPost2010PropOp28
 70
     1
102
RTVSPost2010Prop29
280
     1
102
RTVSPost2010PropOp29
 70
     1
102
RTVSPost2010Prop30
280
     1
102
RTVSPost2010PropOp30
 70
     1
102
RTVSPost2010Prop31
280
     0
102
RTVSPost2010PropOp31
 70
     1
102
RTVSPost2010Prop32
280
     0
102
RTVSPost2010PropOp32
 70
     1
102
RTVSPost2010Prop33
280
     0
102
RTVSPost2010PropOp33
 70
     1
102
RTVSPost2010Prop34
280
     0
102
RTVSPost2010PropOp34
 70
     1
102
RTVSPost2010Prop35
280
     0
102
RTVSPost2010PropOp35
 70
     1
102
RTVSPost2010Prop36
280
     0
102
RTVSPost2010PropOp36
 70
     1
102
RTVSPost2010Prop37
 90
       50
102
RTVSPost2010PropOp37
 70
     1
102
RTVSPost2010Prop38
140
0.0
102
RTVSPost2010PropOp38
 70
     1
102
RTVSPost2010Prop39
140
1.0
102
RTVSPost2010PropOp39
 70
     1
102
RTVSPost2010Prop40
 90
        0
102
RTVSPost2010PropOp40
 70
     1
102
RTVSPost2010Prop41ColorIndex
 90
       18
102
RTVSPost2010Prop41ColorRGB
 90
        0
102
RTVSPost2010PropOp41
 70
     1
102
RTVSPost2010Prop42
 90
       50
102
RTVSPost2010PropOp42
 70
     1
102
RTVSPost2010Prop43
 90
        3
102
RTVSPost2010PropOp43
 70
     1
102
RTVSPost2010Prop44ColorIndex
 90
        5
102
RTVSPost2010Prop44ColorRGB
 90
      255
102
RTVSPost2010PropOp44
 70
     1
102
RTVSPost2010Prop45
280
     0
102
RTVSPost2010PropOp45
 70
     1
102
RTVSPost2010Prop46
 90
       50
102
RTVSPost2010PropOp46
 70
     1
102
RTVSPost2010Prop47
 90
       50
102
RTVSPost2010PropOp47
 70
     1
102
RTVSPost2010Prop48
 90
       50
102
RTVSPost2010PropOp48
 70
     1
102
RTVSPost2010Prop49
280
     0
102
RTVSPost2010PropOp49
 70
     1
102
RTVSPost2010Prop50
 90
       50
102
RTVSPost2010PropOp50
 70
     1
102
RTVSPost2010Prop51ColorIndex
 90
      256
102
RTVSPost2010Prop51ColorRGB
 90
-16777216
102
RTVSPost2010PropOp51
 70
     0
102
RTVSPost2010Prop52
140
1.0
102
RTVSPost2010PropOp52
 70
     0
102
RTVSPost2010Prop53
 90
        2
102
RTVSPost2010PropOp53
 70
     1
102
RTVSPost2010Prop54
  1
strokes_ogs.tif
102
RTVSPost2010PropOp54
 70
     1
102
RTVSPost2010Prop55
280
     0
102
RTVSPost2010PropOp55
 70
     1
102
RTVSPost2010Prop56
140
1.0
102
RTVSPost2010PropOp56
 70
     1
102
RTVSPost2010Prop57
140
1.0
102
RTVSPost2010PropOp57
 70
     1
  0
XRECORD
  5
2C9
102
{ACAD_REACTORS
330
2C8
102
}
330
2C8
100
AcDbXrecord
280
     1
102
RTVSPropertyOp0
 70
     1
102
RTVSPropertyOp1
 70
     1
102
RTVSPropertyOp2
 70
     1
102
RTVSPropertyOp3
 70
     1
102
RTVSPropertyOp4
 70
     1
102
RTVSPropertyOp5
 70
     1
102
RTVSPropertyOp6
 70
     1
102
RTVSPropertyOp7
 70
     1
102
RTVSPropertyOp8
 70
     1
102
RTVSPropertyOp9
 70
     1
102
RTVSPropertyOp10
 70
     1
102
RTVSPropertyOp11
 70
     1
102
RTVSPropertyOp12
 70
     1
102
RTVSPropertyOp13
 70
     1
102
RTVSPropertyOp14
 70
     1
102
RTVSPropertyOp15
 70
     1
102
RTVSPropertyOp16
 70
     1
102
RTVSPropertyOp17
 70
     1
102
RTVSPropertyOp18
 70
     1
102
RTVSPropertyOp19
 70
     1
102
RTVSPropertyOp20
 70
     1
102
RTVSPropertyOp21
 70
     1
102
RTVSPropertyOp22
 70
     1
102
RTVSPropertyOp23
 70
     1
102
RTVSPropertyOp24
 70
     1
102
RTVSPropertyOp25
 70
     1
102
RTVSPropertyOp26
 70
     1
102
RTVSPropertyOp27
 70
     1
102
RTVSPropertyOp28
 70
     1
102
RTVSPropertyOp29
 70
     1
102
RTVSPropertyOp30
 70
     1
102
RTVSPropertyOp31
 70
     1
102
RTVSPropertyOp32
 70
     1
102
RTVSPropertyOp33
 70
     1
102
RTVSPropertyOp34
 70
     1
102
RTVSPropertyOp35
 70
     1
102
RTVSPropertyOp36
 70
     1
102
RTVSPropertyOp37
 70
     1
102
RTVSPropertyOp38
 70
     1
102
RTVSPropertyOp39
 70
     1
102
RTVSPropertyOp40
 70
     1
102
RTVSPropertyOp41
 70
     1
102
RTVSPropertyOp42
 70
     1
102
RTVSPropertyOp43
 70
     1
102
RTVSPropertyOp44
 70
     1
102
RTVSPropertyOp45
 70
     1
102
RTVSPropertyOp46
 70
     1
102
RTVSPropertyOp47
 70
     1
102
RTVSPropertyOp48
 70
     1
102
RTVSPropertyOp49
 70
     1
102
RTVSPropertyOp50
 70
     1
102
RTVSPropertyOp51
 70
     0
102
RTVSPropertyOp52
 70
     0
102
RTVSPropertyOp53
 70
     1
102
RTVSPropertyOp54
 70
     1
102
RTVSPropertyOp55
 70
     1
102
RTVSPropertyOp56
 70
     1
102
RTVSPropertyOp57
 70
     1
102
RTVSPost2010Prop28
280
     0
102
RTVSPost2010PropOp28
 70
     1
102
RTVSPost2010Prop29
280
     1
102
RTVSPost2010PropOp29
 70
     1
102
RTVSPost2010Prop30
280
     1
102
RTVSPost2010PropOp30
 70
     1
102
RTVSPost2010Prop31
280
     0
102
RTVSPost2010PropOp31
 70
     1
102
RTVSPost2010Prop32
280
     0
102
RTVSPost2010PropOp32
 70
     1
102
RTVSPost2010Prop33
280
     0
102
RTVSPost2010PropOp33
 70
     1
102
RTVSPost2010Prop34
280
     0
102
RTVSPost2010PropOp34
 70
     1
102
RTVSPost2010Prop35
280
     0
102
RTVSPost2010PropOp35
 70
     1
102
RTVSPost2010Prop36
280
     0
102
RTVSPost2010PropOp36
 70
     1
102
RTVSPost2010Prop37
 90
       50
102
RTVSPost2010PropOp37
 70
     1
102
RTVSPost2010Prop38
140
0.0
102
RTVSPost2010PropOp38
 70
     1
102
RTVSPost2010Prop39
140
1.0
102
RTVSPost2010PropOp39
 70
     1
102
RTVSPost2010Prop40
 90
        0
102
RTVSPost2010PropOp40
 70
     1
102
RTVSPost2010Prop41ColorIndex
 90
       18
102
RTVSPost2010Prop41ColorRGB
 90
        0
102
RTVSPost2010PropOp41
 70
     1
102
RTVSPost2010Prop42
 90
       50
102
RTVSPost2010PropOp42
 70
     1
102
RTVSPost2010Prop43
 90
        3
102
RTVSPost2010PropOp43
 70
     1
102
RTVSPost2010Prop44ColorIndex
 90
        5
102
RTVSPost2010Prop44ColorRGB
 90
      255
102
RTVSPost2010PropOp44
 70
     1
102
RTVSPost2010Prop45
280
     0
102
RTVSPost2010PropOp45
 70
     1
102
RTVSPost2010Prop46
 90
       50
102
RTVSPost2010PropOp46
 70
     1
102
RTVSPost2010Prop47
 90
       50
102
RTVSPost2010PropOp47
 70
     1
102
RTVSPost2010Prop48
 90
       50
102
RTVSPost2010PropOp48
 70
     1
102
RTVSPost2010Prop49
280
     0
102
RTVSPost2010PropOp49
 70
     1
102
RTVSPost2010Prop50
 90
       50
102
RTVSPost2010PropOp50
 70
     1
102
RTVSPost2010Prop51ColorIndex
 90
      256
102
RTVSPost2010Prop51ColorRGB
 90
-16777216
102
RTVSPost2010PropOp51
 70
     0
102
RTVSPost2010Prop52
140
1.0
102
RTVSPost2010PropOp52
 70
     0
102
RTVSPost2010Prop53
 90
        2
102
RTVSPost2010PropOp53
 70
     1
102
RTVSPost2010Prop54
  1
strokes_ogs.tif
102
RTVSPost2010PropOp54
 70
     1
102
RTVSPost2010Prop55
280
     0
102
RTVSPost2010PropOp55
 70
     1
102
RTVSPost2010Prop56
140
1.0
102
RTVSPost2010PropOp56
 70
     1
102
RTVSPost2010Prop57
140
1.0
102
RTVSPost2010PropOp57
 70
     1
  0
XRECORD
  5
2E9
102
{ACAD_REACTORS
330
2E8
102
}
330
2E8
100
AcDbXrecord
280
     1
102
RTVSPropertyOp0
 70
     1
102
RTVSPropertyOp1
 70
     1
102
RTVSPropertyOp2
 70
     1
102
RTVSPropertyOp3
 70
     1
102
RTVSPropertyOp4
 70
     1
102
RTVSPropertyOp5
 70
     1
102
RTVSPropertyOp6
 70
     1
102
RTVSPropertyOp7
 70
     1
102
RTVSPropertyOp8
 70
     1
102
RTVSPropertyOp9
 70
     1
102
RTVSPropertyOp10
 70
     1
102
RTVSPropertyOp11
 70
     1
102
RTVSPropertyOp12
 70
     1
102
RTVSPropertyOp13
 70
     1
102
RTVSPropertyOp14
 70
     1
102
RTVSPropertyOp15
 70
     1
102
RTVSPropertyOp16
 70
     1
102
RTVSPropertyOp17
 70
     1
102
RTVSPropertyOp18
 70
     1
102
RTVSPropertyOp19
 70
     1
102
RTVSPropertyOp20
 70
     1
102
RTVSPropertyOp21
 70
     1
102
RTVSPropertyOp22
 70
     1
102
RTVSPropertyOp23
 70
     1
102
RTVSPropertyOp24
 70
     1
102
RTVSPropertyOp25
 70
     1
102
RTVSPropertyOp26
 70
     1
102
RTVSPropertyOp27
 70
     1
102
RTVSPropertyOp28
 70
     1
102
RTVSPropertyOp29
 70
     1
102
RTVSPropertyOp30
 70
     1
102
RTVSPropertyOp31
 70
     1
102
RTVSPropertyOp32
 70
     1
102
RTVSPropertyOp33
 70
     1
102
RTVSPropertyOp34
 70
     1
102
RTVSPropertyOp35
 70
     1
102
RTVSPropertyOp36
 70
     1
102
RTVSPropertyOp37
 70
     1
102
RTVSPropertyOp38
 70
     1
102
RTVSPropertyOp39
 70
     1
102
RTVSPropertyOp40
 70
     1
102
RTVSPropertyOp41
 70
     1
102
RTVSPropertyOp42
 70
     1
102
RTVSPropertyOp43
 70
     1
102
RTVSPropertyOp44
 70
     1
102
RTVSPropertyOp45
 70
     1
102
RTVSPropertyOp46
 70
     1
102
RTVSPropertyOp47
 70
     1
102
RTVSPropertyOp48
 70
     1
102
RTVSPropertyOp49
 70
     1
102
RTVSPropertyOp50
 70
     1
102
RTVSPropertyOp51
 70
     0
102
RTVSPropertyOp52
 70
     0
102
RTVSPropertyOp53
 70
     1
102
RTVSPropertyOp54
 70
     1
102
RTVSPropertyOp55
 70
     1
102
RTVSPropertyOp56
 70
     1
102
RTVSPropertyOp57
 70
     1
102
RTVSPost2010Prop28
280
     0
102
RTVSPost2010PropOp28
 70
     1
102
RTVSPost2010Prop29
280
     1
102
RTVSPost2010PropOp29
 70
     1
102
RTVSPost2010Prop30
280
     1
102
RTVSPost2010PropOp30
 70
     1
102
RTVSPost2010Prop31
280
     0
102
RTVSPost2010PropOp31
 70
     1
102
RTVSPost2010Prop32
280
     0
102
RTVSPost2010PropOp32
 70
     1
102
RTVSPost2010Prop33
280
     0
102
RTVSPost2010PropOp33
 70
     1
102
RTVSPost2010Prop34
280
     0
102
RTVSPost2010PropOp34
 70
     1
102
RTVSPost2010Prop35
280
     0
102
RTVSPost2010PropOp35
 70
     1
102
RTVSPost2010Prop36
280
     0
102
RTVSPost2010PropOp36
 70
     1
102
RTVSPost2010Prop37
 90
       50
102
RTVSPost2010PropOp37
 70
     1
102
RTVSPost2010Prop38
140
0.0
102
RTVSPost2010PropOp38
 70
     1
102
RTVSPost2010Prop39
140
1.0
102
RTVSPost2010PropOp39
 70
     1
102
RTVSPost2010Prop40
 90
        0
102
RTVSPost2010PropOp40
 70
     1
102
RTVSPost2010Prop41ColorIndex
 90
       18
102
RTVSPost2010Prop41ColorRGB
 90
        0
102
RTVSPost2010PropOp41
 70
     1
102
RTVSPost2010Prop42
 90
       50
102
RTVSPost2010PropOp42
 70
     1
102
RTVSPost2010Prop43
 90
        3
102
RTVSPost2010PropOp43
 70
     1
102
RTVSPost2010Prop44ColorIndex
 90
        5
102
RTVSPost2010Prop44ColorRGB
 90
      255
102
RTVSPost2010PropOp44
 70
     1
102
RTVSPost2010Prop45
280
     0
102
RTVSPost2010PropOp45
 70
     1
102
RTVSPost2010Prop46
 90
       50
102
RTVSPost2010PropOp46
 70
     1
102
RTVSPost2010Prop47
 90
       50
102
RTVSPost2010PropOp47
 70
     1
102
RTVSPost2010Prop48
 90
       50
102
RTVSPost2010PropOp48
 70
     1
102
RTVSPost2010Prop49
280
     0
102
RTVSPost2010PropOp49
 70
     1
102
RTVSPost2010Prop50
 90
       50
102
RTVSPost2010PropOp50
 70
     1
102
RTVSPost2010Prop51ColorIndex
 90
      256
102
RTVSPost2010Prop51ColorRGB
 90
-16777216
102
RTVSPost2010PropOp51
 70
     0
102
RTVSPost2010Prop52
140
1.0
102
RTVSPost2010PropOp52
 70
     0
102
RTVSPost2010Prop53
 90
        2
102
RTVSPost2010PropOp53
 70
     1
102
RTVSPost2010Prop54
  1
strokes_ogs.tif
102
RTVSPost2010PropOp54
 70
     1
102
RTVSPost2010Prop55
280
     0
102
RTVSPost2010PropOp55
 70
     1
102
RTVSPost2010Prop56
140
1.0
102
RTVSPost2010PropOp56
 70
     1
102
RTVSPost2010Prop57
140
1.0
102
RTVSPost2010PropOp57
 70
     1
  0
ENDSEC
  0
EOF
