  0
SECTION
  2
HEADER
  9
$ACADVER
  1
AC1015
  9
$ACADMAINTVER
 70
     6
  9
$DWGCODEPAGE
  3
ANSI_1252
  9
$INSBASE
 10
0.0
 20
0.0
 30
0.0
  9
$EXTMIN
 10
1.000000E+20
 20
1.000000E+20
 30
1.000000E+20
  9
$EXTMAX
 10
-1.000000E+20
 20
-1.000000E+20
 30
-1.000000E+20
  9
$LIMMIN
 10
0.0
 20
0.0
  9
$LIMMAX
 10
279.4
 20
215.9
  9
$ORTHOMODE
 70
     0
  9
$REGENMODE
 70
     1
  9
$FILLMODE
 70
     1
  9
$QTEXTMODE
 70
     0
  9
$MIRRTEXT
 70
     0
  9
$LTSCALE
 40
1.0
  9
$ATTMODE
 70
     1
  9
$TEXTSIZE
 40
2.5
  9
$TRACEWID
 40
1.0
  9
$TEXTSTYLE
  7
Standard
  9
$CLAYER
  8
0
  9
$CELTYPE
  6
ByLayer
  9
$CECOLOR
 62
   256
  9
$CELTSCALE
 40
1.0
  9
$DISPSILH
 70
     0
  9
$DIMSCALE
 40
1.0
  9
$DIMASZ
 40
2.5
  9
$DIMEXO
 40
0.625
  9
$DIMDLI
 40
3.75
  9
$DIMRND
 40
0.0
  9
$DIMDLE
 40
0.0
  9
$DIMEXE
 40
1.25
  9
$DIMTP
 40
0.0
  9
$DIMTM
 40
0.0
  9
$DIMTXT
 40
2.5
  9
$DIMCEN
 40
2.5
  9
$DIMTSZ
 40
0.0
  9
$DIMTOL
 70
     0
  9
$DIMLIM
 70
     0
  9
$DIMTIH
 70
     0
  9
$DIMTOH
 70
     0
  9
$DIMSE1
 70
     0
  9
$DIMSE2
 70
     0
  9
$DIMTAD
 70
     1
  9
$DIMZIN
 70
     8
  9
$DIMBLK
  1

  9
$DIMASO
 70
     1
  9
$DIMSHO
 70
     1
  9
$DIMPOST
  1

  9
$DIMAPOST
  1

  9
$DIMALT
 70
     0
  9
$DIMALTD
 70
     3
  9
$DIMALTF
 40
0.03937
  9
$DIMLFAC
 40
1.0
  9
$DIMTOFL
 70
     1
  9
$DIMTVP
 40
0.0
  9
$DIMTIX
 70
     0
  9
$DIMSOXD
 70
     0
  9
$DIMSAH
 70
     0
  9
$DIMBLK1
  1

  9
$DIMBLK2
  1

  9
$DIMSTYLE
  2
ISO-25
  9
$DIMCLRD
 70
     0
  9
$DIMCLRE
 70
     0
  9
$DIMCLRT
 70
     0
  9
$DIMTFAC
 40
1.0
  9
$DIMGAP
 40
0.625
  9
$DIMJUST
 70
     0
  9
$DIMSD1
 70
     0
  9
$DIMSD2
 70
     0
  9
$DIMTOLJ
 70
     0
  9
$DIMTZIN
 70
     8
  9
$DIMALTZ
 70
     0
  9
$DIMALTTZ
 70
     0
  9
$DIMUPT
 70
     0
  9
$DIMDEC
 70
     2
  9
$DIMTDEC
 70
     2
  9
$DIMALTU
 70
     2
  9
$DIMALTTD
 70
     3
  9
$DIMTXSTY
  7
Standard
  9
$DIMAUNIT
 70
     0
  9
$DIMADEC
 70
     0
  9
$DIMALTRND
 40
0.0
  9
$DIMAZIN
 70
     0
  9
$DIMDSEP
 70
    44
  9
$DIMATFIT
 70
     3
  9
$DIMFRAC
 70
     0
  9
$DIMLDRBLK
  1

  9
$DIMLUNIT
 70
     2
  9
$DIMLWD
 70
    -2
  9
$DIMLWE
 70
    -2
  9
$DIMTMOVE
 70
     0
  9
$LUNITS
 70
     2
  9
$LUPREC
 70
     4
  9
$SKETCHINC
 40
1.0
  9
$FILLETRAD
 40
0.0
  9
$AUNITS
 70
     0
  9
$AUPREC
 70
     0
  9
$MENU
  1
.
  9
$ELEVATION
 40
0.0
  9
$PELEVATION
 40
0.0
  9
$THICKNESS
 40
0.0
  9
$LIMCHECK
 70
     0
  9
$CHAMFERA
 40
0.0
  9
$CHAMFERB
 40
0.0
  9
$CHAMFERC
 40
0.0
  9
$CHAMFERD
 40
0.0
  9
$SKPOLY
 70
     0
  9
$TDCREATE
 40
2453189.686266377
  9
$TDUCREATE
 40
2453189.894599711
  9
$TDUPDATE
 40
2458905.529823889
  9
$TDUUPDATE
 40
2458905.738157222
  9
$TDINDWG
 40
0.0012909606
  9
$TDUSRTIMER
 40
0.0012834259
  9
$USRTIMER
 70
     1
  9
$ANGBASE
 50
0.0
  9
$ANGDIR
 70
     0
  9
$PDMODE
 70
     0
  9
$PDSIZE
 40
0.0
  9
$PLINEWID
 40
0.0
  9
$SPLFRAME
 70
     0
  9
$SPLINETYPE
 70
     6
  9
$SPLINESEGS
 70
     8
  9
$HANDSEED
  5
50B
  9
$SURFTAB1
 70
     6
  9
$SURFTAB2
 70
     6
  9
$SURFTYPE
 70
     6
  9
$SURFU
 70
     6
  9
$SURFV
 70
     6
  9
$UCSBASE
  2

  9
$UCSNAME
  2

  9
$UCSORG
 10
0.0
 20
0.0
 30
0.0
  9
$UCSXDIR
 10
1.0
 20
0.0
 30
0.0
  9
$UCSYDIR
 10
0.0
 20
1.0
 30
0.0
  9
$UCSORTHOREF
  2

  9
$UCSORTHOVIEW
 70
     0
  9
$UCSORGTOP
 10
0.0
 20
0.0
 30
0.0
  9
$UCSORGBOTTOM
 10
0.0
 20
0.0
 30
0.0
  9
$UCSORGLEFT
 10
0.0
 20
0.0
 30
0.0
  9
$UCSORGRIGHT
 10
0.0
 20
0.0
 30
0.0
  9
$UCSORGFRONT
 10
0.0
 20
0.0
 30
0.0
  9
$UCSORGBACK
 10
0.0
 20
0.0
 30
0.0
  9
$PUCSBASE
  2

  9
$PUCSNAME
  2

  9
$PUCSORG
 10
0.0
 20
0.0
 30
0.0
  9
$PUCSXDIR
 10
1.0
 20
0.0
 30
0.0
  9
$PUCSYDIR
 10
0.0
 20
1.0
 30
0.0
  9
$PUCSORTHOREF
  2

  9
$PUCSORTHOVIEW
 70
     0
  9
$PUCSORGTOP
 10
0.0
 20
0.0
 30
0.0
  9
$PUCSORGBOTTOM
 10
0.0
 20
0.0
 30
0.0
  9
$PUCSORGLEFT
 10
0.0
 20
0.0
 30
0.0
  9
$PUCSORGRIGHT
 10
0.0
 20
0.0
 30
0.0
  9
$PUCSORGFRONT
 10
0.0
 20
0.0
 30
0.0
  9
$PUCSORGBACK
 10
0.0
 20
0.0
 30
0.0
  9
$USERI1
 70
     0
  9
$USERI2
 70
     0
  9
$USERI3
 70
     0
  9
$USERI4
 70
     0
  9
$USERI5
 70
     0
  9
$USERR1
 40
0.0
  9
$USERR2
 40
0.0
  9
$USERR3
 40
0.0
  9
$USERR4
 40
0.0
  9
$USERR5
 40
0.0
  9
$WORLDVIEW
 70
     1
  9
$SHADEDGE
 70
     3
  9
$SHADEDIF
 70
    70
  9
$TILEMODE
 70
     1
  9
$MAXACTVP
 70
    64
  9
$PINSBASE
 10
0.0
 20
0.0
 30
0.0
  9
$PLIMCHECK
 70
     0
  9
$PEXTMIN
 10
0.0
 20
0.0
 30
0.0
  9
$PEXTMAX
 10
0.0
 20
0.0
 30
0.0
  9
$PLIMMIN
 10
0.0
 20
0.0
  9
$PLIMMAX
 10
12.0
 20
9.0
  9
$UNITMODE
 70
     0
  9
$VISRETAIN
 70
     1
  9
$PLINEGEN
 70
     0
  9
$PSLTSCALE
 70
     1
  9
$TREEDEPTH
 70
  3020
  9
$CMLSTYLE
  2
Standard
  9
$CMLJUST
 70
     0
  9
$CMLSCALE
 40
20.0
  9
$PROXYGRAPHICS
 70
     1
  9
$MEASUREMENT
 70
     1
  9
$CELWEIGHT
370
    -1
  9
$ENDCAPS
280
     0
  9
$JOINSTYLE
280
     0
  9
$LWDISPLAY
290
     0
  9
$INSUNITS
 70
     4
  9
$HYPERLINKBASE
  1

  9
$STYLESHEET
  1

  9
$XEDIT
290
     1
  9
$CEPSNTYPE
380
     0
  9
$PSTYLEMODE
290
     1
  9
$FINGERPRINTGUID
  2
{FDEAD578-A652-11D2-9A35-0060089B3A3F}
  9
$VERSIONGUID
  2
{A006E3F6-DACB-489E-8CBB-9F3E3708800C}
  9
$EXTNAMES
290
     1
  9
$PSVPSCALE
 40
0.0
  9
$OLESTARTUP
290
     0
  0
ENDSEC
  0
SECTION
  2
CLASSES
  0
CLASS
  1
ACDBDICTIONARYWDFLT
  2
AcDbDictionaryWithDefault
  3
ObjectDBX Classes
 90
        0
280
     0
281
     0
  0
CLASS
  1
ACDBPLACEHOLDER
  2
AcDbPlaceHolder
  3
ObjectDBX Classes
 90
        0
280
     0
281
     0
  0
CLASS
  1
LAYOUT
  2
AcDbLayout
  3
ObjectDBX Classes
 90
        0
280
     0
281
     0
  0
CLASS
  1
DICTIONARYVAR
  2
AcDbDictionaryVar
  3
ObjectDBX Classes
 90
        0
280
     0
281
     0
  0
CLASS
  1
RASTERVARIABLES
  2
AcDbRasterVariables
  3
ISM
 90
        0
280
     0
281
     0
  0
CLASS
  1
SCALE
  2
AcDbScale
  3
ObjectDBX Classes
 90
     1153
280
     0
281
     0
  0
CLASS
  1
MATERIAL
  2
AcDbMaterial
  3
ObjectDBX Classes
 90
     1153
280
     0
281
     0
  0
CLASS
  1
VISUALSTYLE
  2
AcDbVisualStyle
  3
ObjectDBX Classes
 90
     4095
280
     0
281
     0
  0
CLASS
  1
TABLESTYLE
  2
AcDbTableStyle
  3
ObjectDBX Classes
 90
     4095
280
     0
281
     0
  0
CLASS
  1
MLEADERSTYLE
  2
AcDbMLeaderStyle
  3
ACDB_MLEADERSTYLE_CLASS
 90
     4095
280
     0
281
     0
  0
CLASS
  1
SUN
  2
AcDbSun
  3
SCENEOE
 90
     1153
280
     0
281
     0
  0
ENDSEC
  0
SECTION
  2
TABLES
  0
TABLE
  2
VPORT
  5
8
102
{ACAD_XDICTIONARY
360
4CF
102
}
330
0
100
AcDbSymbolTable
 70
     1
  0
VPORT
  5
8E
330
8
100
AcDbSymbolTableRecord
100
AcDbViewportTableRecord
  2
*Active
 70
     0
 10
0.0
 20
0.0
 11
1.0
 21
1.0
 12
139.7
 22
107.95
 13
0.0
 23
0.0
 14
10.0
 24
10.0
 15
10.0
 25
10.0
 16
0.0
 26
0.0
 36
1.0
 17
0.0
 27
0.0
 37
0.0
 40
215.9
 41
1.294118
 42
50.0
 43
0.0
 44
0.0
 50
0.0
 51
0.0
 71
     0
 72
  1000
 73
     1
 74
     3
 75
     0
 76
     0
 77
     0
 78
     0
281
     0
 65
     1
110
0.0
120
0.0
130
0.0
111
1.0
121
0.0
131
0.0
112
0.0
122
1.0
132
0.0
 79
     0
146
0.0
  0
ENDTAB
  0
TABLE
  2
LTYPE
  5
5
330
0
100
AcDbSymbolTable
 70
     5
  0
LTYPE
  5
14
330
5
100
AcDbSymbolTableRecord
100
AcDbLinetypeTableRecord
  2
ByBlock
 70
     0
  3

 72
    65
 73
     0
 40
0.0
  0
LTYPE
  5
15
330
5
100
AcDbSymbolTableRecord
100
AcDbLinetypeTableRecord
  2
ByLayer
 70
     0
  3

 72
    65
 73
     0
 40
0.0
  0
LTYPE
  5
16
330
5
100
AcDbSymbolTableRecord
100
AcDbLinetypeTableRecord
  2
Continuous
 70
     0
  3
Solid line
 72
    65
 73
     0
 40
0.0
  0
LTYPE
  5
DB
330
5
100
AcDbSymbolTableRecord
100
AcDbLinetypeTableRecord
  2
CENTRE
 70
     0
  3
Centre ____ _ ____ _ ____ _ ____ _ ____ _ ____
 72
    65
 73
     4
 40
2.0
 49
1.25
 74
     0
 49
-0.25
 74
     0
 49
0.25
 74
     0
 49
-0.25
 74
     0
  0
LTYPE
  5
DC
330
5
100
AcDbSymbolTableRecord
100
AcDbLinetypeTableRecord
  2
DASHED
 70
     0
  3
Dashed __ __ __ __ __ __ __ __ __ __ __ __ __ _
 72
    65
 73
     2
 40
0.75
 49
0.5
 74
     0
 49
-0.25
 74
     0
  0
LTYPE
  5
DD
330
5
100
AcDbSymbolTableRecord
100
AcDbLinetypeTableRecord
  2
HIDDEN
 70
     0
  3
Hidden __ __ __ __ __ __ __ __ __ __ __ __ __ _
 72
    65
 73
     2
 40
0.375
 49
0.25
 74
     0
 49
-0.125
 74
     0
  0
LTYPE
  5
DE
330
5
100
AcDbSymbolTableRecord
100
AcDbLinetypeTableRecord
  2
PHANTOM
 70
     0
  3
Phantom ______  __  __  ______  __  __  ______ 
 72
    65
 73
     6
 40
2.5
 49
1.25
 74
     0
 49
-0.25
 74
     0
 49
0.25
 74
     0
 49
-0.25
 74
     0
 49
0.25
 74
     0
 49
-0.25
 74
     0
  0
ENDTAB
  0
TABLE
  2
LAYER
  5
2
330
0
100
AcDbSymbolTable
 70
     2
  0
LAYER
  5
10
330
2
100
AcDbSymbolTableRecord
100
AcDbLayerTableRecord
  2
0
 70
     0
 62
     7
  6
Continuous
370
    -3
390
F
  0
LAYER
  5
DF
330
2
100
AcDbSymbolTableRecord
100
AcDbLayerTableRecord
  2
Untitled
 70
     0
 62
     7
  6
Continuous
370
    -3
390
F
  0
ENDTAB
  0
TABLE
  2
STYLE
  5
3
330
0
100
AcDbSymbolTable
 70
     2
  0
STYLE
  5
11
330
3
100
AcDbSymbolTableRecord
100
AcDbTextStyleTableRecord
  2
Standard
 70
     0
 40
0.0
 41
1.0
 50
0.0
 71
     0
 42
2.5
  3
txt
  4

  0
STYLE
  5
E5
330
3
100
AcDbSymbolTableRecord
100
AcDbTextStyleTableRecord
  2
ARIAL_400_0
 70
     0
 40
1.0
 41
1.0
 50
0.0
 71
     0
 42
2.5
  3

  4

1001
ACAD
1000
Arial
1071
        0
  0
ENDTAB
  0
TABLE
  2
VIEW
  5
6
330
0
100
AcDbSymbolTable
 70
     0
  0
ENDTAB
  0
TABLE
  2
UCS
  5
7
330
0
100
AcDbSymbolTable
 70
     0
  0
ENDTAB
  0
TABLE
  2
APPID
  5
9
330
0
100
AcDbSymbolTable
 70
     2
  0
APPID
  5
12
330
9
100
AcDbSymbolTableRecord
100
AcDbRegAppTableRecord
  2
ACAD
 70
     0
  0
APPID
  5
508
330
9
100
AcDbSymbolTableRecord
100
AcDbRegAppTableRecord
  2
ACAD_MLEADERVER
 70
     0
  0
ENDTAB
  0
TABLE
  2
DIMSTYLE
  5
A
330
0
100
AcDbSymbolTable
 70
     1
100
AcDbDimStyleTable
  0
DIMSTYLE
105
27
330
A
100
AcDbSymbolTableRecord
100
AcDbDimStyleTableRecord
  2
ISO-25
 70
     0
 41
2.5
 42
0.625
 43
3.75
 44
1.25
 73
     0
 74
     0
 77
     1
 78
     8
140
2.5
141
2.5
143
0.03937
147
0.625
171
     3
172
     1
178
     0
271
     2
272
     2
274
     3
278
    44
283
     0
284
     8
340
11
  0
ENDTAB
  0
TABLE
  2
BLOCK_RECORD
  5
1
330
0
100
AcDbSymbolTable
 70
    12
  0
BLOCK_RECORD
  5
1F
330
1
100
AcDbSymbolTableRecord
100
AcDbBlockTableRecord
  2
*Model_Space
340
22
  0
BLOCK_RECORD
  5
50
330
1
100
AcDbSymbolTableRecord
100
AcDbBlockTableRecord
  2
*Paper_Space
340
51
  0
BLOCK_RECORD
  5
55
330
1
100
AcDbSymbolTableRecord
100
AcDbBlockTableRecord
  2
*Paper_Space0
340
56
  0
BLOCK_RECORD
  5
E0
330
1
100
AcDbSymbolTableRecord
100
AcDbBlockTableRecord
  2
Block1
340
0
102
{BLKREFS
331
E1
102
}
  0
BLOCK_RECORD
  5
E7
330
1
100
AcDbSymbolTableRecord
100
AcDbBlockTableRecord
  2
Block2
340
0
102
{BLKREFS
331
E8
102
}
  0
BLOCK_RECORD
  5
402
330
1
100
AcDbSymbolTableRecord
100
AcDbBlockTableRecord
  2
Block791
340
0
102
{BLKREFS
331
403
102
}
  0
BLOCK_RECORD
  5
46D
330
1
100
AcDbSymbolTableRecord
100
AcDbBlockTableRecord
  2
Block892
340
0
102
{BLKREFS
331
46E
102
}
  0
BLOCK_RECORD
  5
475
330
1
100
AcDbSymbolTableRecord
100
AcDbBlockTableRecord
  2
Block893
340
0
102
{BLKREFS
331
476
102
}
  0
BLOCK_RECORD
  5
47D
330
1
100
AcDbSymbolTableRecord
100
AcDbBlockTableRecord
  2
Block894
340
0
102
{BLKREFS
331
47E
102
}
  0
BLOCK_RECORD
  5
485
330
1
100
AcDbSymbolTableRecord
100
AcDbBlockTableRecord
  2
Block895
340
0
102
{BLKREFS
331
486
102
}
  0
BLOCK_RECORD
  5
48E
330
1
100
AcDbSymbolTableRecord
100
AcDbBlockTableRecord
  2
Block898
340
0
102
{BLKREFS
331
48F
102
}
  0
BLOCK_RECORD
  5
49C
330
1
100
AcDbSymbolTableRecord
100
AcDbBlockTableRecord
  2
Block909
340
0
102
{BLKREFS
331
49D
102
}
  0
BLOCK_RECORD
  5
4A4
330
1
100
AcDbSymbolTableRecord
100
AcDbBlockTableRecord
  2
Block914
340
0
102
{BLKREFS
331
4A5
102
}
  0
BLOCK_RECORD
  5
4A9
330
1
100
AcDbSymbolTableRecord
100
AcDbBlockTableRecord
  2
Block916
340
0
102
{BLKREFS
331
4AA
102
}
  0
ENDTAB
  0
ENDSEC
  0
SECTION
  2
BLOCKS
  0
BLOCK
  5
20
330
1F
100
AcDbEntity
  8
0
100
AcDbBlockBegin
  2
*Model_Space
 70
     0
 10
0.0
 20
0.0
 30
0.0
  3
*Model_Space
  1

  0
ENDBLK
  5
21
330
1F
100
AcDbEntity
  8
0
100
AcDbBlockEnd
  0
BLOCK
  5
52
330
50
100
AcDbEntity
 67
     1
  8
0
100
AcDbBlockBegin
  2
*Paper_Space
 70
     0
 10
0.0
 20
0.0
 30
0.0
  3
*Paper_Space
  1

  0
ENDBLK
  5
53
330
50
100
AcDbEntity
 67
     1
  8
0
100
AcDbBlockEnd
  0
BLOCK
  5
57
330
55
100
AcDbEntity
  8
0
100
AcDbBlockBegin
  2
*Paper_Space0
 70
     0
 10
0.0
 20
0.0
 30
0.0
  3
*Paper_Space0
  1

  0
ENDBLK
  5
58
330
55
100
AcDbEntity
  8
0
100
AcDbBlockEnd
  0
BLOCK
  5
4B1
330
E0
100
AcDbEntity
  8
0
100
AcDbBlockBegin
  2
Block1
 70
     0
 10
0.0
 20
0.0
 30
0.0
  3
Block1
  1

  0
LINE
  5
E2
330
E0
100
AcDbEntity
  8
Untitled
 62
     7
370
     5
100
AcDbLine
 10
0.0
 20
0.0
 30
0.0
 11
-40.5
 21
0.0
 31
0.0
  0
LINE
  5
E3
330
E0
100
AcDbEntity
  8
Untitled
 62
     7
370
     5
100
AcDbLine
 10
-0.5
 20
-0.5
 30
0.0
 11
0.5
 21
0.5
 31
0.0
  0
LINE
  5
E4
330
E0
100
AcDbEntity
  8
Untitled
 62
     7
370
     5
100
AcDbLine
 10
-41.0
 20
-0.5
 30
0.0
 11
-40.0
 21
0.5
 31
0.0
  0
TEXT
  5
E6
330
E0
100
AcDbEntity
  8
Untitled
 62
     7
100
AcDbText
 10
-22.438
 20
0.597656
 30
0.0
 40
1.0
  1
40 1/2"
  7
ARIAL_400_0
 72
     1
 11
-20.25
 21
0.597656
 31
0.0
100
AcDbText
  0
ENDBLK
  5
4B2
330
E0
100
AcDbEntity
  8
0
100
AcDbBlockEnd
  0
BLOCK
  5
4B3
330
E7
100
AcDbEntity
  8
0
100
AcDbBlockBegin
  2
Block2
 70
     0
 10
0.0
 20
0.0
 30
0.0
  3
Block2
  1

  0
LINE
  5
E9
330
E7
100
AcDbEntity
  8
Untitled
 62
     7
370
     5
100
AcDbLine
 10
0.0
 20
0.0
 30
0.0
 11
0.0
 21
-33.5
 31
0.0
  0
LINE
  5
EA
330
E7
100
AcDbEntity
  8
Untitled
 62
     7
370
     5
100
AcDbLine
 10
1.7325
 20
0.0
 30
0.0
 11
-1.0
 21
0.0
 31
0.0
  0
LINE
  5
EB
330
E7
100
AcDbEntity
  8
Untitled
 62
     7
370
     5
100
AcDbLine
 10
1.8505
 20
-33.5
 30
0.0
 11
-1.0
 21
-33.5
 31
0.0
  0
LINE
  5
EC
330
E7
100
AcDbEntity
  8
Untitled
 62
     7
370
     5
100
AcDbLine
 10
0.5
 20
-0.5
 30
0.0
 11
-0.5
 21
0.5
 31
0.0
  0
LINE
  5
ED
330
E7
100
AcDbEntity
  8
Untitled
 62
     7
370
     5
100
AcDbLine
 10
0.5
 20
-34.0
 30
0.0
 11
-0.5
 21
-33.0
 31
0.0
  0
TEXT
  5
EE
330
E7
100
AcDbEntity
  8
Untitled
 62
     7
100
AcDbText
 10
-0.597656
 20
-18.938
 30
0.0
 40
1.0
  1
33 1/2"
 50
90.0
  7
ARIAL_400_0
 72
     1
 11
-0.597656
 21
-16.75
 31
0.0
100
AcDbText
  0
ENDBLK
  5
4B4
330
E7
100
AcDbEntity
  8
0
100
AcDbBlockEnd
  0
BLOCK
  5
4B5
330
402
100
AcDbEntity
  8
0
100
AcDbBlockBegin
  2
Block791
 70
     0
 10
0.0
 20
0.0
 30
0.0
  3
Block791
  1

  0
LINE
  5
404
330
402
100
AcDbEntity
  8
Untitled
 62
     7
370
     5
100
AcDbLine
 10
0.0
 20
0.0
 30
0.0
 11
-24.125
 21
0.0
 31
0.0
  0
LINE
  5
405
330
402
100
AcDbEntity
  8
Untitled
 62
     7
370
     5
100
AcDbLine
 10
0.0
 20
-3.0
 30
0.0
 11
0.0
 21
1.0
 31
0.0
  0
LINE
  5
406
330
402
100
AcDbEntity
  8
Untitled
 62
     7
370
     5
100
AcDbLine
 10
-24.125
 20
-3.0
 30
0.0
 11
-24.125
 21
1.0
 31
0.0
  0
LINE
  5
407
330
402
100
AcDbEntity
  8
Untitled
 62
     7
370
     5
100
AcDbLine
 10
-0.5
 20
-0.5
 30
0.0
 11
0.5
 21
0.5
 31
0.0
  0
LINE
  5
408
330
402
100
AcDbEntity
  8
Untitled
 62
     7
370
     5
100
AcDbLine
 10
-24.625
 20
-0.5
 30
0.0
 11
-23.625
 21
0.5
 31
0.0
  0
TEXT
  5
409
330
402
100
AcDbEntity
  8
Untitled
 62
     7
100
AcDbText
 10
-15.879
 20
0.597656
 30
0.0
 40
1.0
  1
24 1/8" CTC
  7
ARIAL_400_0
 72
     1
 11
-12.0625
 21
0.597656
 31
0.0
100
AcDbText
  0
ENDBLK
  5
4B6
330
402
100
AcDbEntity
  8
0
100
AcDbBlockEnd
  0
BLOCK
  5
4B7
330
46D
100
AcDbEntity
  8
0
100
AcDbBlockBegin
  2
Block892
 70
     0
 10
0.0
 20
0.0
 30
0.0
  3
Block892
  1

  0
LINE
  5
46F
330
46D
100
AcDbEntity
  8
Untitled
 62
     7
370
     5
100
AcDbLine
 10
0.0
 20
0.0
 30
0.0
 11
0.0
 21
14.5
 31
0.0
  0
LINE
  5
470
330
46D
100
AcDbEntity
  8
Untitled
 62
     7
370
     5
100
AcDbLine
 10
2.0
 20
0.0
 30
0.0
 11
-1.0
 21
0.0
 31
0.0
  0
LINE
  5
471
330
46D
100
AcDbEntity
  8
Untitled
 62
     7
370
     5
100
AcDbLine
 10
2.0
 20
14.5
 30
0.0
 11
-1.0
 21
14.5
 31
0.0
  0
LINE
  5
472
330
46D
100
AcDbEntity
  8
Untitled
 62
     7
370
     5
100
AcDbLine
 10
-0.5
 20
0.5
 30
0.0
 11
0.5
 21
-0.5
 31
0.0
  0
LINE
  5
473
330
46D
100
AcDbEntity
  8
Untitled
 62
     7
370
     5
100
AcDbLine
 10
-0.5
 20
15.0
 30
0.0
 11
0.5
 21
14.0
 31
0.0
  0
TEXT
  5
474
330
46D
100
AcDbEntity
  8
Untitled
 62
     7
100
AcDbText
 10
-0.597656
 20
5.062
 30
0.0
 40
1.0
  1
14 1/2"
 50
90.0
  7
ARIAL_400_0
 72
     1
 11
-0.597656
 21
7.25
 31
0.0
100
AcDbText
  0
ENDBLK
  5
4B8
330
46D
100
AcDbEntity
  8
0
100
AcDbBlockEnd
  0
BLOCK
  5
4B9
330
475
100
AcDbEntity
  8
0
100
AcDbBlockBegin
  2
Block893
 70
     0
 10
0.0
 20
0.0
 30
0.0
  3
Block893
  1

  0
LINE
  5
477
330
475
100
AcDbEntity
  8
Untitled
 62
     7
370
     5
100
AcDbLine
 10
0.0
 20
0.0
 30
0.0
 11
42.0
 21
0.0
 31
0.0
  0
LINE
  5
478
330
475
100
AcDbEntity
  8
Untitled
 62
     7
370
     5
100
AcDbLine
 10
0.0
 20
-2.0
 30
0.0
 11
0.0
 21
1.0
 31
0.0
  0
LINE
  5
479
330
475
100
AcDbEntity
  8
Untitled
 62
     7
370
     5
100
AcDbLine
 10
42.0
 20
-2.0
 30
0.0
 11
42.0
 21
1.0
 31
0.0
  0
LINE
  5
47A
330
475
100
AcDbEntity
  8
Untitled
 62
     7
370
     5
100
AcDbLine
 10
0.5
 20
0.5
 30
0.0
 11
-0.5
 21
-0.5
 31
0.0
  0
LINE
  5
47B
330
475
100
AcDbEntity
  8
Untitled
 62
     7
370
     5
100
AcDbLine
 10
42.5
 20
0.5
 30
0.0
 11
41.5
 21
-0.5
 31
0.0
  0
TEXT
  5
47C
330
475
100
AcDbEntity
  8
Untitled
 62
     7
100
AcDbText
 10
19.976
 20
0.597656
 30
0.0
 40
1.0
  1
42"
  7
ARIAL_400_0
 72
     1
 11
21.0
 21
0.597656
 31
0.0
100
AcDbText
  0
ENDBLK
  5
4BA
330
475
100
AcDbEntity
  8
0
100
AcDbBlockEnd
  0
BLOCK
  5
4BB
330
47D
100
AcDbEntity
  8
0
100
AcDbBlockBegin
  2
Block894
 70
     0
 10
0.0
 20
0.0
 30
0.0
  3
Block894
  1

  0
LINE
  5
47F
330
47D
100
AcDbEntity
  8
Untitled
 62
     7
370
     5
100
AcDbLine
 10
0.0
 20
0.0
 30
0.0
 11
0.0
 21
-22.5
 31
0.0
  0
LINE
  5
480
330
47D
100
AcDbEntity
  8
Untitled
 62
     7
370
     5
100
AcDbLine
 10
-3.5
 20
0.0
 30
0.0
 11
1.0
 21
0.0
 31
0.0
  0
LINE
  5
481
330
47D
100
AcDbEntity
  8
Untitled
 62
     7
370
     5
100
AcDbLine
 10
-22.5
 20
-22.5
 30
0.0
 11
1.0
 21
-22.5
 31
0.0
  0
LINE
  5
482
330
47D
100
AcDbEntity
  8
Untitled
 62
     7
370
     5
100
AcDbLine
 10
0.5
 20
-0.5
 30
0.0
 11
-0.5
 21
0.5
 31
0.0
  0
LINE
  5
483
330
47D
100
AcDbEntity
  8
Untitled
 62
     7
370
     5
100
AcDbLine
 10
0.5
 20
-23.0
 30
0.0
 11
-0.5
 21
-22.0
 31
0.0
  0
TEXT
  5
484
330
47D
100
AcDbEntity
  8
Untitled
 62
     7
100
AcDbText
 10
-0.597656
 20
-13.438
 30
0.0
 40
1.0
  1
22 1/2"
 50
90.0
  7
ARIAL_400_0
 72
     1
 11
-0.597656
 21
-11.25
 31
0.0
100
AcDbText
  0
ENDBLK
  5
4BC
330
47D
100
AcDbEntity
  8
0
100
AcDbBlockEnd
  0
BLOCK
  5
4BD
330
485
100
AcDbEntity
  8
0
100
AcDbBlockBegin
  2
Block895
 70
     0
 10
0.0
 20
0.0
 30
0.0
  3
Block895
  1

  0
LINE
  5
487
330
485
100
AcDbEntity
  8
Untitled
 62
     7
370
     5
100
AcDbLine
 10
0.0
 20
0.0
 30
0.0
 11
0.0
 21
2.0
 31
0.0
  0
LINE
  5
488
330
485
100
AcDbEntity
  8
Untitled
 62
     7
370
     5
100
AcDbLine
 10
0.0
 20
-1.0
 30
0.0
 11
0.0
 21
-3.0
 31
0.0
  0
LINE
  5
489
330
485
100
AcDbEntity
  8
Untitled
 62
     7
370
     5
100
AcDbLine
 10
0.5
 20
-0.5
 30
0.0
 11
-0.5
 21
0.5
 31
0.0
  0
LINE
  5
48A
330
485
100
AcDbEntity
  8
Untitled
 62
     7
370
     5
100
AcDbLine
 10
0.5
 20
-1.5
 30
0.0
 11
-0.5
 21
-0.5
 31
0.0
  0
TEXT
  5
48B
330
485
100
AcDbEntity
  8
Untitled
 62
     7
100
AcDbText
 10
-0.3
 20
-4.272
 30
0.0
 40
1.0
  1
1"
 50
90.0
  7
ARIAL_400_0
 72
     2
 11
-0.3
 21
-3.0
 31
0.0
100
AcDbText
  0
ENDBLK
  5
4BE
330
485
100
AcDbEntity
  8
0
100
AcDbBlockEnd
  0
BLOCK
  5
4BF
330
48E
100
AcDbEntity
  8
0
100
AcDbBlockBegin
  2
Block898
 70
     0
 10
0.0
 20
0.0
 30
0.0
  3
Block898
  1

  0
LINE
  5
490
330
48E
100
AcDbEntity
  8
Untitled
 62
     7
370
     5
100
AcDbLine
 10
0.0
 20
0.0
 30
0.0
 11
-13.75
 21
0.0
 31
0.0
  0
LINE
  5
491
330
48E
100
AcDbEntity
  8
Untitled
 62
     7
370
     5
100
AcDbLine
 10
0.0
 20
3.738179
 30
0.0
 11
0.0
 21
-1.0
 31
0.0
  0
LINE
  5
492
330
48E
100
AcDbEntity
  8
Untitled
 62
     7
370
     5
100
AcDbLine
 10
-0.5
 20
-0.5
 30
0.0
 11
0.5
 21
0.5
 31
0.0
  0
LINE
  5
493
330
48E
100
AcDbEntity
  8
Untitled
 62
     7
370
     5
100
AcDbLine
 10
-14.25
 20
-0.5
 30
0.0
 11
-13.25
 21
0.5
 31
0.0
  0
TEXT
  5
494
330
48E
100
AcDbEntity
  8
Untitled
 62
     7
100
AcDbText
 10
-9.063
 20
0.597656
 30
0.0
 40
1.0
  1
13 3/4"
  7
ARIAL_400_0
 72
     1
 11
-6.875
 21
0.597656
 31
0.0
100
AcDbText
  0
ENDBLK
  5
4C0
330
48E
100
AcDbEntity
  8
0
100
AcDbBlockEnd
  0
BLOCK
  5
4C1
330
49C
100
AcDbEntity
  8
0
100
AcDbBlockBegin
  2
Block909
 70
     0
 10
0.0
 20
0.0
 30
0.0
  3
Block909
  1

  0
LINE
  5
49E
330
49C
100
AcDbEntity
  8
Untitled
 62
     7
370
     5
100
AcDbLine
 10
0.0
 20
0.0
 30
0.0
 11
0.0
 21
-7.978154
 31
0.0
  0
LINE
  5
49F
330
49C
100
AcDbEntity
  8
Untitled
 62
     7
370
     5
100
AcDbLine
 10
8.638273
 20
0.0
 30
0.0
 11
-1.0
 21
0.0
 31
0.0
  0
LINE
  5
4A0
330
49C
100
AcDbEntity
  8
Untitled
 62
     7
370
     5
100
AcDbLine
 10
-1.424227
 20
-7.978154
 30
0.0
 11
1.0
 21
-7.978154
 31
0.0
  0
LINE
  5
4A1
330
49C
100
AcDbEntity
  8
Untitled
 62
     7
370
     5
100
AcDbLine
 10
0.5
 20
-0.5
 30
0.0
 11
-0.5
 21
0.5
 31
0.0
  0
LINE
  5
4A2
330
49C
100
AcDbEntity
  8
Untitled
 62
     7
370
     5
100
AcDbLine
 10
0.5
 20
-8.478154
 30
0.0
 11
-0.5
 21
-7.478154
 31
0.0
  0
TEXT
  5
4A3
330
49C
100
AcDbEntity
  8
Untitled
 62
     7
100
AcDbText
 10
-0.597656
 20
-6.253577
 30
0.0
 40
1.0
  1
8" CTC
 50
90.0
  7
ARIAL_400_0
 72
     1
 11
-0.597656
 21
-3.989077
 31
0.0
100
AcDbText
  0
ENDBLK
  5
4C2
330
49C
100
AcDbEntity
  8
0
100
AcDbBlockEnd
  0
BLOCK
  5
4C3
330
4A4
100
AcDbEntity
  8
0
100
AcDbBlockBegin
  2
Block914
 70
     0
 10
0.0
 20
0.0
 30
0.0
  3
Block914
  1

  0
TEXT
  5
4A6
330
4A4
100
AcDbEntity
  8
Untitled
 62
     1
100
AcDbText
 10
0.0
 20
0.0
 30
0.0
 40
1.125
  1
Specifications shown below represent standard sizes only.
  7
ARIAL_400_0
100
AcDbText
  0
TEXT
  5
4A7
330
4A4
100
AcDbEntity
  8
Untitled
 62
     1
100
AcDbText
 10
0.0
 20
-1.6875
 30
0.0
 40
1.125
  1
Palmer Leg Systems are custom built to ANY dimensions.
  7
ARIAL_400_0
100
AcDbText
  0
ENDBLK
  5
4C4
330
4A4
100
AcDbEntity
  8
0
100
AcDbBlockEnd
  0
BLOCK
  5
4C5
330
4A9
100
AcDbEntity
  8
0
100
AcDbBlockBegin
  2
Block916
 70
     0
 10
0.0
 20
0.0
 30
0.0
  3
Block916
  1

  0
TEXT
  5
4AB
330
4A9
100
AcDbEntity
  8
Untitled
 62
     7
100
AcDbText
 10
0.0
 20
0.0
 30
0.0
 40
0.9
  1
These designs and drawings are confidential, and the exclusive property of Palmer Industries.
  7
ARIAL_400_0
100
AcDbText
  0
TEXT
  5
4AC
330
4A9
100
AcDbEntity
  8
Untitled
 62
     7
100
AcDbText
 10
0.0
 20
-1.35
 30
0.0
 40
0.9
  1
They may not be disclosed or duplicated without the expressed, written consent of Palmer Industries.
  7
ARIAL_400_0
100
AcDbText
  0
TEXT
  5
4AD
330
4A9
100
AcDbEntity
  8
Untitled
 62
     7
100
AcDbText
 10
0.0
 20
-2.7
 30
0.0
 40
0.9
  1
Copyright circa 2018 Palmer Industries.  All rights reserved.
  7
ARIAL_400_0
100
AcDbText
  0
ENDBLK
  5
4C6
330
4A9
100
AcDbEntity
  8
0
100
AcDbBlockEnd
  0
ENDSEC
  0
SECTION
  2
ENTITIES
  0
INSERT
  5
E1
330
1F
100
AcDbEntity
  8
0
100
AcDbBlockReference
  2
Block1
 10
29.777883
 20
6.552075
 30
0.0
  0
INSERT
  5
E8
330
1F
100
AcDbEntity
  8
0
100
AcDbBlockReference
  2
Block2
 10
-13.722117
 20
20.150255
 30
0.0
  0
LINE
  5
EF
330
1F
100
AcDbEntity
  8
Untitled
 62
     7
370
     5
100
AcDbLine
 10
-0.643063
 20
20.150255
 30
0.0
 11
6.356937
 21
20.150255
 31
0.0
  0
LINE
  5
F0
330
1F
100
AcDbEntity
  8
Untitled
 62
     7
370
     5
100
AcDbLine
 10
6.356937
 20
20.150255
 30
0.0
 11
6.356937
 21
18.900255
 31
0.0
  0
LINE
  5
F1
330
1F
100
AcDbEntity
  8
Untitled
 62
     7
370
     5
100
AcDbLine
 10
6.356937
 20
18.900255
 30
0.0
 11
-0.643063
 21
18.900255
 31
0.0
  0
LINE
  5
F2
330
1F
100
AcDbEntity
  8
Untitled
 62
     7
370
     5
100
AcDbLine
 10
-0.643063
 20
18.900255
 30
0.0
 11
-0.643063
 21
20.150255
 31
0.0
  0
LINE
  5
F3
330
1F
100
AcDbEntity
  8
Untitled
 62
     7
370
     5
100
AcDbLine
 10
-0.643063
 20
20.025255
 30
0.0
 11
6.356937
 21
20.025255
 31
0.0
  0
LINE
  5
F4
330
1F
100
AcDbEntity
  8
Untitled
 62
     7
370
     5
100
AcDbLine
 10
58.027883
 20
18.900255
 30
0.0
 11
58.027883
 21
20.150255
 31
0.0
  0
LINE
  5
F5
330
1F
100
AcDbEntity
  8
Untitled
 62
     7
370
     5
100
AcDbLine
 10
58.027883
 20
20.150255
 30
0.0
 11
56.777883
 21
20.150255
 31
0.0
  0
LINE
  5
F6
330
1F
100
AcDbEntity
  8
Untitled
 62
     7
370
     5
100
AcDbLine
 10
56.777883
 20
20.150255
 30
0.0
 11
56.777883
 21
20.025255
 31
0.0
  0
LINE
  5
F7
330
1F
100
AcDbEntity
  8
Untitled
 62
     7
370
     5
100
AcDbLine
 10
56.777883
 20
20.025255
 30
0.0
 11
57.902883
 21
20.025255
 31
0.0
  0
LINE
  5
F8
330
1F
100
AcDbEntity
  8
Untitled
 62
     7
370
     5
100
AcDbLine
 10
57.902883
 20
20.025255
 30
0.0
 11
57.902883
 21
18.900255
 31
0.0
  0
LINE
  5
F9
330
1F
100
AcDbEntity
  8
Untitled
 62
     7
370
     5
100
AcDbLine
 10
57.902883
 20
18.900255
 30
0.0
 11
58.027883
 21
18.900255
 31
0.0
  0
ELLIPSE
  5
FA
330
1F
100
AcDbEntity
  8
Untitled
 62
     7
370
     5
100
AcDbEllipse
 10
0.356937
 20
19.525255
 30
0.0
 11
0.2499999999999968
 21
0.0
 31
0.0
210
0.0
220
0.0
230
1.0
 40
1.0
 41
0.0
 42
6.283185307179586
  0
ELLIPSE
  5
FB
330
1F
100
AcDbEntity
  8
Untitled
 62
     7
370
     5
100
AcDbEllipse
 10
5.356937
 20
19.525255
 30
0.0
 11
0.2500000000000341
 21
0.0
 31
0.0
210
0.0
220
0.0
230
1.0
 40
1.0
 41
0.0
 42
6.283185307179586
  0
ELLIPSE
  5
FC
330
1F
100
AcDbEntity
  8
Untitled
 62
     7
370
     5
100
AcDbEllipse
 10
57.902883
 20
19.462755
 30
0.0
 11
0.25
 21
0.0
 31
0.0
210
0.0
220
0.0
230
1.0
 40
1.0
 41
1.570796326794897
 42
4.71238898038469
  0
LINE
  5
FD
330
1F
100
AcDbEntity
  8
Untitled
 62
     7
370
     5
100
AcDbLine
 10
59.027883
 20
19.462755
 30
0.0
 11
58.902883
 21
19.587755
 31
0.0
  0
LINE
  5
FE
330
1F
100
AcDbEntity
  8
Untitled
 62
     7
370
     5
100
AcDbLine
 10
59.027883
 20
19.462755
 30
0.0
 11
58.902883
 21
19.337755
 31
0.0
  0
LINE
  5
FF
330
1F
100
AcDbEntity
  8
Untitled
 62
     7
370
     5
100
AcDbLine
 10
58.027883
 20
19.587755
 30
0.0
 11
58.902883
 21
19.587755
 31
0.0
  0
LINE
  5
100
330
1F
100
AcDbEntity
  8
Untitled
 62
     7
370
     5
100
AcDbLine
 10
58.027883
 20
19.337755
 30
0.0
 11
58.902883
 21
19.337755
 31
0.0
  0
LINE
  5
101
330
1F
100
AcDbEntity
  8
Untitled
 62
     7
370
     5
100
AcDbLine
 10
-9.677117
 20
19.087755
 30
0.0
 11
-10.767117
 21
19.087755
 31
0.0
  0
ELLIPSE
  5
102
330
1F
100
AcDbEntity
  8
Untitled
 62
     7
370
     5
100
AcDbEllipse
 10
-10.989617
 20
20.042755
 30
0.0
 11
0.1074999999999982
 21
0.0
 31
0.0
210
0.0
220
0.0
230
1.0
 40
1.0
 41
1.570796326794897
 42
4.712389118875831
  0
LINE
  5
103
330
1F
100
AcDbEntity
  8
Untitled
 62
     7
370
     5
100
AcDbLine
 10
-9.454617
 20
19.935255
 30
0.0
 11
-10.989617
 21
19.935255
 31
0.0
  0
ELLIPSE
  5
104
330
1F
100
AcDbEntity
  8
Untitled
 62
     7
370
     5
100
AcDbEllipse
 10
-9.454617
 20
20.042755
 30
0.0
 11
0.1075000000000027
 21
0.0
 31
0.0
210
0.0
220
0.0
230
1.0
 40
1.0
 41
4.712388841893929
 42
7.853981633974483
  0
LINE
  5
105
330
1F
100
AcDbEntity
  8
Untitled
 62
     7
370
     5
100
AcDbLine
 10
-10.989617
 20
20.150255
 30
0.0
 11
-9.454617
 21
20.150255
 31
0.0
  0
LINE
  5
106
330
1F
100
AcDbEntity
  8
Untitled
 62
     7
370
     5
100
AcDbLine
 10
-9.627117
 20
19.137755
 30
0.0
 11
-9.627117
 21
19.337755
 31
0.0
  0
LINE
  5
107
330
1F
100
AcDbEntity
  8
Untitled
 62
     7
370
     5
100
AcDbLine
 10
-10.817117
 20
19.137755
 30
0.0
 11
-10.817117
 21
19.337755
 31
0.0
  0
LINE
  5
108
330
1F
100
AcDbEntity
  8
Untitled
 62
     7
370
     5
100
AcDbLine
 10
-9.627117
 20
19.137755
 30
0.0
 11
-9.677117
 21
19.087755
 31
0.0
  0
LINE
  5
109
330
1F
100
AcDbEntity
  8
Untitled
 62
     7
370
     5
100
AcDbLine
 10
-10.767117
 20
19.087755
 30
0.0
 11
-10.817117
 21
19.137755
 31
0.0
  0
LINE
  5
10A
330
1F
100
AcDbEntity
  8
Untitled
 62
     7
370
     5
100
AcDbLine
 10
-9.627117
 20
19.137755
 30
0.0
 11
-10.817117
 21
19.137755
 31
0.0
  0
LINE
  5
10B
330
1F
100
AcDbEntity
  8
Untitled
 62
     7
370
     5
100
AcDbLine
 10
-10.817117
 20
19.337755
 30
0.0
 11
-9.627117
 21
19.337755
 31
0.0
  0
ELLIPSE
  5
10C
330
1F
100
AcDbEntity
  8
Untitled
 62
     7
370
     5
100
AcDbEllipse
 10
-9.627117
 20
19.431505
 30
0.0
 11
0.09374999999996092
 21
0.0
 31
0.0
210
0.0
220
0.0
230
1.0
 40
1.0
 41
4.71238898038469
 42
7.471382073451504
  0
ELLIPSE
  5
10D
330
1F
100
AcDbEntity
  8
Untitled
 62
     7
370
     5
100
AcDbEllipse
 10
-10.817117
 20
19.431505
 30
0.0
 11
0.09374999999996823
 21
0.0
 31
0.0
210
0.0
220
0.0
230
1.0
 40
1.0
 41
1.953395887317883
 42
4.71238898038469
  0
LINE
  5
10E
330
1F
100
AcDbEntity
  8
Untitled
 62
     7
370
     5
100
AcDbLine
 10
-9.592117
 20
19.518476
 30
0.0
 11
-10.852117
 21
19.518476
 31
0.0
  0
LINE
  5
10F
330
1F
100
AcDbEntity
  8
Untitled
 62
     7
370
     5
100
AcDbLine
 10
-10.852117
 20
19.518476
 30
0.0
 11
-10.852117
 21
19.688476
 31
0.0
  0
ELLIPSE
  5
110
330
1F
100
AcDbEntity
  8
Untitled
 62
     7
370
     5
100
AcDbEllipse
 10
-11.137103
 20
19.691383
 30
0.0
 11
0.2850000000000029
 21
0.0
 31
0.0
210
0.0
220
0.0
230
1.0
 40
1.0
 41
6.272982484929295
 42
7.310064484967699
  0
ELLIPSE
  5
111
330
1F
100
AcDbEntity
  8
Untitled
 62
     7
370
     5
100
AcDbEllipse
 10
-9.307132
 20
19.691383
 30
0.0
 11
0.2849999999999946
 21
0.0
 31
0.0
210
0.0
220
0.0
230
1.0
 40
1.0
 41
2.114713475801683
 42
3.151795475840085
  0
LINE
  5
112
330
1F
100
AcDbEntity
  8
Untitled
 62
     7
370
     5
100
AcDbLine
 10
-9.592117
 20
19.518476
 30
0.0
 11
-9.592117
 21
19.688476
 31
0.0
  0
ELLIPSE
  5
113
330
1F
100
AcDbEntity
  8
Untitled
 62
     7
370
     5
100
AcDbEllipse
 10
-10.222117
 20
12.150255
 30
0.0
 11
0.9375000000000131
 21
0.0
 31
0.0
210
0.0
220
0.0
230
1.0
 40
1.0
 41
0.7297276562269539
 42
0.8054316831613164
  0
LINE
  5
114
330
1F
100
AcDbEntity
  8
Untitled
 62
     7
370
     5
100
AcDbLine
 10
-9.348346
 20
11.525255
 30
0.0
 11
-8.651346
 21
11.525255
 31
0.0
  0
LINE
  5
115
330
1F
100
AcDbEntity
  8
Untitled
 62
     7
370
     5
100
AcDbLine
 10
-8.576346
 20
11.600255
 30
0.0
 11
-8.576346
 21
12.700255
 31
0.0
  0
LINE
  5
116
330
1F
100
AcDbEntity
  8
Untitled
 62
     7
370
     5
100
AcDbLine
 10
-9.348346
 20
12.775255
 30
0.0
 11
-8.651346
 21
12.775255
 31
0.0
  0
LINE
  5
117
330
1F
100
AcDbEntity
  8
Untitled
 62
     7
370
     5
100
AcDbLine
 10
-8.576346
 20
12.700255
 30
0.0
 11
-8.651346
 21
12.775255
 31
0.0
  0
LINE
  5
118
330
1F
100
AcDbEntity
  8
Untitled
 62
     7
370
     5
100
AcDbLine
 10
-8.651346
 20
11.525255
 30
0.0
 11
-8.576346
 21
11.600255
 31
0.0
  0
LINE
  5
119
330
1F
100
AcDbEntity
  8
Untitled
 62
     7
370
     5
100
AcDbLine
 10
-8.651346
 20
12.775255
 30
0.0
 11
-8.651346
 21
11.525255
 31
0.0
  0
LINE
  5
11A
330
1F
100
AcDbEntity
  8
Untitled
 62
     7
370
     5
100
AcDbLine
 10
-9.523346
 20
12.775255
 30
0.0
 11
-9.523346
 21
11.525255
 31
0.0
  0
LINE
  5
11B
330
1F
100
AcDbEntity
  8
Untitled
 62
     7
370
     5
100
AcDbLine
 10
-9.398346
 20
12.775255
 30
0.0
 11
-9.398346
 21
11.525255
 31
0.0
  0
LINE
  5
11C
330
1F
100
AcDbEntity
  8
Untitled
 62
     7
370
     5
100
AcDbLine
 10
-9.348346
 20
12.775255
 30
0.0
 11
-9.348346
 21
11.525255
 31
0.0
  0
LINE
  5
11D
330
1F
100
AcDbEntity
  8
Untitled
 62
     7
370
     5
100
AcDbLine
 10
-9.398346
 20
12.775255
 30
0.0
 11
-9.373346
 21
12.725255
 31
0.0
  0
LINE
  5
11E
330
1F
100
AcDbEntity
  8
Untitled
 62
     7
370
     5
100
AcDbLine
 10
-9.373346
 20
12.725255
 30
0.0
 11
-9.348346
 21
12.775255
 31
0.0
  0
LINE
  5
11F
330
1F
100
AcDbEntity
  8
Untitled
 62
     7
370
     5
100
AcDbLine
 10
-9.373346
 20
11.575255
 30
0.0
 11
-9.348346
 21
11.525255
 31
0.0
  0
LINE
  5
120
330
1F
100
AcDbEntity
  8
Untitled
 62
     7
370
     5
100
AcDbLine
 10
-9.398346
 20
11.525255
 30
0.0
 11
-9.373346
 21
11.575255
 31
0.0
  0
LINE
  5
121
330
1F
100
AcDbEntity
  8
Untitled
 62
     7
370
     5
100
AcDbLine
 10
-9.523346
 20
11.525255
 30
0.0
 11
-9.398346
 21
11.525255
 31
0.0
  0
LINE
  5
122
330
1F
100
AcDbEntity
  8
Untitled
 62
     7
370
     5
100
AcDbLine
 10
-9.523346
 20
12.775255
 30
0.0
 11
-9.398346
 21
12.775255
 31
0.0
  0
LINE
  5
123
330
1F
100
AcDbEntity
  8
Untitled
 62
     7
370
     5
100
AcDbLine
 10
-10.871617
 20
12.826314
 30
0.0
 11
-9.572617
 21
12.826314
 31
0.0
  0
ELLIPSE
  5
124
330
1F
100
AcDbEntity
  8
Untitled
 62
     7
370
     5
100
AcDbEllipse
 10
-10.222117
 20
12.150255
 30
0.0
 11
0.9374999999999934
 21
0.0
 31
0.0
210
0.0
220
0.0
230
1.0
 40
1.0
 41
2.336160970428476
 42
3.947024336751111
  0
LINE
  5
125
330
1F
100
AcDbEntity
  8
Untitled
 62
     7
370
     5
100
AcDbLine
 10
-10.871617
 20
11.474195
 30
0.0
 11
-9.572617
 21
11.474195
 31
0.0
  0
ELLIPSE
  5
126
330
1F
100
AcDbEntity
  8
Untitled
 62
     7
370
     5
100
AcDbEllipse
 10
-10.222117
 20
12.150255
 30
0.0
 11
0.937499999999996
 21
0.0
 31
0.0
210
0.0
220
0.0
230
1.0
 40
1.0
 41
5.47775362401827
 42
5.55345765095263
  0
LINE
  5
127
330
1F
100
AcDbEntity
  8
Untitled
 62
     7
370
     5
100
AcDbLine
 10
-9.597117
 20
13.001314
 30
0.0
 11
-9.597117
 21
13.400314
 31
0.0
  0
LINE
  5
128
330
1F
100
AcDbEntity
  8
Untitled
 62
     7
370
     5
100
AcDbLine
 10
-10.847117
 20
13.001314
 30
0.0
 11
-10.847117
 21
13.400314
 31
0.0
  0
LINE
  5
129
330
1F
100
AcDbEntity
  8
Untitled
 62
     7
370
     5
100
AcDbLine
 10
-10.847117
 20
12.951314
 30
0.0
 11
-9.597117
 21
12.951314
 31
0.0
  0
LINE
  5
12A
330
1F
100
AcDbEntity
  8
Untitled
 62
     7
370
     5
100
AcDbLine
 10
-10.847117
 20
13.001314
 30
0.0
 11
-9.597117
 21
13.001314
 31
0.0
  0
LINE
  5
12B
330
1F
100
AcDbEntity
  8
Untitled
 62
     7
370
     5
100
AcDbLine
 10
-10.847117
 20
12.951314
 30
0.0
 11
-10.797117
 21
12.976314
 31
0.0
  0
LINE
  5
12C
330
1F
100
AcDbEntity
  8
Untitled
 62
     7
370
     5
100
AcDbLine
 10
-10.797117
 20
12.976314
 30
0.0
 11
-10.847117
 21
13.001314
 31
0.0
  0
LINE
  5
12D
330
1F
100
AcDbEntity
  8
Untitled
 62
     7
370
     5
100
AcDbLine
 10
-9.647117
 20
12.976314
 30
0.0
 11
-9.597117
 21
13.001314
 31
0.0
  0
LINE
  5
12E
330
1F
100
AcDbEntity
  8
Untitled
 62
     7
370
     5
100
AcDbLine
 10
-9.597117
 20
12.951314
 30
0.0
 11
-9.647117
 21
12.976314
 31
0.0
  0
LINE
  5
12F
330
1F
100
AcDbEntity
  8
Untitled
 62
     7
370
     5
100
AcDbLine
 10
-9.597117
 20
12.826314
 30
0.0
 11
-9.597117
 21
12.951314
 31
0.0
  0
LINE
  5
130
330
1F
100
AcDbEntity
  8
Untitled
 62
     7
370
     5
100
AcDbLine
 10
-10.847117
 20
12.826314
 30
0.0
 11
-10.847117
 21
12.951314
 31
0.0
  0
LINE
  5
131
330
1F
100
AcDbEntity
  8
Untitled
 62
     7
370
     5
100
AcDbLine
 10
-9.672117
 20
13.475314
 30
0.0
 11
-10.772117
 21
13.475314
 31
0.0
  0
LINE
  5
132
330
1F
100
AcDbEntity
  8
Untitled
 62
     7
370
     5
100
AcDbLine
 10
-10.772117
 20
13.475314
 30
0.0
 11
-10.847117
 21
13.400314
 31
0.0
  0
LINE
  5
133
330
1F
100
AcDbEntity
  8
Untitled
 62
     7
370
     5
100
AcDbLine
 10
-9.597117
 20
13.400314
 30
0.0
 11
-9.672117
 21
13.475314
 31
0.0
  0
LINE
  5
134
330
1F
100
AcDbEntity
  8
Untitled
 62
     7
370
     5
100
AcDbLine
 10
-10.847117
 20
13.400314
 30
0.0
 11
-9.597117
 21
13.400314
 31
0.0
  0
LINE
  5
135
330
1F
100
AcDbEntity
  8
Untitled
 62
     7
370
     5
100
AcDbLine
 10
-9.597117
 20
11.299195
 30
0.0
 11
-9.597117
 21
10.900195
 31
0.0
  0
LINE
  5
136
330
1F
100
AcDbEntity
  8
Untitled
 62
     7
370
     5
100
AcDbLine
 10
-10.847117
 20
11.299195
 30
0.0
 11
-10.847117
 21
10.900195
 31
0.0
  0
LINE
  5
137
330
1F
100
AcDbEntity
  8
Untitled
 62
     7
370
     5
100
AcDbLine
 10
-9.672117
 20
10.825195
 30
0.0
 11
-10.772117
 21
10.825195
 31
0.0
  0
LINE
  5
138
330
1F
100
AcDbEntity
  8
Untitled
 62
     7
370
     5
100
AcDbLine
 10
-10.772117
 20
10.825195
 30
0.0
 11
-10.847117
 21
10.900195
 31
0.0
  0
LINE
  5
139
330
1F
100
AcDbEntity
  8
Untitled
 62
     7
370
     5
100
AcDbLine
 10
-9.597117
 20
10.900195
 30
0.0
 11
-9.672117
 21
10.825195
 31
0.0
  0
LINE
  5
13A
330
1F
100
AcDbEntity
  8
Untitled
 62
     7
370
     5
100
AcDbLine
 10
-10.847117
 20
10.900195
 30
0.0
 11
-9.597117
 21
10.900195
 31
0.0
  0
LINE
  5
13B
330
1F
100
AcDbEntity
  8
Untitled
 62
     7
370
     5
100
AcDbLine
 10
-10.847117
 20
11.349195
 30
0.0
 11
-9.597117
 21
11.349195
 31
0.0
  0
LINE
  5
13C
330
1F
100
AcDbEntity
  8
Untitled
 62
     7
370
     5
100
AcDbLine
 10
-10.847117
 20
11.299195
 30
0.0
 11
-9.597117
 21
11.299195
 31
0.0
  0
LINE
  5
13D
330
1F
100
AcDbEntity
  8
Untitled
 62
     7
370
     5
100
AcDbLine
 10
-10.847117
 20
11.349195
 30
0.0
 11
-10.797117
 21
11.324195
 31
0.0
  0
LINE
  5
13E
330
1F
100
AcDbEntity
  8
Untitled
 62
     7
370
     5
100
AcDbLine
 10
-10.797117
 20
11.324195
 30
0.0
 11
-10.847117
 21
11.299195
 31
0.0
  0
LINE
  5
13F
330
1F
100
AcDbEntity
  8
Untitled
 62
     7
370
     5
100
AcDbLine
 10
-9.647117
 20
11.324195
 30
0.0
 11
-9.597117
 21
11.299195
 31
0.0
  0
LINE
  5
140
330
1F
100
AcDbEntity
  8
Untitled
 62
     7
370
     5
100
AcDbLine
 10
-9.597117
 20
11.349195
 30
0.0
 11
-9.647117
 21
11.324195
 31
0.0
  0
LINE
  5
141
330
1F
100
AcDbEntity
  8
Untitled
 62
     7
370
     5
100
AcDbLine
 10
-9.597117
 20
11.474195
 30
0.0
 11
-9.597117
 21
11.349195
 31
0.0
  0
LINE
  5
142
330
1F
100
AcDbEntity
  8
Untitled
 62
     7
370
     5
100
AcDbLine
 10
-10.847117
 20
11.474195
 30
0.0
 11
-10.847117
 21
11.349195
 31
0.0
  0
LINE
  5
143
330
1F
100
AcDbEntity
  8
Untitled
 62
     7
370
     5
100
AcDbLine
 10
-9.597117
 20
-4.200805
 30
0.0
 11
-9.597117
 21
-4.599805
 31
0.0
  0
LINE
  5
144
330
1F
100
AcDbEntity
  8
Untitled
 62
     7
370
     5
100
AcDbLine
 10
-10.847117
 20
-4.200805
 30
0.0
 11
-10.847117
 21
-4.599805
 31
0.0
  0
LINE
  5
145
330
1F
100
AcDbEntity
  8
Untitled
 62
     7
370
     5
100
AcDbLine
 10
-9.672117
 20
-4.674805
 30
0.0
 11
-10.772117
 21
-4.674805
 31
0.0
  0
LINE
  5
146
330
1F
100
AcDbEntity
  8
Untitled
 62
     7
370
     5
100
AcDbLine
 10
-10.772117
 20
-4.674805
 30
0.0
 11
-10.847117
 21
-4.599805
 31
0.0
  0
LINE
  5
147
330
1F
100
AcDbEntity
  8
Untitled
 62
     7
370
     5
100
AcDbLine
 10
-9.597117
 20
-4.599805
 30
0.0
 11
-9.672117
 21
-4.674805
 31
0.0
  0
LINE
  5
148
330
1F
100
AcDbEntity
  8
Untitled
 62
     7
370
     5
100
AcDbLine
 10
-10.847117
 20
-4.599805
 30
0.0
 11
-9.597117
 21
-4.599805
 31
0.0
  0
ELLIPSE
  5
149
330
1F
100
AcDbEntity
  8
Untitled
 62
     7
370
     5
100
AcDbEllipse
 10
-10.222117
 20
-3.349745
 30
0.0
 11
0.9375000000000028
 21
0.0
 31
0.0
210
0.0
220
0.0
230
1.0
 40
1.0
 41
2.336160970428467
 42
3.947024336751116
  0
LINE
  5
14A
330
1F
100
AcDbEntity
  8
Untitled
 62
     7
370
     5
100
AcDbLine
 10
-10.871617
 20
-4.025805
 30
0.0
 11
-9.572617
 21
-4.025805
 31
0.0
  0
LINE
  5
14B
330
1F
100
AcDbEntity
  8
Untitled
 62
     7
370
     5
100
AcDbLine
 10
-10.847117
 20
-4.150805
 30
0.0
 11
-9.597117
 21
-4.150805
 31
0.0
  0
LINE
  5
14C
330
1F
100
AcDbEntity
  8
Untitled
 62
     7
370
     5
100
AcDbLine
 10
-10.847117
 20
-4.200805
 30
0.0
 11
-9.597117
 21
-4.200805
 31
0.0
  0
LINE
  5
14D
330
1F
100
AcDbEntity
  8
Untitled
 62
     7
370
     5
100
AcDbLine
 10
-9.647117
 20
-4.175805
 30
0.0
 11
-9.597117
 21
-4.200805
 31
0.0
  0
LINE
  5
14E
330
1F
100
AcDbEntity
  8
Untitled
 62
     7
370
     5
100
AcDbLine
 10
-9.597117
 20
-4.150805
 30
0.0
 11
-9.647117
 21
-4.175805
 31
0.0
  0
LINE
  5
14F
330
1F
100
AcDbEntity
  8
Untitled
 62
     7
370
     5
100
AcDbLine
 10
-10.871617
 20
-2.673686
 30
0.0
 11
-9.572617
 21
-2.673686
 31
0.0
  0
LINE
  5
150
330
1F
100
AcDbEntity
  8
Untitled
 62
     7
370
     5
100
AcDbLine
 10
-10.847117
 20
-2.548686
 30
0.0
 11
-9.597117
 21
-2.548686
 31
0.0
  0
LINE
  5
151
330
1F
100
AcDbEntity
  8
Untitled
 62
     7
370
     5
100
AcDbLine
 10
-10.847117
 20
-2.498686
 30
0.0
 11
-9.597117
 21
-2.498686
 31
0.0
  0
LINE
  5
152
330
1F
100
AcDbEntity
  8
Untitled
 62
     7
370
     5
100
AcDbLine
 10
-10.847117
 20
-2.099686
 30
0.0
 11
-9.597117
 21
-2.099686
 31
0.0
  0
LINE
  5
153
330
1F
100
AcDbEntity
  8
Untitled
 62
     7
370
     5
100
AcDbLine
 10
-9.647117
 20
-2.523686
 30
0.0
 11
-9.597117
 21
-2.498686
 31
0.0
  0
LINE
  5
154
330
1F
100
AcDbEntity
  8
Untitled
 62
     7
370
     5
100
AcDbLine
 10
-9.597117
 20
-2.548686
 30
0.0
 11
-9.647117
 21
-2.523686
 31
0.0
  0
LINE
  5
155
330
1F
100
AcDbEntity
  8
Untitled
 62
     7
370
     5
100
AcDbLine
 10
-9.597117
 20
-2.099686
 30
0.0
 11
-9.672117
 21
-2.024686
 31
0.0
  0
LINE
  5
156
330
1F
100
AcDbEntity
  8
Untitled
 62
     7
370
     5
100
AcDbLine
 10
-10.847117
 20
-4.150805
 30
0.0
 11
-10.797117
 21
-4.175805
 31
0.0
  0
LINE
  5
157
330
1F
100
AcDbEntity
  8
Untitled
 62
     7
370
     5
100
AcDbLine
 10
-10.797117
 20
-4.175805
 30
0.0
 11
-10.847117
 21
-4.200805
 31
0.0
  0
LINE
  5
158
330
1F
100
AcDbEntity
  8
Untitled
 62
     7
370
     5
100
AcDbLine
 10
-10.847117
 20
-4.025805
 30
0.0
 11
-10.847117
 21
-4.150805
 31
0.0
  0
LINE
  5
159
330
1F
100
AcDbEntity
  8
Untitled
 62
     7
370
     5
100
AcDbLine
 10
-9.672117
 20
-2.024686
 30
0.0
 11
-10.772117
 21
-2.024686
 31
0.0
  0
LINE
  5
15A
330
1F
100
AcDbEntity
  8
Untitled
 62
     7
370
     5
100
AcDbLine
 10
-10.847117
 20
-2.498686
 30
0.0
 11
-10.847117
 21
-2.099686
 31
0.0
  0
LINE
  5
15B
330
1F
100
AcDbEntity
  8
Untitled
 62
     7
370
     5
100
AcDbLine
 10
-10.847117
 20
-2.548686
 30
0.0
 11
-10.797117
 21
-2.523686
 31
0.0
  0
LINE
  5
15C
330
1F
100
AcDbEntity
  8
Untitled
 62
     7
370
     5
100
AcDbLine
 10
-10.797117
 20
-2.523686
 30
0.0
 11
-10.847117
 21
-2.498686
 31
0.0
  0
LINE
  5
15D
330
1F
100
AcDbEntity
  8
Untitled
 62
     7
370
     5
100
AcDbLine
 10
-10.847117
 20
-2.673686
 30
0.0
 11
-10.847117
 21
-2.548686
 31
0.0
  0
LINE
  5
15E
330
1F
100
AcDbEntity
  8
Untitled
 62
     7
370
     5
100
AcDbLine
 10
-10.772117
 20
-2.024686
 30
0.0
 11
-10.847117
 21
-2.099686
 31
0.0
  0
ELLIPSE
  5
15F
330
1F
100
AcDbEntity
  8
Untitled
 62
     7
370
     5
100
AcDbEllipse
 10
-10.222117
 20
-3.349745
 30
0.0
 11
0.9375000000000014
 21
0.0
 31
0.0
210
0.0
220
0.0
230
1.0
 40
1.0
 41
5.477753624018264
 42
7.088616990340905
  0
LINE
  5
160
330
1F
100
AcDbEntity
  8
Untitled
 62
     7
370
     5
100
AcDbLine
 10
-9.597117
 20
-4.025805
 30
0.0
 11
-9.597117
 21
-4.150805
 31
0.0
  0
LINE
  5
161
330
1F
100
AcDbEntity
  8
Untitled
 62
     7
370
     5
100
AcDbLine
 10
-9.597117
 20
-2.498686
 30
0.0
 11
-9.597117
 21
-2.099686
 31
0.0
  0
LINE
  5
162
330
1F
100
AcDbEntity
  8
Untitled
 62
     7
370
     5
100
AcDbLine
 10
-9.597117
 20
-2.673686
 30
0.0
 11
-9.597117
 21
-2.548686
 31
0.0
  0
ELLIPSE
  5
163
330
1F
100
AcDbEntity
  8
Untitled
 62
     7
370
     5
100
AcDbEllipse
 10
-10.222117
 20
-12.673686
 30
0.0
 11
0.9375000000000216
 21
0.0
 31
0.0
210
0.0
220
0.0
230
1.0
 40
1.0
 41
2.336160970428447
 42
3.947024336751083
  0
LINE
  5
164
330
1F
100
AcDbEntity
  8
Untitled
 62
     7
370
     5
100
AcDbLine
 10
-10.871617
 20
-13.349745
 30
0.0
 11
-9.572617
 21
-13.349745
 31
0.0
  0
LINE
  5
165
330
1F
100
AcDbEntity
  8
Untitled
 62
     7
370
     5
100
AcDbLine
 10
-10.871617
 20
-11.997627
 30
0.0
 11
-9.572617
 21
-11.997627
 31
0.0
  0
LINE
  5
166
330
1F
100
AcDbEntity
  8
Untitled
 62
     7
370
     5
100
AcDbLine
 10
-10.847117
 20
-11.872627
 30
0.0
 11
-9.597117
 21
-11.872627
 31
0.0
  0
LINE
  5
167
330
1F
100
AcDbEntity
  8
Untitled
 62
     7
370
     5
100
AcDbLine
 10
-10.847117
 20
-11.822627
 30
0.0
 11
-9.597117
 21
-11.822627
 31
0.0
  0
LINE
  5
168
330
1F
100
AcDbEntity
  8
Untitled
 62
     7
370
     5
100
AcDbLine
 10
-10.847117
 20
-11.423627
 30
0.0
 11
-9.597117
 21
-11.423627
 31
0.0
  0
LINE
  5
169
330
1F
100
AcDbEntity
  8
Untitled
 62
     7
370
     5
100
AcDbLine
 10
-9.647117
 20
-11.847627
 30
0.0
 11
-9.597117
 21
-11.822627
 31
0.0
  0
LINE
  5
16A
330
1F
100
AcDbEntity
  8
Untitled
 62
     7
370
     5
100
AcDbLine
 10
-9.597117
 20
-11.872627
 30
0.0
 11
-9.647117
 21
-11.847627
 31
0.0
  0
LINE
  5
16B
330
1F
100
AcDbEntity
  8
Untitled
 62
     7
370
     5
100
AcDbLine
 10
-9.597117
 20
-11.423627
 30
0.0
 11
-9.672117
 21
-11.348627
 31
0.0
  0
LINE
  5
16C
330
1F
100
AcDbEntity
  8
Untitled
 62
     7
370
     5
100
AcDbLine
 10
-9.672117
 20
-11.348627
 30
0.0
 11
-10.772117
 21
-11.348627
 31
0.0
  0
LINE
  5
16D
330
1F
100
AcDbEntity
  8
Untitled
 62
     7
370
     5
100
AcDbLine
 10
-10.847117
 20
-11.822627
 30
0.0
 11
-10.847117
 21
-11.423627
 31
0.0
  0
LINE
  5
16E
330
1F
100
AcDbEntity
  8
Untitled
 62
     7
370
     5
100
AcDbLine
 10
-10.847117
 20
-11.872627
 30
0.0
 11
-10.797117
 21
-11.847627
 31
0.0
  0
LINE
  5
16F
330
1F
100
AcDbEntity
  8
Untitled
 62
     7
370
     5
100
AcDbLine
 10
-10.797117
 20
-11.847627
 30
0.0
 11
-10.847117
 21
-11.822627
 31
0.0
  0
LINE
  5
170
330
1F
100
AcDbEntity
  8
Untitled
 62
     7
370
     5
100
AcDbLine
 10
-10.847117
 20
-11.997627
 30
0.0
 11
-10.847117
 21
-11.872627
 31
0.0
  0
LINE
  5
171
330
1F
100
AcDbEntity
  8
Untitled
 62
     7
370
     5
100
AcDbLine
 10
-10.772117
 20
-11.348627
 30
0.0
 11
-10.847117
 21
-11.423627
 31
0.0
  0
ELLIPSE
  5
172
330
1F
100
AcDbEntity
  8
Untitled
 62
     7
370
     5
100
AcDbEllipse
 10
-10.222117
 20
-12.673686
 30
0.0
 11
0.9374999999999972
 21
0.0
 31
0.0
210
0.0
220
0.0
230
1.0
 40
1.0
 41
5.477753624018268
 42
7.088616990340903
  0
LINE
  5
173
330
1F
100
AcDbEntity
  8
Untitled
 62
     7
370
     5
100
AcDbLine
 10
-9.597117
 20
-11.822627
 30
0.0
 11
-9.597117
 21
-11.423627
 31
0.0
  0
LINE
  5
174
330
1F
100
AcDbEntity
  8
Untitled
 62
     7
370
     5
100
AcDbLine
 10
-9.597117
 20
-11.997627
 30
0.0
 11
-9.597117
 21
-11.872627
 31
0.0
  0
LINE
  5
175
330
1F
100
AcDbEntity
  8
Untitled
 62
     7
370
     5
100
AcDbLine
 10
-10.722117
 20
13.475314
 30
0.0
 11
-10.722117
 21
19.087755
 31
0.0
  0
LINE
  5
176
330
1F
100
AcDbEntity
  8
Untitled
 62
     7
370
     5
100
AcDbLine
 10
-9.722117
 20
-4.674805
 30
0.0
 11
-9.722117
 21
-11.348627
 31
0.0
  0
LINE
  5
177
330
1F
100
AcDbEntity
  8
Untitled
 62
     7
370
     5
100
AcDbLine
 10
-10.722117
 20
-2.024686
 30
0.0
 11
-10.722117
 21
10.825195
 31
0.0
  0
LINE
  5
178
330
1F
100
AcDbEntity
  8
Untitled
 62
     7
370
     5
100
AcDbLine
 10
-9.722117
 20
19.087755
 30
0.0
 11
-9.722117
 21
13.475314
 31
0.0
  0
LINE
  5
179
330
1F
100
AcDbEntity
  8
Untitled
 62
     7
370
     5
100
AcDbLine
 10
-9.722117
 20
10.825195
 30
0.0
 11
-9.722117
 21
-2.024686
 31
0.0
  0
LINE
  5
17A
330
1F
100
AcDbEntity
  8
Untitled
 62
     7
370
     5
100
AcDbLine
 10
-10.722117
 20
-11.348627
 30
0.0
 11
-10.722117
 21
-4.674805
 31
0.0
  0
LINE
  5
17B
330
1F
100
AcDbEntity
  8
Untitled
 62
     7
370
     5
100
AcDbLine
 10
28.652883
 20
-4.200805
 30
0.0
 11
28.652883
 21
-4.599805
 31
0.0
  0
LINE
  5
17C
330
1F
100
AcDbEntity
  8
Untitled
 62
     7
370
     5
100
AcDbLine
 10
29.902883
 20
-4.200805
 30
0.0
 11
29.902883
 21
-4.599805
 31
0.0
  0
LINE
  5
17D
330
1F
100
AcDbEntity
  8
Untitled
 62
     7
370
     5
100
AcDbLine
 10
28.727883
 20
-4.674805
 30
0.0
 11
29.827883
 21
-4.674805
 31
0.0
  0
LINE
  5
17E
330
1F
100
AcDbEntity
  8
Untitled
 62
     7
370
     5
100
AcDbLine
 10
29.827883
 20
-4.674805
 30
0.0
 11
29.902883
 21
-4.599805
 31
0.0
  0
LINE
  5
17F
330
1F
100
AcDbEntity
  8
Untitled
 62
     7
370
     5
100
AcDbLine
 10
28.652883
 20
-4.599805
 30
0.0
 11
28.727883
 21
-4.674805
 31
0.0
  0
LINE
  5
180
330
1F
100
AcDbEntity
  8
Untitled
 62
     7
370
     5
100
AcDbLine
 10
29.902883
 20
-4.599805
 30
0.0
 11
28.652883
 21
-4.599805
 31
0.0
  0
ELLIPSE
  5
181
330
1F
100
AcDbEntity
  8
Untitled
 62
     7
370
     5
100
AcDbEllipse
 10
29.277883
 20
-3.349745
 30
0.0
 11
0.9375000000000002
 21
0.0
 31
0.0
210
0.0
220
0.0
230
1.0
 40
1.0
 41
5.477753624018263
 42
7.08861699034091
  0
LINE
  5
182
330
1F
100
AcDbEntity
  8
Untitled
 62
     7
370
     5
100
AcDbLine
 10
29.927383
 20
-4.025805
 30
0.0
 11
28.628383
 21
-4.025805
 31
0.0
  0
LINE
  5
183
330
1F
100
AcDbEntity
  8
Untitled
 62
     7
370
     5
100
AcDbLine
 10
29.902883
 20
-4.150805
 30
0.0
 11
28.652883
 21
-4.150805
 31
0.0
  0
LINE
  5
184
330
1F
100
AcDbEntity
  8
Untitled
 62
     7
370
     5
100
AcDbLine
 10
29.902883
 20
-4.200805
 30
0.0
 11
28.652883
 21
-4.200805
 31
0.0
  0
LINE
  5
185
330
1F
100
AcDbEntity
  8
Untitled
 62
     7
370
     5
100
AcDbLine
 10
28.702883
 20
-4.175805
 30
0.0
 11
28.652883
 21
-4.200805
 31
0.0
  0
LINE
  5
186
330
1F
100
AcDbEntity
  8
Untitled
 62
     7
370
     5
100
AcDbLine
 10
28.652883
 20
-4.150805
 30
0.0
 11
28.702883
 21
-4.175805
 31
0.0
  0
LINE
  5
187
330
1F
100
AcDbEntity
  8
Untitled
 62
     7
370
     5
100
AcDbLine
 10
29.927383
 20
-2.673686
 30
0.0
 11
28.628383
 21
-2.673686
 31
0.0
  0
LINE
  5
188
330
1F
100
AcDbEntity
  8
Untitled
 62
     7
370
     5
100
AcDbLine
 10
29.902883
 20
-2.548686
 30
0.0
 11
28.652883
 21
-2.548686
 31
0.0
  0
LINE
  5
189
330
1F
100
AcDbEntity
  8
Untitled
 62
     7
370
     5
100
AcDbLine
 10
29.902883
 20
-2.498686
 30
0.0
 11
28.652883
 21
-2.498686
 31
0.0
  0
LINE
  5
18A
330
1F
100
AcDbEntity
  8
Untitled
 62
     7
370
     5
100
AcDbLine
 10
29.902883
 20
-2.099686
 30
0.0
 11
28.652883
 21
-2.099686
 31
0.0
  0
LINE
  5
18B
330
1F
100
AcDbEntity
  8
Untitled
 62
     7
370
     5
100
AcDbLine
 10
28.702883
 20
-2.523686
 30
0.0
 11
28.652883
 21
-2.498686
 31
0.0
  0
LINE
  5
18C
330
1F
100
AcDbEntity
  8
Untitled
 62
     7
370
     5
100
AcDbLine
 10
28.652883
 20
-2.548686
 30
0.0
 11
28.702883
 21
-2.523686
 31
0.0
  0
LINE
  5
18D
330
1F
100
AcDbEntity
  8
Untitled
 62
     7
370
     5
100
AcDbLine
 10
28.652883
 20
-2.099686
 30
0.0
 11
28.727883
 21
-2.024686
 31
0.0
  0
LINE
  5
18E
330
1F
100
AcDbEntity
  8
Untitled
 62
     7
370
     5
100
AcDbLine
 10
29.902883
 20
-4.150805
 30
0.0
 11
29.852883
 21
-4.175805
 31
0.0
  0
LINE
  5
18F
330
1F
100
AcDbEntity
  8
Untitled
 62
     7
370
     5
100
AcDbLine
 10
29.852883
 20
-4.175805
 30
0.0
 11
29.902883
 21
-4.200805
 31
0.0
  0
LINE
  5
190
330
1F
100
AcDbEntity
  8
Untitled
 62
     7
370
     5
100
AcDbLine
 10
29.902883
 20
-4.025805
 30
0.0
 11
29.902883
 21
-4.150805
 31
0.0
  0
LINE
  5
191
330
1F
100
AcDbEntity
  8
Untitled
 62
     7
370
     5
100
AcDbLine
 10
28.727883
 20
-2.024686
 30
0.0
 11
29.827883
 21
-2.024686
 31
0.0
  0
LINE
  5
192
330
1F
100
AcDbEntity
  8
Untitled
 62
     7
370
     5
100
AcDbLine
 10
29.902883
 20
-2.498686
 30
0.0
 11
29.902883
 21
-2.099686
 31
0.0
  0
LINE
  5
193
330
1F
100
AcDbEntity
  8
Untitled
 62
     7
370
     5
100
AcDbLine
 10
29.902883
 20
-2.548686
 30
0.0
 11
29.852883
 21
-2.523686
 31
0.0
  0
LINE
  5
194
330
1F
100
AcDbEntity
  8
Untitled
 62
     7
370
     5
100
AcDbLine
 10
29.852883
 20
-2.523686
 30
0.0
 11
29.902883
 21
-2.498686
 31
0.0
  0
LINE
  5
195
330
1F
100
AcDbEntity
  8
Untitled
 62
     7
370
     5
100
AcDbLine
 10
29.902883
 20
-2.673686
 30
0.0
 11
29.902883
 21
-2.548686
 31
0.0
  0
LINE
  5
196
330
1F
100
AcDbEntity
  8
Untitled
 62
     7
370
     5
100
AcDbLine
 10
29.827883
 20
-2.024686
 30
0.0
 11
29.902883
 21
-2.099686
 31
0.0
  0
LINE
  5
197
330
1F
100
AcDbEntity
  8
Untitled
 62
     7
370
     5
100
AcDbLine
 10
28.652883
 20
-4.025805
 30
0.0
 11
28.652883
 21
-4.150805
 31
0.0
  0
LINE
  5
198
330
1F
100
AcDbEntity
  8
Untitled
 62
     7
370
     5
100
AcDbLine
 10
28.652883
 20
-2.498686
 30
0.0
 11
28.652883
 21
-2.099686
 31
0.0
  0
LINE
  5
199
330
1F
100
AcDbEntity
  8
Untitled
 62
     7
370
     5
100
AcDbLine
 10
28.652883
 20
-2.673686
 30
0.0
 11
28.652883
 21
-2.548686
 31
0.0
  0
ELLIPSE
  5
19A
330
1F
100
AcDbEntity
  8
Untitled
 62
     7
370
     5
100
AcDbEllipse
 10
29.277883
 20
-12.673686
 30
0.0
 11
0.937499999999996
 21
0.0
 31
0.0
210
0.0
220
0.0
230
1.0
 40
1.0
 41
5.477753624018266
 42
7.088616990340904
  0
LINE
  5
19B
330
1F
100
AcDbEntity
  8
Untitled
 62
     7
370
     5
100
AcDbLine
 10
29.927383
 20
-13.349745
 30
0.0
 11
28.628383
 21
-13.349745
 31
0.0
  0
LINE
  5
19C
330
1F
100
AcDbEntity
  8
Untitled
 62
     7
370
     5
100
AcDbLine
 10
29.927383
 20
-11.997627
 30
0.0
 11
28.628383
 21
-11.997627
 31
0.0
  0
LINE
  5
19D
330
1F
100
AcDbEntity
  8
Untitled
 62
     7
370
     5
100
AcDbLine
 10
29.902883
 20
-11.872627
 30
0.0
 11
28.652883
 21
-11.872627
 31
0.0
  0
LINE
  5
19E
330
1F
100
AcDbEntity
  8
Untitled
 62
     7
370
     5
100
AcDbLine
 10
29.902883
 20
-11.822627
 30
0.0
 11
28.652883
 21
-11.822627
 31
0.0
  0
LINE
  5
19F
330
1F
100
AcDbEntity
  8
Untitled
 62
     7
370
     5
100
AcDbLine
 10
29.902883
 20
-11.423627
 30
0.0
 11
28.652883
 21
-11.423627
 31
0.0
  0
LINE
  5
1A0
330
1F
100
AcDbEntity
  8
Untitled
 62
     7
370
     5
100
AcDbLine
 10
28.702883
 20
-11.847627
 30
0.0
 11
28.652883
 21
-11.822627
 31
0.0
  0
LINE
  5
1A1
330
1F
100
AcDbEntity
  8
Untitled
 62
     7
370
     5
100
AcDbLine
 10
28.652883
 20
-11.872627
 30
0.0
 11
28.702883
 21
-11.847627
 31
0.0
  0
LINE
  5
1A2
330
1F
100
AcDbEntity
  8
Untitled
 62
     7
370
     5
100
AcDbLine
 10
28.652883
 20
-11.423627
 30
0.0
 11
28.727883
 21
-11.348627
 31
0.0
  0
LINE
  5
1A3
330
1F
100
AcDbEntity
  8
Untitled
 62
     7
370
     5
100
AcDbLine
 10
28.727883
 20
-11.348627
 30
0.0
 11
29.827883
 21
-11.348627
 31
0.0
  0
LINE
  5
1A4
330
1F
100
AcDbEntity
  8
Untitled
 62
     7
370
     5
100
AcDbLine
 10
29.902883
 20
-11.822627
 30
0.0
 11
29.902883
 21
-11.423627
 31
0.0
  0
LINE
  5
1A5
330
1F
100
AcDbEntity
  8
Untitled
 62
     7
370
     5
100
AcDbLine
 10
29.902883
 20
-11.872627
 30
0.0
 11
29.852883
 21
-11.847627
 31
0.0
  0
LINE
  5
1A6
330
1F
100
AcDbEntity
  8
Untitled
 62
     7
370
     5
100
AcDbLine
 10
29.852883
 20
-11.847627
 30
0.0
 11
29.902883
 21
-11.822627
 31
0.0
  0
LINE
  5
1A7
330
1F
100
AcDbEntity
  8
Untitled
 62
     7
370
     5
100
AcDbLine
 10
29.902883
 20
-11.997627
 30
0.0
 11
29.902883
 21
-11.872627
 31
0.0
  0
LINE
  5
1A8
330
1F
100
AcDbEntity
  8
Untitled
 62
     7
370
     5
100
AcDbLine
 10
29.827883
 20
-11.348627
 30
0.0
 11
29.902883
 21
-11.423627
 31
0.0
  0
LINE
  5
1A9
330
1F
100
AcDbEntity
  8
Untitled
 62
     7
370
     5
100
AcDbLine
 10
28.652883
 20
-11.822627
 30
0.0
 11
28.652883
 21
-11.423627
 31
0.0
  0
LINE
  5
1AA
330
1F
100
AcDbEntity
  8
Untitled
 62
     7
370
     5
100
AcDbLine
 10
28.652883
 20
-11.997627
 30
0.0
 11
28.652883
 21
-11.872627
 31
0.0
  0
ELLIPSE
  5
1AB
330
1F
100
AcDbEntity
  8
Untitled
 62
     7
370
     5
100
AcDbEllipse
 10
29.277883
 20
-12.673686
 30
0.0
 11
0.9375000000000216
 21
0.0
 31
0.0
210
0.0
220
0.0
230
1.0
 40
1.0
 41
2.336160970428447
 42
3.947024336751141
  0
ELLIPSE
  5
1AC
330
1F
100
AcDbEntity
  8
Untitled
 62
     7
370
     5
100
AcDbEllipse
 10
29.277883
 20
-3.349745
 30
0.0
 11
0.9374999999999678
 21
0.0
 31
0.0
210
0.0
220
0.0
230
1.0
 40
1.0
 41
2.336160970428439
 42
3.947024336751085
  0
LINE
  5
1AD
330
1F
100
AcDbEntity
  8
Untitled
 62
     7
370
     5
100
AcDbLine
 10
29.777883
 20
13.475314
 30
0.0
 11
29.777883
 21
19.087755
 31
0.0
  0
LINE
  5
1AE
330
1F
100
AcDbEntity
  8
Untitled
 62
     7
370
     5
100
AcDbLine
 10
28.777883
 20
19.087755
 30
0.0
 11
28.777883
 21
13.475314
 31
0.0
  0
LINE
  5
1AF
330
1F
100
AcDbEntity
  8
Untitled
 62
     7
370
     5
100
AcDbLine
 10
28.777883
 20
-4.674805
 30
0.0
 11
28.777883
 21
-11.348627
 31
0.0
  0
LINE
  5
1B0
330
1F
100
AcDbEntity
  8
Untitled
 62
     7
370
     5
100
AcDbLine
 10
28.777883
 20
10.825195
 30
0.0
 11
28.777883
 21
-2.024686
 31
0.0
  0
LINE
  5
1B1
330
1F
100
AcDbEntity
  8
Untitled
 62
     7
370
     5
100
AcDbLine
 10
29.777883
 20
-2.024686
 30
0.0
 11
29.777883
 21
10.825195
 31
0.0
  0
LINE
  5
1B2
330
1F
100
AcDbEntity
  8
Untitled
 62
     7
370
     5
100
AcDbLine
 10
29.777883
 20
-11.348627
 30
0.0
 11
29.777883
 21
-4.674805
 31
0.0
  0
LINE
  5
1B3
330
1F
100
AcDbEntity
  8
Untitled
 62
     7
370
     5
100
AcDbLine
 10
28.652883
 20
11.299195
 30
0.0
 11
28.652883
 21
10.900195
 31
0.0
  0
LINE
  5
1B4
330
1F
100
AcDbEntity
  8
Untitled
 62
     7
370
     5
100
AcDbLine
 10
29.902883
 20
11.299195
 30
0.0
 11
29.902883
 21
10.900195
 31
0.0
  0
LINE
  5
1B5
330
1F
100
AcDbEntity
  8
Untitled
 62
     7
370
     5
100
AcDbLine
 10
28.727883
 20
10.825195
 30
0.0
 11
29.827883
 21
10.825195
 31
0.0
  0
LINE
  5
1B6
330
1F
100
AcDbEntity
  8
Untitled
 62
     7
370
     5
100
AcDbLine
 10
29.827883
 20
10.825195
 30
0.0
 11
29.902883
 21
10.900195
 31
0.0
  0
LINE
  5
1B7
330
1F
100
AcDbEntity
  8
Untitled
 62
     7
370
     5
100
AcDbLine
 10
28.652883
 20
10.900195
 30
0.0
 11
28.727883
 21
10.825195
 31
0.0
  0
LINE
  5
1B8
330
1F
100
AcDbEntity
  8
Untitled
 62
     7
370
     5
100
AcDbLine
 10
29.902883
 20
10.900195
 30
0.0
 11
28.652883
 21
10.900195
 31
0.0
  0
ELLIPSE
  5
1B9
330
1F
100
AcDbEntity
  8
Untitled
 62
     7
370
     5
100
AcDbEllipse
 10
29.277883
 20
12.150255
 30
0.0
 11
0.9374999999999948
 21
0.0
 31
0.0
210
0.0
220
0.0
230
1.0
 40
1.0
 41
5.477753624018268
 42
7.088616990340903
  0
LINE
  5
1BA
330
1F
100
AcDbEntity
  8
Untitled
 62
     7
370
     5
100
AcDbLine
 10
29.927383
 20
11.474195
 30
0.0
 11
28.628383
 21
11.474195
 31
0.0
  0
LINE
  5
1BB
330
1F
100
AcDbEntity
  8
Untitled
 62
     7
370
     5
100
AcDbLine
 10
29.902883
 20
11.349195
 30
0.0
 11
28.652883
 21
11.349195
 31
0.0
  0
LINE
  5
1BC
330
1F
100
AcDbEntity
  8
Untitled
 62
     7
370
     5
100
AcDbLine
 10
29.902883
 20
11.299195
 30
0.0
 11
28.652883
 21
11.299195
 31
0.0
  0
LINE
  5
1BD
330
1F
100
AcDbEntity
  8
Untitled
 62
     7
370
     5
100
AcDbLine
 10
28.702883
 20
11.324195
 30
0.0
 11
28.652883
 21
11.299195
 31
0.0
  0
LINE
  5
1BE
330
1F
100
AcDbEntity
  8
Untitled
 62
     7
370
     5
100
AcDbLine
 10
28.652883
 20
11.349195
 30
0.0
 11
28.702883
 21
11.324195
 31
0.0
  0
LINE
  5
1BF
330
1F
100
AcDbEntity
  8
Untitled
 62
     7
370
     5
100
AcDbLine
 10
29.927383
 20
12.826314
 30
0.0
 11
28.628383
 21
12.826314
 31
0.0
  0
LINE
  5
1C0
330
1F
100
AcDbEntity
  8
Untitled
 62
     7
370
     5
100
AcDbLine
 10
29.902883
 20
12.951314
 30
0.0
 11
28.652883
 21
12.951314
 31
0.0
  0
LINE
  5
1C1
330
1F
100
AcDbEntity
  8
Untitled
 62
     7
370
     5
100
AcDbLine
 10
29.902883
 20
13.001314
 30
0.0
 11
28.652883
 21
13.001314
 31
0.0
  0
LINE
  5
1C2
330
1F
100
AcDbEntity
  8
Untitled
 62
     7
370
     5
100
AcDbLine
 10
29.902883
 20
13.400314
 30
0.0
 11
28.652883
 21
13.400314
 31
0.0
  0
LINE
  5
1C3
330
1F
100
AcDbEntity
  8
Untitled
 62
     7
370
     5
100
AcDbLine
 10
28.702883
 20
12.976314
 30
0.0
 11
28.652883
 21
13.001314
 31
0.0
  0
LINE
  5
1C4
330
1F
100
AcDbEntity
  8
Untitled
 62
     7
370
     5
100
AcDbLine
 10
28.652883
 20
12.951314
 30
0.0
 11
28.702883
 21
12.976314
 31
0.0
  0
LINE
  5
1C5
330
1F
100
AcDbEntity
  8
Untitled
 62
     7
370
     5
100
AcDbLine
 10
28.652883
 20
13.400314
 30
0.0
 11
28.727883
 21
13.475314
 31
0.0
  0
LINE
  5
1C6
330
1F
100
AcDbEntity
  8
Untitled
 62
     7
370
     5
100
AcDbLine
 10
29.902883
 20
11.349195
 30
0.0
 11
29.852883
 21
11.324195
 31
0.0
  0
LINE
  5
1C7
330
1F
100
AcDbEntity
  8
Untitled
 62
     7
370
     5
100
AcDbLine
 10
29.852883
 20
11.324195
 30
0.0
 11
29.902883
 21
11.299195
 31
0.0
  0
LINE
  5
1C8
330
1F
100
AcDbEntity
  8
Untitled
 62
     7
370
     5
100
AcDbLine
 10
29.902883
 20
11.474195
 30
0.0
 11
29.902883
 21
11.349195
 31
0.0
  0
LINE
  5
1C9
330
1F
100
AcDbEntity
  8
Untitled
 62
     7
370
     5
100
AcDbLine
 10
28.727883
 20
13.475314
 30
0.0
 11
29.827883
 21
13.475314
 31
0.0
  0
LINE
  5
1CA
330
1F
100
AcDbEntity
  8
Untitled
 62
     7
370
     5
100
AcDbLine
 10
29.902883
 20
13.001314
 30
0.0
 11
29.902883
 21
13.400314
 31
0.0
  0
LINE
  5
1CB
330
1F
100
AcDbEntity
  8
Untitled
 62
     7
370
     5
100
AcDbLine
 10
29.902883
 20
12.951314
 30
0.0
 11
29.852883
 21
12.976314
 31
0.0
  0
LINE
  5
1CC
330
1F
100
AcDbEntity
  8
Untitled
 62
     7
370
     5
100
AcDbLine
 10
29.852883
 20
12.976314
 30
0.0
 11
29.902883
 21
13.001314
 31
0.0
  0
LINE
  5
1CD
330
1F
100
AcDbEntity
  8
Untitled
 62
     7
370
     5
100
AcDbLine
 10
29.902883
 20
12.826314
 30
0.0
 11
29.902883
 21
12.951314
 31
0.0
  0
LINE
  5
1CE
330
1F
100
AcDbEntity
  8
Untitled
 62
     7
370
     5
100
AcDbLine
 10
29.827883
 20
13.475314
 30
0.0
 11
29.902883
 21
13.400314
 31
0.0
  0
LINE
  5
1CF
330
1F
100
AcDbEntity
  8
Untitled
 62
     7
370
     5
100
AcDbLine
 10
27.632111
 20
11.600255
 30
0.0
 11
27.632111
 21
12.700255
 31
0.0
  0
LINE
  5
1D0
330
1F
100
AcDbEntity
  8
Untitled
 62
     7
370
     5
100
AcDbLine
 10
27.707111
 20
12.775255
 30
0.0
 11
27.707111
 21
11.525255
 31
0.0
  0
LINE
  5
1D1
330
1F
100
AcDbEntity
  8
Untitled
 62
     7
370
     5
100
AcDbLine
 10
28.579111
 20
12.775255
 30
0.0
 11
28.579111
 21
11.525255
 31
0.0
  0
LINE
  5
1D2
330
1F
100
AcDbEntity
  8
Untitled
 62
     7
370
     5
100
AcDbLine
 10
28.454111
 20
12.775255
 30
0.0
 11
28.454111
 21
11.525255
 31
0.0
  0
LINE
  5
1D3
330
1F
100
AcDbEntity
  8
Untitled
 62
     7
370
     5
100
AcDbLine
 10
28.404111
 20
12.775255
 30
0.0
 11
28.404111
 21
11.525255
 31
0.0
  0
LINE
  5
1D4
330
1F
100
AcDbEntity
  8
Untitled
 62
     7
370
     5
100
AcDbLine
 10
28.404111
 20
11.525255
 30
0.0
 11
27.707111
 21
11.525255
 31
0.0
  0
LINE
  5
1D5
330
1F
100
AcDbEntity
  8
Untitled
 62
     7
370
     5
100
AcDbLine
 10
28.429111
 20
11.575255
 30
0.0
 11
28.404111
 21
11.525255
 31
0.0
  0
LINE
  5
1D6
330
1F
100
AcDbEntity
  8
Untitled
 62
     7
370
     5
100
AcDbLine
 10
28.454111
 20
11.525255
 30
0.0
 11
28.429111
 21
11.575255
 31
0.0
  0
LINE
  5
1D7
330
1F
100
AcDbEntity
  8
Untitled
 62
     7
370
     5
100
AcDbLine
 10
28.579111
 20
11.525255
 30
0.0
 11
28.454111
 21
11.525255
 31
0.0
  0
ELLIPSE
  5
1D8
330
1F
100
AcDbEntity
  8
Untitled
 62
     7
370
     5
100
AcDbEllipse
 10
29.277883
 20
12.150255
 30
0.0
 11
0.9374999999999827
 21
0.0
 31
0.0
210
0.0
220
0.0
230
1.0
 40
1.0
 41
3.871320309816776
 42
3.947024336751114
  0
LINE
  5
1D9
330
1F
100
AcDbEntity
  8
Untitled
 62
     7
370
     5
100
AcDbLine
 10
28.652883
 20
11.474195
 30
0.0
 11
28.652883
 21
11.349195
 31
0.0
  0
LINE
  5
1DA
330
1F
100
AcDbEntity
  8
Untitled
 62
     7
370
     5
100
AcDbLine
 10
27.707111
 20
11.525255
 30
0.0
 11
27.632111
 21
11.600255
 31
0.0
  0
LINE
  5
1DB
330
1F
100
AcDbEntity
  8
Untitled
 62
     7
370
     5
100
AcDbLine
 10
28.404111
 20
12.775255
 30
0.0
 11
27.707111
 21
12.775255
 31
0.0
  0
ELLIPSE
  5
1DC
330
1F
100
AcDbEntity
  8
Untitled
 62
     7
370
     5
100
AcDbEllipse
 10
29.277883
 20
12.150255
 30
0.0
 11
0.9374999999999934
 21
0.0
 31
0.0
210
0.0
220
0.0
230
1.0
 40
1.0
 41
2.336160970428476
 42
2.411864997362814
  0
LINE
  5
1DD
330
1F
100
AcDbEntity
  8
Untitled
 62
     7
370
     5
100
AcDbLine
 10
28.454111
 20
12.775255
 30
0.0
 11
28.429111
 21
12.725255
 31
0.0
  0
LINE
  5
1DE
330
1F
100
AcDbEntity
  8
Untitled
 62
     7
370
     5
100
AcDbLine
 10
28.429111
 20
12.725255
 30
0.0
 11
28.404111
 21
12.775255
 31
0.0
  0
LINE
  5
1DF
330
1F
100
AcDbEntity
  8
Untitled
 62
     7
370
     5
100
AcDbLine
 10
28.579111
 20
12.775255
 30
0.0
 11
28.454111
 21
12.775255
 31
0.0
  0
LINE
  5
1E0
330
1F
100
AcDbEntity
  8
Untitled
 62
     7
370
     5
100
AcDbLine
 10
28.652883
 20
13.001314
 30
0.0
 11
28.652883
 21
13.400314
 31
0.0
  0
LINE
  5
1E1
330
1F
100
AcDbEntity
  8
Untitled
 62
     7
370
     5
100
AcDbLine
 10
28.652883
 20
12.826314
 30
0.0
 11
28.652883
 21
12.951314
 31
0.0
  0
LINE
  5
1E2
330
1F
100
AcDbEntity
  8
Untitled
 62
     7
370
     5
100
AcDbLine
 10
27.632111
 20
12.700255
 30
0.0
 11
27.707111
 21
12.775255
 31
0.0
  0
LINE
  5
1E3
330
1F
100
AcDbEntity
  8
Untitled
 62
     7
370
     5
100
AcDbLine
 10
28.732883
 20
19.087755
 30
0.0
 11
29.822883
 21
19.087755
 31
0.0
  0
ELLIPSE
  5
1E4
330
1F
100
AcDbEntity
  8
Untitled
 62
     7
370
     5
100
AcDbEllipse
 10
30.045383
 20
20.042755
 30
0.0
 11
0.1075000000000027
 21
0.0
 31
0.0
210
0.0
220
0.0
230
1.0
 40
1.0
 41
4.712388841893929
 42
7.853981633974483
  0
LINE
  5
1E5
330
1F
100
AcDbEntity
  8
Untitled
 62
     7
370
     5
100
AcDbLine
 10
28.510383
 20
19.935255
 30
0.0
 11
30.045383
 21
19.935255
 31
0.0
  0
ELLIPSE
  5
1E6
330
1F
100
AcDbEntity
  8
Untitled
 62
     7
370
     5
100
AcDbEllipse
 10
28.510383
 20
20.042755
 30
0.0
 11
0.1074999999999982
 21
0.0
 31
0.0
210
0.0
220
0.0
230
1.0
 40
1.0
 41
1.570796326794897
 42
4.712389118875451
  0
LINE
  5
1E7
330
1F
100
AcDbEntity
  8
Untitled
 62
     7
370
     5
100
AcDbLine
 10
30.045383
 20
20.150255
 30
0.0
 11
28.510383
 21
20.150255
 31
0.0
  0
LINE
  5
1E8
330
1F
100
AcDbEntity
  8
Untitled
 62
     7
370
     5
100
AcDbLine
 10
28.682883
 20
19.137755
 30
0.0
 11
28.682883
 21
19.337755
 31
0.0
  0
LINE
  5
1E9
330
1F
100
AcDbEntity
  8
Untitled
 62
     7
370
     5
100
AcDbLine
 10
29.872883
 20
19.137755
 30
0.0
 11
29.872883
 21
19.337755
 31
0.0
  0
LINE
  5
1EA
330
1F
100
AcDbEntity
  8
Untitled
 62
     7
370
     5
100
AcDbLine
 10
28.682883
 20
19.137755
 30
0.0
 11
28.732883
 21
19.087755
 31
0.0
  0
LINE
  5
1EB
330
1F
100
AcDbEntity
  8
Untitled
 62
     7
370
     5
100
AcDbLine
 10
29.822883
 20
19.087755
 30
0.0
 11
29.872883
 21
19.137755
 31
0.0
  0
LINE
  5
1EC
330
1F
100
AcDbEntity
  8
Untitled
 62
     7
370
     5
100
AcDbLine
 10
28.682883
 20
19.137755
 30
0.0
 11
29.872883
 21
19.137755
 31
0.0
  0
LINE
  5
1ED
330
1F
100
AcDbEntity
  8
Untitled
 62
     7
370
     5
100
AcDbLine
 10
29.872883
 20
19.337755
 30
0.0
 11
28.682883
 21
19.337755
 31
0.0
  0
ELLIPSE
  5
1EE
330
1F
100
AcDbEntity
  8
Untitled
 62
     7
370
     5
100
AcDbEllipse
 10
28.682883
 20
19.431505
 30
0.0
 11
0.09374999999998611
 21
0.0
 31
0.0
210
0.0
220
0.0
230
1.0
 40
1.0
 41
1.953395887318255
 42
4.71238898038469
  0
ELLIPSE
  5
1EF
330
1F
100
AcDbEntity
  8
Untitled
 62
     7
370
     5
100
AcDbEllipse
 10
29.872883
 20
19.431505
 30
0.0
 11
0.09375
 21
0.0
 31
0.0
210
0.0
220
0.0
230
1.0
 40
1.0
 41
4.71238898038469
 42
7.471382073451315
  0
LINE
  5
1F0
330
1F
100
AcDbEntity
  8
Untitled
 62
     7
370
     5
100
AcDbLine
 10
28.647883
 20
19.518476
 30
0.0
 11
29.907883
 21
19.518476
 31
0.0
  0
LINE
  5
1F1
330
1F
100
AcDbEntity
  8
Untitled
 62
     7
370
     5
100
AcDbLine
 10
29.907883
 20
19.518476
 30
0.0
 11
29.907883
 21
19.688476
 31
0.0
  0
ELLIPSE
  5
1F2
330
1F
100
AcDbEntity
  8
Untitled
 62
     7
370
     5
100
AcDbEllipse
 10
30.192868
 20
19.691383
 30
0.0
 11
0.2850000000000149
 21
0.0
 31
0.0
210
0.0
220
0.0
230
1.0
 40
1.0
 41
2.1147134758018
 42
3.151795475840084
  0
ELLIPSE
  5
1F3
330
1F
100
AcDbEntity
  8
Untitled
 62
     7
370
     5
100
AcDbEllipse
 10
28.362897
 20
19.691383
 30
0.0
 11
0.2850000000000011
 21
0.0
 31
0.0
210
0.0
220
0.0
230
1.0
 40
1.0
 41
6.272982484929295
 42
7.310064484967699
  0
LINE
  5
1F4
330
1F
100
AcDbEntity
  8
Untitled
 62
     7
370
     5
100
AcDbLine
 10
28.647883
 20
19.518476
 30
0.0
 11
28.647883
 21
19.688476
 31
0.0
  0
ELLIPSE
  5
1F5
330
1F
100
AcDbEntity
  8
Untitled
 62
     7
370
     5
100
AcDbEllipse
 10
-2.534617
 20
-12.673686
 30
0.0
 11
0.9375000000000223
 21
0.0
 31
0.0
210
0.0
220
0.0
230
1.0
 40
1.0
 41
2.336160970428448
 42
3.947024336751142
  0
LINE
  5
1F6
330
1F
100
AcDbEntity
  8
Untitled
 62
     7
370
     5
100
AcDbLine
 10
-3.184117
 20
-13.349745
 30
0.0
 11
-1.885117
 21
-13.349745
 31
0.0
  0
LINE
  5
1F7
330
1F
100
AcDbEntity
  8
Untitled
 62
     7
370
     5
100
AcDbLine
 10
-3.184117
 20
-11.997627
 30
0.0
 11
-1.885117
 21
-11.997627
 31
0.0
  0
LINE
  5
1F8
330
1F
100
AcDbEntity
  8
Untitled
 62
     7
370
     5
100
AcDbLine
 10
-3.159617
 20
-11.872627
 30
0.0
 11
-1.909617
 21
-11.872627
 31
0.0
  0
LINE
  5
1F9
330
1F
100
AcDbEntity
  8
Untitled
 62
     7
370
     5
100
AcDbLine
 10
-3.159617
 20
-11.822627
 30
0.0
 11
-1.909617
 21
-11.822627
 31
0.0
  0
LINE
  5
1FA
330
1F
100
AcDbEntity
  8
Untitled
 62
     7
370
     5
100
AcDbLine
 10
-3.159617
 20
-11.423627
 30
0.0
 11
-1.909617
 21
-11.423627
 31
0.0
  0
LINE
  5
1FB
330
1F
100
AcDbEntity
  8
Untitled
 62
     7
370
     5
100
AcDbLine
 10
-1.959617
 20
-11.847627
 30
0.0
 11
-1.909617
 21
-11.822627
 31
0.0
  0
LINE
  5
1FC
330
1F
100
AcDbEntity
  8
Untitled
 62
     7
370
     5
100
AcDbLine
 10
-1.909617
 20
-11.872627
 30
0.0
 11
-1.959617
 21
-11.847627
 31
0.0
  0
LINE
  5
1FD
330
1F
100
AcDbEntity
  8
Untitled
 62
     7
370
     5
100
AcDbLine
 10
-1.909617
 20
-11.423627
 30
0.0
 11
-1.984617
 21
-11.348627
 31
0.0
  0
LINE
  5
1FE
330
1F
100
AcDbEntity
  8
Untitled
 62
     7
370
     5
100
AcDbLine
 10
-1.984617
 20
-11.348627
 30
0.0
 11
-3.084617
 21
-11.348627
 31
0.0
  0
LINE
  5
1FF
330
1F
100
AcDbEntity
  8
Untitled
 62
     7
370
     5
100
AcDbLine
 10
-3.159617
 20
-11.822627
 30
0.0
 11
-3.159617
 21
-11.423627
 31
0.0
  0
LINE
  5
200
330
1F
100
AcDbEntity
  8
Untitled
 62
     7
370
     5
100
AcDbLine
 10
-3.159617
 20
-11.872627
 30
0.0
 11
-3.109617
 21
-11.847627
 31
0.0
  0
LINE
  5
201
330
1F
100
AcDbEntity
  8
Untitled
 62
     7
370
     5
100
AcDbLine
 10
-3.109617
 20
-11.847627
 30
0.0
 11
-3.159617
 21
-11.822627
 31
0.0
  0
LINE
  5
202
330
1F
100
AcDbEntity
  8
Untitled
 62
     7
370
     5
100
AcDbLine
 10
-3.159617
 20
-11.997627
 30
0.0
 11
-3.159617
 21
-11.872627
 31
0.0
  0
LINE
  5
203
330
1F
100
AcDbEntity
  8
Untitled
 62
     7
370
     5
100
AcDbLine
 10
-3.084617
 20
-11.348627
 30
0.0
 11
-3.159617
 21
-11.423627
 31
0.0
  0
LINE
  5
204
330
1F
100
AcDbEntity
  8
Untitled
 62
     7
370
     5
100
AcDbLine
 10
-1.909617
 20
-11.822627
 30
0.0
 11
-1.909617
 21
-11.423627
 31
0.0
  0
LINE
  5
205
330
1F
100
AcDbEntity
  8
Untitled
 62
     7
370
     5
100
AcDbLine
 10
-1.909617
 20
-11.997627
 30
0.0
 11
-1.909617
 21
-11.872627
 31
0.0
  0
ELLIPSE
  5
206
330
1F
100
AcDbEntity
  8
Untitled
 62
     7
370
     5
100
AcDbEllipse
 10
-2.534617
 20
-12.673686
 30
0.0
 11
0.937499999999996
 21
0.0
 31
0.0
210
0.0
220
0.0
230
1.0
 40
1.0
 41
5.477753624018266
 42
7.088616990340903
  0
LINE
  5
207
330
1F
100
AcDbEntity
  8
Untitled
 62
     7
370
     5
100
AcDbLine
 10
-3.034617
 20
13.475314
 30
0.0
 11
-3.034617
 21
19.087755
 31
0.0
  0
LINE
  5
208
330
1F
100
AcDbEntity
  8
Untitled
 62
     7
370
     5
100
AcDbLine
 10
-2.034617
 20
19.087755
 30
0.0
 11
-2.034617
 21
13.475314
 31
0.0
  0
LINE
  5
209
330
1F
100
AcDbEntity
  8
Untitled
 62
     7
370
     5
100
AcDbLine
 10
-2.034617
 20
10.825195
 30
0.0
 11
-2.034617
 21
-11.348627
 31
0.0
  0
LINE
  5
20A
330
1F
100
AcDbEntity
  8
Untitled
 62
     7
370
     5
100
AcDbLine
 10
-3.034617
 20
-11.348627
 30
0.0
 11
-3.034617
 21
10.825195
 31
0.0
  0
LINE
  5
20B
330
1F
100
AcDbEntity
  8
Untitled
 62
     7
370
     5
100
AcDbLine
 10
-1.909617
 20
11.299195
 30
0.0
 11
-1.909617
 21
10.900195
 31
0.0
  0
LINE
  5
20C
330
1F
100
AcDbEntity
  8
Untitled
 62
     7
370
     5
100
AcDbLine
 10
-3.159617
 20
11.299195
 30
0.0
 11
-3.159617
 21
10.900195
 31
0.0
  0
LINE
  5
20D
330
1F
100
AcDbEntity
  8
Untitled
 62
     7
370
     5
100
AcDbLine
 10
-1.984617
 20
10.825195
 30
0.0
 11
-3.084617
 21
10.825195
 31
0.0
  0
LINE
  5
20E
330
1F
100
AcDbEntity
  8
Untitled
 62
     7
370
     5
100
AcDbLine
 10
-3.084617
 20
10.825195
 30
0.0
 11
-3.159617
 21
10.900195
 31
0.0
  0
LINE
  5
20F
330
1F
100
AcDbEntity
  8
Untitled
 62
     7
370
     5
100
AcDbLine
 10
-1.909617
 20
10.900195
 30
0.0
 11
-1.984617
 21
10.825195
 31
0.0
  0
LINE
  5
210
330
1F
100
AcDbEntity
  8
Untitled
 62
     7
370
     5
100
AcDbLine
 10
-3.159617
 20
10.900195
 30
0.0
 11
-1.909617
 21
10.900195
 31
0.0
  0
ELLIPSE
  5
211
330
1F
100
AcDbEntity
  8
Untitled
 62
     7
370
     5
100
AcDbEllipse
 10
-2.534617
 20
12.150255
 30
0.0
 11
0.9374999999999941
 21
0.0
 31
0.0
210
0.0
220
0.0
230
1.0
 40
1.0
 41
2.336160970428477
 42
2.411864997362934
  0
LINE
  5
212
330
1F
100
AcDbEntity
  8
Untitled
 62
     7
370
     5
100
AcDbLine
 10
-3.184117
 20
11.474195
 30
0.0
 11
-1.885117
 21
11.474195
 31
0.0
  0
LINE
  5
213
330
1F
100
AcDbEntity
  8
Untitled
 62
     7
370
     5
100
AcDbLine
 10
-3.159617
 20
11.349195
 30
0.0
 11
-1.909617
 21
11.349195
 31
0.0
  0
LINE
  5
214
330
1F
100
AcDbEntity
  8
Untitled
 62
     7
370
     5
100
AcDbLine
 10
-3.159617
 20
11.299195
 30
0.0
 11
-1.909617
 21
11.299195
 31
0.0
  0
LINE
  5
215
330
1F
100
AcDbEntity
  8
Untitled
 62
     7
370
     5
100
AcDbLine
 10
-1.959617
 20
11.324195
 30
0.0
 11
-1.909617
 21
11.299195
 31
0.0
  0
LINE
  5
216
330
1F
100
AcDbEntity
  8
Untitled
 62
     7
370
     5
100
AcDbLine
 10
-1.909617
 20
11.349195
 30
0.0
 11
-1.959617
 21
11.324195
 31
0.0
  0
LINE
  5
217
330
1F
100
AcDbEntity
  8
Untitled
 62
     7
370
     5
100
AcDbLine
 10
-3.184117
 20
12.826314
 30
0.0
 11
-1.885117
 21
12.826314
 31
0.0
  0
LINE
  5
218
330
1F
100
AcDbEntity
  8
Untitled
 62
     7
370
     5
100
AcDbLine
 10
-3.159617
 20
12.951314
 30
0.0
 11
-1.909617
 21
12.951314
 31
0.0
  0
LINE
  5
219
330
1F
100
AcDbEntity
  8
Untitled
 62
     7
370
     5
100
AcDbLine
 10
-3.159617
 20
13.001314
 30
0.0
 11
-1.909617
 21
13.001314
 31
0.0
  0
LINE
  5
21A
330
1F
100
AcDbEntity
  8
Untitled
 62
     7
370
     5
100
AcDbLine
 10
-3.159617
 20
13.400314
 30
0.0
 11
-1.909617
 21
13.400314
 31
0.0
  0
LINE
  5
21B
330
1F
100
AcDbEntity
  8
Untitled
 62
     7
370
     5
100
AcDbLine
 10
-1.959617
 20
12.976314
 30
0.0
 11
-1.909617
 21
13.001314
 31
0.0
  0
LINE
  5
21C
330
1F
100
AcDbEntity
  8
Untitled
 62
     7
370
     5
100
AcDbLine
 10
-1.909617
 20
12.951314
 30
0.0
 11
-1.959617
 21
12.976314
 31
0.0
  0
LINE
  5
21D
330
1F
100
AcDbEntity
  8
Untitled
 62
     7
370
     5
100
AcDbLine
 10
-1.909617
 20
13.400314
 30
0.0
 11
-1.984617
 21
13.475314
 31
0.0
  0
LINE
  5
21E
330
1F
100
AcDbEntity
  8
Untitled
 62
     7
370
     5
100
AcDbLine
 10
-3.159617
 20
11.349195
 30
0.0
 11
-3.109617
 21
11.324195
 31
0.0
  0
LINE
  5
21F
330
1F
100
AcDbEntity
  8
Untitled
 62
     7
370
     5
100
AcDbLine
 10
-3.109617
 20
11.324195
 30
0.0
 11
-3.159617
 21
11.299195
 31
0.0
  0
LINE
  5
220
330
1F
100
AcDbEntity
  8
Untitled
 62
     7
370
     5
100
AcDbLine
 10
-3.159617
 20
11.474195
 30
0.0
 11
-3.159617
 21
11.349195
 31
0.0
  0
LINE
  5
221
330
1F
100
AcDbEntity
  8
Untitled
 62
     7
370
     5
100
AcDbLine
 10
-1.984617
 20
13.475314
 30
0.0
 11
-3.084617
 21
13.475314
 31
0.0
  0
LINE
  5
222
330
1F
100
AcDbEntity
  8
Untitled
 62
     7
370
     5
100
AcDbLine
 10
-3.159617
 20
13.001314
 30
0.0
 11
-3.159617
 21
13.400314
 31
0.0
  0
LINE
  5
223
330
1F
100
AcDbEntity
  8
Untitled
 62
     7
370
     5
100
AcDbLine
 10
-3.159617
 20
12.951314
 30
0.0
 11
-3.109617
 21
12.976314
 31
0.0
  0
LINE
  5
224
330
1F
100
AcDbEntity
  8
Untitled
 62
     7
370
     5
100
AcDbLine
 10
-3.109617
 20
12.976314
 30
0.0
 11
-3.159617
 21
13.001314
 31
0.0
  0
LINE
  5
225
330
1F
100
AcDbEntity
  8
Untitled
 62
     7
370
     5
100
AcDbLine
 10
-3.159617
 20
12.826314
 30
0.0
 11
-3.159617
 21
12.951314
 31
0.0
  0
LINE
  5
226
330
1F
100
AcDbEntity
  8
Untitled
 62
     7
370
     5
100
AcDbLine
 10
-3.084617
 20
13.475314
 30
0.0
 11
-3.159617
 21
13.400314
 31
0.0
  0
ELLIPSE
  5
227
330
1F
100
AcDbEntity
  8
Untitled
 62
     7
370
     5
100
AcDbEllipse
 10
-2.534617
 20
12.150255
 30
0.0
 11
0.9374999999999948
 21
0.0
 31
0.0
210
0.0
220
0.0
230
1.0
 40
1.0
 41
5.477753624018268
 42
5.553457650952614
  0
LINE
  5
228
330
1F
100
AcDbEntity
  8
Untitled
 62
     7
370
     5
100
AcDbLine
 10
-1.909617
 20
11.474195
 30
0.0
 11
-1.909617
 21
11.349195
 31
0.0
  0
ELLIPSE
  5
229
330
1F
100
AcDbEntity
  8
Untitled
 62
     7
370
     5
100
AcDbEllipse
 10
-2.534617
 20
12.150255
 30
0.0
 11
0.9374999999999915
 21
0.0
 31
0.0
210
0.0
220
0.0
230
1.0
 40
1.0
 41
0.7297276562269746
 42
0.80543168316132
  0
LINE
  5
22A
330
1F
100
AcDbEntity
  8
Untitled
 62
     7
370
     5
100
AcDbLine
 10
-1.909617
 20
13.001314
 30
0.0
 11
-1.909617
 21
13.400314
 31
0.0
  0
LINE
  5
22B
330
1F
100
AcDbEntity
  8
Untitled
 62
     7
370
     5
100
AcDbLine
 10
-1.909617
 20
12.826314
 30
0.0
 11
-1.909617
 21
12.951314
 31
0.0
  0
LINE
  5
22C
330
1F
100
AcDbEntity
  8
Untitled
 62
     7
370
     5
100
AcDbLine
 10
-1.989617
 20
19.087755
 30
0.0
 11
-3.079617
 21
19.087755
 31
0.0
  0
ELLIPSE
  5
22D
330
1F
100
AcDbEntity
  8
Untitled
 62
     7
370
     5
100
AcDbEllipse
 10
-3.302117
 20
20.042755
 30
0.0
 11
0.1074999999999982
 21
0.0
 31
0.0
210
0.0
220
0.0
230
1.0
 40
1.0
 41
1.570796326794897
 42
4.712389118875512
  0
LINE
  5
22E
330
1F
100
AcDbEntity
  8
Untitled
 62
     7
370
     5
100
AcDbLine
 10
-1.767117
 20
19.935255
 30
0.0
 11
-3.302117
 21
19.935255
 31
0.0
  0
ELLIPSE
  5
22F
330
1F
100
AcDbEntity
  8
Untitled
 62
     7
370
     5
100
AcDbEllipse
 10
-1.767117
 20
20.042755
 30
0.0
 11
0.1075000000000027
 21
0.0
 31
0.0
210
0.0
220
0.0
230
1.0
 40
1.0
 41
4.712388841893863
 42
7.853981633974483
  0
LINE
  5
230
330
1F
100
AcDbEntity
  8
Untitled
 62
     7
370
     5
100
AcDbLine
 10
-3.302117
 20
20.150255
 30
0.0
 11
-1.767117
 21
20.150255
 31
0.0
  0
LINE
  5
231
330
1F
100
AcDbEntity
  8
Untitled
 62
     7
370
     5
100
AcDbLine
 10
-1.939617
 20
19.137755
 30
0.0
 11
-1.939617
 21
19.337755
 31
0.0
  0
LINE
  5
232
330
1F
100
AcDbEntity
  8
Untitled
 62
     7
370
     5
100
AcDbLine
 10
-3.129617
 20
19.137755
 30
0.0
 11
-3.129617
 21
19.337755
 31
0.0
  0
LINE
  5
233
330
1F
100
AcDbEntity
  8
Untitled
 62
     7
370
     5
100
AcDbLine
 10
-1.939617
 20
19.137755
 30
0.0
 11
-1.989617
 21
19.087755
 31
0.0
  0
LINE
  5
234
330
1F
100
AcDbEntity
  8
Untitled
 62
     7
370
     5
100
AcDbLine
 10
-3.079617
 20
19.087755
 30
0.0
 11
-3.129617
 21
19.137755
 31
0.0
  0
LINE
  5
235
330
1F
100
AcDbEntity
  8
Untitled
 62
     7
370
     5
100
AcDbLine
 10
-1.939617
 20
19.137755
 30
0.0
 11
-3.129617
 21
19.137755
 31
0.0
  0
LINE
  5
236
330
1F
100
AcDbEntity
  8
Untitled
 62
     7
370
     5
100
AcDbLine
 10
-3.129617
 20
19.337755
 30
0.0
 11
-1.939617
 21
19.337755
 31
0.0
  0
ELLIPSE
  5
237
330
1F
100
AcDbEntity
  8
Untitled
 62
     7
370
     5
100
AcDbEllipse
 10
-1.939617
 20
19.431505
 30
0.0
 11
0.09374999999996092
 21
0.0
 31
0.0
210
0.0
220
0.0
230
1.0
 40
1.0
 41
4.71238898038469
 42
7.471382073451603
  0
ELLIPSE
  5
238
330
1F
100
AcDbEntity
  8
Untitled
 62
     7
370
     5
100
AcDbEllipse
 10
-3.129617
 20
19.431505
 30
0.0
 11
0.09374999999997717
 21
0.0
 31
0.0
210
0.0
220
0.0
230
1.0
 40
1.0
 41
1.95339588731812
 42
4.71238898038469
  0
LINE
  5
239
330
1F
100
AcDbEntity
  8
Untitled
 62
     7
370
     5
100
AcDbLine
 10
-1.904617
 20
19.518476
 30
0.0
 11
-3.164617
 21
19.518476
 31
0.0
  0
LINE
  5
23A
330
1F
100
AcDbEntity
  8
Untitled
 62
     7
370
     5
100
AcDbLine
 10
-3.164617
 20
19.518476
 30
0.0
 11
-3.164617
 21
19.688476
 31
0.0
  0
ELLIPSE
  5
23B
330
1F
100
AcDbEntity
  8
Untitled
 62
     7
370
     5
100
AcDbEllipse
 10
-3.449603
 20
19.691383
 30
0.0
 11
0.2850000000000074
 21
0.0
 31
0.0
210
0.0
220
0.0
230
1.0
 40
1.0
 41
6.272982484929295
 42
7.310064484967625
  0
ELLIPSE
  5
23C
330
1F
100
AcDbEntity
  8
Untitled
 62
     7
370
     5
100
AcDbEllipse
 10
-1.619632
 20
19.691383
 30
0.0
 11
0.2850000000000015
 21
0.0
 31
0.0
210
0.0
220
0.0
230
1.0
 40
1.0
 41
2.114713475801723
 42
3.151795475840084
  0
LINE
  5
23D
330
1F
100
AcDbEntity
  8
Untitled
 62
     7
370
     5
100
AcDbLine
 10
-1.904617
 20
19.518476
 30
0.0
 11
-1.904617
 21
19.688476
 31
0.0
  0
ELLIPSE
  5
23E
330
1F
100
AcDbEntity
  8
Untitled
 62
     7
370
     5
100
AcDbEllipse
 10
21.590383
 20
-12.673686
 30
0.0
 11
0.937499999999996
 21
0.0
 31
0.0
210
0.0
220
0.0
230
1.0
 40
1.0
 41
5.477753624018266
 42
7.088616990340904
  0
LINE
  5
23F
330
1F
100
AcDbEntity
  8
Untitled
 62
     7
370
     5
100
AcDbLine
 10
22.239883
 20
-13.349745
 30
0.0
 11
20.940883
 21
-13.349745
 31
0.0
  0
LINE
  5
240
330
1F
100
AcDbEntity
  8
Untitled
 62
     7
370
     5
100
AcDbLine
 10
22.239883
 20
-11.997627
 30
0.0
 11
20.940883
 21
-11.997627
 31
0.0
  0
LINE
  5
241
330
1F
100
AcDbEntity
  8
Untitled
 62
     7
370
     5
100
AcDbLine
 10
22.215383
 20
-11.872627
 30
0.0
 11
20.965383
 21
-11.872627
 31
0.0
  0
LINE
  5
242
330
1F
100
AcDbEntity
  8
Untitled
 62
     7
370
     5
100
AcDbLine
 10
22.215383
 20
-11.822627
 30
0.0
 11
20.965383
 21
-11.822627
 31
0.0
  0
LINE
  5
243
330
1F
100
AcDbEntity
  8
Untitled
 62
     7
370
     5
100
AcDbLine
 10
22.215383
 20
-11.423627
 30
0.0
 11
20.965383
 21
-11.423627
 31
0.0
  0
LINE
  5
244
330
1F
100
AcDbEntity
  8
Untitled
 62
     7
370
     5
100
AcDbLine
 10
21.015383
 20
-11.847627
 30
0.0
 11
20.965383
 21
-11.822627
 31
0.0
  0
LINE
  5
245
330
1F
100
AcDbEntity
  8
Untitled
 62
     7
370
     5
100
AcDbLine
 10
20.965383
 20
-11.872627
 30
0.0
 11
21.015383
 21
-11.847627
 31
0.0
  0
LINE
  5
246
330
1F
100
AcDbEntity
  8
Untitled
 62
     7
370
     5
100
AcDbLine
 10
20.965383
 20
-11.423627
 30
0.0
 11
21.040383
 21
-11.348627
 31
0.0
  0
LINE
  5
247
330
1F
100
AcDbEntity
  8
Untitled
 62
     7
370
     5
100
AcDbLine
 10
21.040383
 20
-11.348627
 30
0.0
 11
22.140383
 21
-11.348627
 31
0.0
  0
LINE
  5
248
330
1F
100
AcDbEntity
  8
Untitled
 62
     7
370
     5
100
AcDbLine
 10
22.215383
 20
-11.822627
 30
0.0
 11
22.215383
 21
-11.423627
 31
0.0
  0
LINE
  5
249
330
1F
100
AcDbEntity
  8
Untitled
 62
     7
370
     5
100
AcDbLine
 10
22.215383
 20
-11.872627
 30
0.0
 11
22.165383
 21
-11.847627
 31
0.0
  0
LINE
  5
24A
330
1F
100
AcDbEntity
  8
Untitled
 62
     7
370
     5
100
AcDbLine
 10
22.165383
 20
-11.847627
 30
0.0
 11
22.215383
 21
-11.822627
 31
0.0
  0
LINE
  5
24B
330
1F
100
AcDbEntity
  8
Untitled
 62
     7
370
     5
100
AcDbLine
 10
22.215383
 20
-11.997627
 30
0.0
 11
22.215383
 21
-11.872627
 31
0.0
  0
LINE
  5
24C
330
1F
100
AcDbEntity
  8
Untitled
 62
     7
370
     5
100
AcDbLine
 10
22.140383
 20
-11.348627
 30
0.0
 11
22.215383
 21
-11.423627
 31
0.0
  0
LINE
  5
24D
330
1F
100
AcDbEntity
  8
Untitled
 62
     7
370
     5
100
AcDbLine
 10
20.965383
 20
-11.822627
 30
0.0
 11
20.965383
 21
-11.423627
 31
0.0
  0
LINE
  5
24E
330
1F
100
AcDbEntity
  8
Untitled
 62
     7
370
     5
100
AcDbLine
 10
20.965383
 20
-11.997627
 30
0.0
 11
20.965383
 21
-11.872627
 31
0.0
  0
ELLIPSE
  5
24F
330
1F
100
AcDbEntity
  8
Untitled
 62
     7
370
     5
100
AcDbEllipse
 10
21.590383
 20
-12.673686
 30
0.0
 11
0.9375000000000216
 21
0.0
 31
0.0
210
0.0
220
0.0
230
1.0
 40
1.0
 41
2.336160970428447
 42
3.947024336751141
  0
LINE
  5
250
330
1F
100
AcDbEntity
  8
Untitled
 62
     7
370
     5
100
AcDbLine
 10
22.090383
 20
13.475314
 30
0.0
 11
22.090383
 21
19.087755
 31
0.0
  0
LINE
  5
251
330
1F
100
AcDbEntity
  8
Untitled
 62
     7
370
     5
100
AcDbLine
 10
21.090383
 20
19.087755
 30
0.0
 11
21.090383
 21
13.475314
 31
0.0
  0
LINE
  5
252
330
1F
100
AcDbEntity
  8
Untitled
 62
     7
370
     5
100
AcDbLine
 10
21.090383
 20
10.825195
 30
0.0
 11
21.090383
 21
-11.348627
 31
0.0
  0
LINE
  5
253
330
1F
100
AcDbEntity
  8
Untitled
 62
     7
370
     5
100
AcDbLine
 10
22.090383
 20
-11.348627
 30
0.0
 11
22.090383
 21
10.825195
 31
0.0
  0
LINE
  5
254
330
1F
100
AcDbEntity
  8
Untitled
 62
     7
370
     5
100
AcDbLine
 10
20.965383
 20
11.299195
 30
0.0
 11
20.965383
 21
10.900195
 31
0.0
  0
LINE
  5
255
330
1F
100
AcDbEntity
  8
Untitled
 62
     7
370
     5
100
AcDbLine
 10
22.215383
 20
11.299195
 30
0.0
 11
22.215383
 21
10.900195
 31
0.0
  0
LINE
  5
256
330
1F
100
AcDbEntity
  8
Untitled
 62
     7
370
     5
100
AcDbLine
 10
21.040383
 20
10.825195
 30
0.0
 11
22.140383
 21
10.825195
 31
0.0
  0
LINE
  5
257
330
1F
100
AcDbEntity
  8
Untitled
 62
     7
370
     5
100
AcDbLine
 10
22.140383
 20
10.825195
 30
0.0
 11
22.215383
 21
10.900195
 31
0.0
  0
LINE
  5
258
330
1F
100
AcDbEntity
  8
Untitled
 62
     7
370
     5
100
AcDbLine
 10
20.965383
 20
10.900195
 30
0.0
 11
21.040383
 21
10.825195
 31
0.0
  0
LINE
  5
259
330
1F
100
AcDbEntity
  8
Untitled
 62
     7
370
     5
100
AcDbLine
 10
22.215383
 20
10.900195
 30
0.0
 11
20.965383
 21
10.900195
 31
0.0
  0
ELLIPSE
  5
25A
330
1F
100
AcDbEntity
  8
Untitled
 62
     7
370
     5
100
AcDbEllipse
 10
21.590383
 20
12.150255
 30
0.0
 11
0.9374999999999948
 21
0.0
 31
0.0
210
0.0
220
0.0
230
1.0
 40
1.0
 41
5.477753624018268
 42
5.553457650952691
  0
LINE
  5
25B
330
1F
100
AcDbEntity
  8
Untitled
 62
     7
370
     5
100
AcDbLine
 10
22.239883
 20
11.474195
 30
0.0
 11
20.940883
 21
11.474195
 31
0.0
  0
LINE
  5
25C
330
1F
100
AcDbEntity
  8
Untitled
 62
     7
370
     5
100
AcDbLine
 10
22.215383
 20
11.349195
 30
0.0
 11
20.965383
 21
11.349195
 31
0.0
  0
LINE
  5
25D
330
1F
100
AcDbEntity
  8
Untitled
 62
     7
370
     5
100
AcDbLine
 10
22.215383
 20
11.299195
 30
0.0
 11
20.965383
 21
11.299195
 31
0.0
  0
LINE
  5
25E
330
1F
100
AcDbEntity
  8
Untitled
 62
     7
370
     5
100
AcDbLine
 10
21.015383
 20
11.324195
 30
0.0
 11
20.965383
 21
11.299195
 31
0.0
  0
LINE
  5
25F
330
1F
100
AcDbEntity
  8
Untitled
 62
     7
370
     5
100
AcDbLine
 10
20.965383
 20
11.349195
 30
0.0
 11
21.015383
 21
11.324195
 31
0.0
  0
LINE
  5
260
330
1F
100
AcDbEntity
  8
Untitled
 62
     7
370
     5
100
AcDbLine
 10
22.239883
 20
12.826314
 30
0.0
 11
20.940883
 21
12.826314
 31
0.0
  0
LINE
  5
261
330
1F
100
AcDbEntity
  8
Untitled
 62
     7
370
     5
100
AcDbLine
 10
22.215383
 20
12.951314
 30
0.0
 11
20.965383
 21
12.951314
 31
0.0
  0
LINE
  5
262
330
1F
100
AcDbEntity
  8
Untitled
 62
     7
370
     5
100
AcDbLine
 10
22.215383
 20
13.001314
 30
0.0
 11
20.965383
 21
13.001314
 31
0.0
  0
LINE
  5
263
330
1F
100
AcDbEntity
  8
Untitled
 62
     7
370
     5
100
AcDbLine
 10
22.215383
 20
13.400314
 30
0.0
 11
20.965383
 21
13.400314
 31
0.0
  0
LINE
  5
264
330
1F
100
AcDbEntity
  8
Untitled
 62
     7
370
     5
100
AcDbLine
 10
21.015383
 20
12.976314
 30
0.0
 11
20.965383
 21
13.001314
 31
0.0
  0
LINE
  5
265
330
1F
100
AcDbEntity
  8
Untitled
 62
     7
370
     5
100
AcDbLine
 10
20.965383
 20
12.951314
 30
0.0
 11
21.015383
 21
12.976314
 31
0.0
  0
LINE
  5
266
330
1F
100
AcDbEntity
  8
Untitled
 62
     7
370
     5
100
AcDbLine
 10
20.965383
 20
13.400314
 30
0.0
 11
21.040383
 21
13.475314
 31
0.0
  0
LINE
  5
267
330
1F
100
AcDbEntity
  8
Untitled
 62
     7
370
     5
100
AcDbLine
 10
22.215383
 20
11.349195
 30
0.0
 11
22.165383
 21
11.324195
 31
0.0
  0
LINE
  5
268
330
1F
100
AcDbEntity
  8
Untitled
 62
     7
370
     5
100
AcDbLine
 10
22.165383
 20
11.324195
 30
0.0
 11
22.215383
 21
11.299195
 31
0.0
  0
LINE
  5
269
330
1F
100
AcDbEntity
  8
Untitled
 62
     7
370
     5
100
AcDbLine
 10
22.215383
 20
11.474195
 30
0.0
 11
22.215383
 21
11.349195
 31
0.0
  0
LINE
  5
26A
330
1F
100
AcDbEntity
  8
Untitled
 62
     7
370
     5
100
AcDbLine
 10
21.040383
 20
13.475314
 30
0.0
 11
22.140383
 21
13.475314
 31
0.0
  0
LINE
  5
26B
330
1F
100
AcDbEntity
  8
Untitled
 62
     7
370
     5
100
AcDbLine
 10
22.215383
 20
13.001314
 30
0.0
 11
22.215383
 21
13.400314
 31
0.0
  0
LINE
  5
26C
330
1F
100
AcDbEntity
  8
Untitled
 62
     7
370
     5
100
AcDbLine
 10
22.215383
 20
12.951314
 30
0.0
 11
22.165383
 21
12.976314
 31
0.0
  0
LINE
  5
26D
330
1F
100
AcDbEntity
  8
Untitled
 62
     7
370
     5
100
AcDbLine
 10
22.165383
 20
12.976314
 30
0.0
 11
22.215383
 21
13.001314
 31
0.0
  0
LINE
  5
26E
330
1F
100
AcDbEntity
  8
Untitled
 62
     7
370
     5
100
AcDbLine
 10
22.215383
 20
12.826314
 30
0.0
 11
22.215383
 21
12.951314
 31
0.0
  0
LINE
  5
26F
330
1F
100
AcDbEntity
  8
Untitled
 62
     7
370
     5
100
AcDbLine
 10
22.140383
 20
13.475314
 30
0.0
 11
22.215383
 21
13.400314
 31
0.0
  0
ELLIPSE
  5
270
330
1F
100
AcDbEntity
  8
Untitled
 62
     7
370
     5
100
AcDbEllipse
 10
21.590383
 20
12.150255
 30
0.0
 11
0.9374999999999853
 21
0.0
 31
0.0
210
0.0
220
0.0
230
1.0
 40
1.0
 41
3.871320309816773
 42
3.947024336751111
  0
LINE
  5
271
330
1F
100
AcDbEntity
  8
Untitled
 62
     7
370
     5
100
AcDbLine
 10
20.965383
 20
11.474195
 30
0.0
 11
20.965383
 21
11.349195
 31
0.0
  0
ELLIPSE
  5
272
330
1F
100
AcDbEntity
  8
Untitled
 62
     7
370
     5
100
AcDbEllipse
 10
21.590383
 20
12.150255
 30
0.0
 11
0.9374999999999934
 21
0.0
 31
0.0
210
0.0
220
0.0
230
1.0
 40
1.0
 41
2.336160970428476
 42
2.411864997362814
  0
LINE
  5
273
330
1F
100
AcDbEntity
  8
Untitled
 62
     7
370
     5
100
AcDbLine
 10
20.965383
 20
13.001314
 30
0.0
 11
20.965383
 21
13.400314
 31
0.0
  0
LINE
  5
274
330
1F
100
AcDbEntity
  8
Untitled
 62
     7
370
     5
100
AcDbLine
 10
20.965383
 20
12.826314
 30
0.0
 11
20.965383
 21
12.951314
 31
0.0
  0
LINE
  5
275
330
1F
100
AcDbEntity
  8
Untitled
 62
     7
370
     5
100
AcDbLine
 10
21.045383
 20
19.087755
 30
0.0
 11
22.135383
 21
19.087755
 31
0.0
  0
ELLIPSE
  5
276
330
1F
100
AcDbEntity
  8
Untitled
 62
     7
370
     5
100
AcDbEllipse
 10
22.357883
 20
20.042755
 30
0.0
 11
0.1075000000000027
 21
0.0
 31
0.0
210
0.0
220
0.0
230
1.0
 40
1.0
 41
4.712388841893929
 42
7.853981633974483
  0
LINE
  5
277
330
1F
100
AcDbEntity
  8
Untitled
 62
     7
370
     5
100
AcDbLine
 10
20.822883
 20
19.935255
 30
0.0
 11
22.357883
 21
19.935255
 31
0.0
  0
ELLIPSE
  5
278
330
1F
100
AcDbEntity
  8
Untitled
 62
     7
370
     5
100
AcDbEllipse
 10
20.822883
 20
20.042755
 30
0.0
 11
0.1074999999999982
 21
0.0
 31
0.0
210
0.0
220
0.0
230
1.0
 40
1.0
 41
1.570796326794897
 42
4.712389118875451
  0
LINE
  5
279
330
1F
100
AcDbEntity
  8
Untitled
 62
     7
370
     5
100
AcDbLine
 10
22.357883
 20
20.150255
 30
0.0
 11
20.822883
 21
20.150255
 31
0.0
  0
LINE
  5
27A
330
1F
100
AcDbEntity
  8
Untitled
 62
     7
370
     5
100
AcDbLine
 10
20.995383
 20
19.137755
 30
0.0
 11
20.995383
 21
19.337755
 31
0.0
  0
LINE
  5
27B
330
1F
100
AcDbEntity
  8
Untitled
 62
     7
370
     5
100
AcDbLine
 10
22.185383
 20
19.137755
 30
0.0
 11
22.185383
 21
19.337755
 31
0.0
  0
LINE
  5
27C
330
1F
100
AcDbEntity
  8
Untitled
 62
     7
370
     5
100
AcDbLine
 10
20.995383
 20
19.137755
 30
0.0
 11
21.045383
 21
19.087755
 31
0.0
  0
LINE
  5
27D
330
1F
100
AcDbEntity
  8
Untitled
 62
     7
370
     5
100
AcDbLine
 10
22.135383
 20
19.087755
 30
0.0
 11
22.185383
 21
19.137755
 31
0.0
  0
LINE
  5
27E
330
1F
100
AcDbEntity
  8
Untitled
 62
     7
370
     5
100
AcDbLine
 10
20.995383
 20
19.137755
 30
0.0
 11
22.185383
 21
19.137755
 31
0.0
  0
LINE
  5
27F
330
1F
100
AcDbEntity
  8
Untitled
 62
     7
370
     5
100
AcDbLine
 10
22.185383
 20
19.337755
 30
0.0
 11
20.995383
 21
19.337755
 31
0.0
  0
ELLIPSE
  5
280
330
1F
100
AcDbEntity
  8
Untitled
 62
     7
370
     5
100
AcDbEllipse
 10
20.995383
 20
19.431505
 30
0.0
 11
0.09374999999998611
 21
0.0
 31
0.0
210
0.0
220
0.0
230
1.0
 40
1.0
 41
1.953395887318255
 42
4.71238898038469
  0
ELLIPSE
  5
281
330
1F
100
AcDbEntity
  8
Untitled
 62
     7
370
     5
100
AcDbEllipse
 10
22.185383
 20
19.431505
 30
0.0
 11
0.09375
 21
0.0
 31
0.0
210
0.0
220
0.0
230
1.0
 40
1.0
 41
4.71238898038469
 42
7.471382073451315
  0
LINE
  5
282
330
1F
100
AcDbEntity
  8
Untitled
 62
     7
370
     5
100
AcDbLine
 10
20.960383
 20
19.518476
 30
0.0
 11
22.220383
 21
19.518476
 31
0.0
  0
LINE
  5
283
330
1F
100
AcDbEntity
  8
Untitled
 62
     7
370
     5
100
AcDbLine
 10
22.220383
 20
19.518476
 30
0.0
 11
22.220383
 21
19.688476
 31
0.0
  0
ELLIPSE
  5
284
330
1F
100
AcDbEntity
  8
Untitled
 62
     7
370
     5
100
AcDbEllipse
 10
22.505368
 20
19.691383
 30
0.0
 11
0.2850000000000167
 21
0.0
 31
0.0
210
0.0
220
0.0
230
1.0
 40
1.0
 41
2.11471347580181
 42
3.151795475840084
  0
ELLIPSE
  5
285
330
1F
100
AcDbEntity
  8
Untitled
 62
     7
370
     5
100
AcDbEllipse
 10
20.675397
 20
19.691383
 30
0.0
 11
0.2850000000000082
 21
0.0
 31
0.0
210
0.0
220
0.0
230
1.0
 40
1.0
 41
6.272982484929295
 42
7.310064484967677
  0
LINE
  5
286
330
1F
100
AcDbEntity
  8
Untitled
 62
     7
370
     5
100
AcDbLine
 10
20.960383
 20
19.518476
 30
0.0
 11
20.960383
 21
19.688476
 31
0.0
  0
LINE
  5
287
330
1F
100
AcDbEntity
  8
Untitled
 62
     7
370
     5
100
AcDbLine
 10
-4.180389
 20
11.600255
 30
0.0
 11
-4.180389
 21
12.700255
 31
0.0
  0
LINE
  5
288
330
1F
100
AcDbEntity
  8
Untitled
 62
     7
370
     5
100
AcDbLine
 10
-4.105389
 20
12.775255
 30
0.0
 11
-4.105389
 21
11.525255
 31
0.0
  0
LINE
  5
289
330
1F
100
AcDbEntity
  8
Untitled
 62
     7
370
     5
100
AcDbLine
 10
-3.233389
 20
12.775255
 30
0.0
 11
-3.233389
 21
11.525255
 31
0.0
  0
LINE
  5
28A
330
1F
100
AcDbEntity
  8
Untitled
 62
     7
370
     5
100
AcDbLine
 10
-3.358389
 20
12.775255
 30
0.0
 11
-3.358389
 21
11.525255
 31
0.0
  0
LINE
  5
28B
330
1F
100
AcDbEntity
  8
Untitled
 62
     7
370
     5
100
AcDbLine
 10
-3.408389
 20
12.775255
 30
0.0
 11
-3.408389
 21
11.525255
 31
0.0
  0
LINE
  5
28C
330
1F
100
AcDbEntity
  8
Untitled
 62
     7
370
     5
100
AcDbLine
 10
-3.408389
 20
11.525255
 30
0.0
 11
-4.105389
 21
11.525255
 31
0.0
  0
LINE
  5
28D
330
1F
100
AcDbEntity
  8
Untitled
 62
     7
370
     5
100
AcDbLine
 10
-3.383389
 20
11.575255
 30
0.0
 11
-3.408389
 21
11.525255
 31
0.0
  0
LINE
  5
28E
330
1F
100
AcDbEntity
  8
Untitled
 62
     7
370
     5
100
AcDbLine
 10
-3.358389
 20
11.525255
 30
0.0
 11
-3.383389
 21
11.575255
 31
0.0
  0
LINE
  5
28F
330
1F
100
AcDbEntity
  8
Untitled
 62
     7
370
     5
100
AcDbLine
 10
-3.233389
 20
11.525255
 30
0.0
 11
-3.358389
 21
11.525255
 31
0.0
  0
LINE
  5
290
330
1F
100
AcDbEntity
  8
Untitled
 62
     7
370
     5
100
AcDbLine
 10
-4.105389
 20
11.525255
 30
0.0
 11
-4.180389
 21
11.600255
 31
0.0
  0
LINE
  5
291
330
1F
100
AcDbEntity
  8
Untitled
 62
     7
370
     5
100
AcDbLine
 10
-3.408389
 20
12.775255
 30
0.0
 11
-4.105389
 21
12.775255
 31
0.0
  0
LINE
  5
292
330
1F
100
AcDbEntity
  8
Untitled
 62
     7
370
     5
100
AcDbLine
 10
-3.358389
 20
12.775255
 30
0.0
 11
-3.383389
 21
12.725255
 31
0.0
  0
LINE
  5
293
330
1F
100
AcDbEntity
  8
Untitled
 62
     7
370
     5
100
AcDbLine
 10
-3.383389
 20
12.725255
 30
0.0
 11
-3.408389
 21
12.775255
 31
0.0
  0
LINE
  5
294
330
1F
100
AcDbEntity
  8
Untitled
 62
     7
370
     5
100
AcDbLine
 10
-3.233389
 20
12.775255
 30
0.0
 11
-3.358389
 21
12.775255
 31
0.0
  0
LINE
  5
295
330
1F
100
AcDbEntity
  8
Untitled
 62
     7
370
     5
100
AcDbLine
 10
-4.180389
 20
12.700255
 30
0.0
 11
-4.105389
 21
12.775255
 31
0.0
  0
ELLIPSE
  5
296
330
1F
100
AcDbEntity
  8
Untitled
 62
     7
370
     5
100
AcDbEllipse
 10
-2.534617
 20
12.150255
 30
0.0
 11
0.9375000000000741
 21
0.0
 31
0.0
210
0.0
220
0.0
230
1.0
 40
1.0
 41
3.871320309816689
 42
3.947024336751146
  0
LINE
  5
297
330
1F
100
AcDbEntity
  8
Untitled
 62
     7
370
     5
100
AcDbLine
 10
-8.576346
 20
12.650255
 30
0.0
 11
-4.180389
 21
12.650255
 31
0.0
  0
LINE
  5
298
330
1F
100
AcDbEntity
  8
Untitled
 62
     7
370
     5
100
AcDbLine
 10
-8.576346
 20
11.650255
 30
0.0
 11
-4.180389
 21
11.650255
 31
0.0
  0
LINE
  5
299
330
1F
100
AcDbEntity
  8
Untitled
 62
     7
370
     5
100
AcDbLine
 10
22.464154
 20
11.525255
 30
0.0
 11
23.161154
 21
11.525255
 31
0.0
  0
LINE
  5
29A
330
1F
100
AcDbEntity
  8
Untitled
 62
     7
370
     5
100
AcDbLine
 10
22.464154
 20
12.775255
 30
0.0
 11
23.161154
 21
12.775255
 31
0.0
  0
LINE
  5
29B
330
1F
100
AcDbEntity
  8
Untitled
 62
     7
370
     5
100
AcDbLine
 10
23.236154
 20
11.600255
 30
0.0
 11
23.236154
 21
12.700255
 31
0.0
  0
LINE
  5
29C
330
1F
100
AcDbEntity
  8
Untitled
 62
     7
370
     5
100
AcDbLine
 10
23.161154
 20
12.775255
 30
0.0
 11
23.161154
 21
11.525255
 31
0.0
  0
LINE
  5
29D
330
1F
100
AcDbEntity
  8
Untitled
 62
     7
370
     5
100
AcDbLine
 10
23.161154
 20
11.525255
 30
0.0
 11
23.236154
 21
11.600255
 31
0.0
  0
LINE
  5
29E
330
1F
100
AcDbEntity
  8
Untitled
 62
     7
370
     5
100
AcDbLine
 10
23.236154
 20
12.700255
 30
0.0
 11
23.161154
 21
12.775255
 31
0.0
  0
LINE
  5
29F
330
1F
100
AcDbEntity
  8
Untitled
 62
     7
370
     5
100
AcDbLine
 10
22.289154
 20
12.775255
 30
0.0
 11
22.289154
 21
11.525255
 31
0.0
  0
LINE
  5
2A0
330
1F
100
AcDbEntity
  8
Untitled
 62
     7
370
     5
100
AcDbLine
 10
22.414154
 20
12.775255
 30
0.0
 11
22.414154
 21
11.525255
 31
0.0
  0
LINE
  5
2A1
330
1F
100
AcDbEntity
  8
Untitled
 62
     7
370
     5
100
AcDbLine
 10
22.464154
 20
12.775255
 30
0.0
 11
22.464154
 21
11.525255
 31
0.0
  0
LINE
  5
2A2
330
1F
100
AcDbEntity
  8
Untitled
 62
     7
370
     5
100
AcDbLine
 10
22.439154
 20
11.575255
 30
0.0
 11
22.464154
 21
11.525255
 31
0.0
  0
LINE
  5
2A3
330
1F
100
AcDbEntity
  8
Untitled
 62
     7
370
     5
100
AcDbLine
 10
22.414154
 20
11.525255
 30
0.0
 11
22.439154
 21
11.575255
 31
0.0
  0
LINE
  5
2A4
330
1F
100
AcDbEntity
  8
Untitled
 62
     7
370
     5
100
AcDbLine
 10
22.289154
 20
11.525255
 30
0.0
 11
22.414154
 21
11.525255
 31
0.0
  0
LINE
  5
2A5
330
1F
100
AcDbEntity
  8
Untitled
 62
     7
370
     5
100
AcDbLine
 10
22.414154
 20
12.775255
 30
0.0
 11
22.439154
 21
12.725255
 31
0.0
  0
LINE
  5
2A6
330
1F
100
AcDbEntity
  8
Untitled
 62
     7
370
     5
100
AcDbLine
 10
22.439154
 20
12.725255
 30
0.0
 11
22.464154
 21
12.775255
 31
0.0
  0
LINE
  5
2A7
330
1F
100
AcDbEntity
  8
Untitled
 62
     7
370
     5
100
AcDbLine
 10
22.289154
 20
12.775255
 30
0.0
 11
22.414154
 21
12.775255
 31
0.0
  0
ELLIPSE
  5
2A8
330
1F
100
AcDbEntity
  8
Untitled
 62
     7
370
     5
100
AcDbEllipse
 10
21.590383
 20
12.150255
 30
0.0
 11
0.9375000000000163
 21
0.0
 31
0.0
210
0.0
220
0.0
230
1.0
 40
1.0
 41
0.7297276562268923
 42
0.8054316831613473
  0
LINE
  5
2A9
330
1F
100
AcDbEntity
  8
Untitled
 62
     7
370
     5
100
AcDbLine
 10
23.236154
 20
12.650255
 30
0.0
 11
27.632111
 21
12.650255
 31
0.0
  0
LINE
  5
2AA
330
1F
100
AcDbEntity
  8
Untitled
 62
     7
370
     5
100
AcDbLine
 10
23.236154
 20
11.650255
 30
0.0
 11
27.632111
 21
11.650255
 31
0.0
  0
ELLIPSE
  5
2AB
330
1F
100
AcDbEntity
  8
Untitled
 62
     7
370
     5
100
AcDbEllipse
 10
-2.12962
 20
12.150231
 30
0.0
 11
0.6349999999999935
 21
0.0
 31
0.0
210
0.0
220
0.0
230
1.0
 40
1.0
 41
1.748293490813448
 42
3.141592653589793
  0
ELLIPSE
  5
2AC
330
1F
100
AcDbEntity
  8
Untitled
 62
     7
370
     5
100
AcDbEllipse
 10
-1.786498
 20
12.275255
 30
0.0
 11
0.5000000000001197
 21
0.0
 31
0.0
210
0.0
220
0.0
230
1.0
 40
1.0
 41
0.8480620789815639
 42
1.486980429655932
  0
ELLIPSE
  5
2AD
330
1F
100
AcDbEntity
  8
Untitled
 62
     7
370
     5
100
AcDbEllipse
 10
-1.701886
 20
12.150255
 30
0.0
 11
0.6499999999999846
 21
0.0
 31
0.0
210
0.0
220
0.0
230
1.0
 40
1.0
 41
2.067741593553212
 42
3.141592653589793
  0
ELLIPSE
  5
2AE
330
1F
100
AcDbEntity
  8
Untitled
 62
     7
370
     5
100
AcDbEllipse
 10
-1.786498
 20
12.275255
 30
0.0
 11
0.5000000000000036
 21
0.0
 31
0.0
210
0.0
220
0.0
230
1.0
 40
1.0
 41
1.48698042965592
 42
2.038167253318222
  0
ELLIPSE
  5
2AF
330
1F
100
AcDbEntity
  8
Untitled
 62
     7
370
     5
100
AcDbEllipse
 10
-1.765584
 20
12.321474
 30
0.0
 11
0.3787803399819231
 21
0.0
 31
0.0
210
0.0
220
0.0
230
1.0
 40
1.0
 41
1.051155063193946
 42
2.090437590396252
  0
ELLIPSE
  5
2B0
330
1F
100
AcDbEntity
  8
Untitled
 62
     7
370
     5
100
AcDbEllipse
 10
-1.765584
 20
12.321474
 30
0.0
 11
0.3787803399819133
 21
0.0
 31
0.0
210
0.0
220
0.0
230
1.0
 40
1.0
 41
1.051155063193991
 42
1.174903767800237
  0
ELLIPSE
  5
2B1
330
1F
100
AcDbEntity
  8
Untitled
 62
     7
370
     5
100
AcDbEllipse
 10
-1.689082
 20
12.154871
 30
0.0
 11
0.5616173943100778
 21
0.0
 31
0.0
210
0.0
220
0.0
230
1.0
 40
1.0
 41
2.061364352145314
 42
3.14981317302627
  0
ELLIPSE
  5
2B2
330
1F
100
AcDbEntity
  8
Untitled
 62
     7
370
     5
100
AcDbEllipse
 10
-1.740986
 20
12.200255
 30
0.0
 11
0.4499999999999993
 21
0.0
 31
0.0
210
0.0
220
0.0
230
1.0
 40
1.0
 41
1.570796326794897
 42
2.345007984135561
  0
ELLIPSE
  5
2B3
330
1F
100
AcDbEntity
  8
Untitled
 62
     7
370
     5
100
AcDbEllipse
 10
-1.68601
 20
12.149132
 30
0.0
 11
0.5249999999999855
 21
0.0
 31
0.0
210
0.0
220
0.0
230
1.0
 40
1.0
 41
2.35179614072673
 42
3.141592653589793
  0
ELLIPSE
  5
2B4
330
1F
100
AcDbEntity
  8
Untitled
 62
     7
370
     5
100
AcDbEllipse
 10
-2.12962
 20
12.150278
 30
0.0
 11
0.6349999999999962
 21
0.0
 31
0.0
210
0.0
220
0.0
230
1.0
 40
1.0
 41
3.141592653589793
 42
4.53489181636674
  0
ELLIPSE
  5
2B5
330
1F
100
AcDbEntity
  8
Untitled
 62
     7
370
     5
100
AcDbEllipse
 10
-1.786498
 20
12.025255
 30
0.0
 11
0.5000000000000832
 21
0.0
 31
0.0
210
0.0
220
0.0
230
1.0
 40
1.0
 41
4.796204877523653
 42
5.435123228198055
  0
ELLIPSE
  5
2B6
330
1F
100
AcDbEntity
  8
Untitled
 62
     7
370
     5
100
AcDbEllipse
 10
-1.765584
 20
11.979035
 30
0.0
 11
0.3787803399819417
 21
0.0
 31
0.0
210
0.0
220
0.0
230
1.0
 40
1.0
 41
4.192747716783455
 42
5.232030243985687
  0
ELLIPSE
  5
2B7
330
1F
100
AcDbEntity
  8
Untitled
 62
     7
370
     5
100
AcDbEllipse
 10
-1.786498
 20
12.025255
 30
0.0
 11
0.4999999999999991
 21
0.0
 31
0.0
210
0.0
220
0.0
230
1.0
 40
1.0
 41
4.245018053861376
 42
4.796204877523665
  0
ELLIPSE
  5
2B8
330
1F
100
AcDbEntity
  8
Untitled
 62
     7
370
     5
100
AcDbEllipse
 10
-1.701886
 20
12.150255
 30
0.0
 11
0.6499999999999924
 21
0.0
 31
0.0
210
0.0
220
0.0
230
1.0
 40
1.0
 41
3.141592653589793
 42
4.215443713626373
  0
ELLIPSE
  5
2B9
330
1F
100
AcDbEntity
  8
Untitled
 62
     7
370
     5
100
AcDbEllipse
 10
-1.689082
 20
12.145638
 30
0.0
 11
0.5616173943100585
 21
0.0
 31
0.0
210
0.0
220
0.0
230
1.0
 40
1.0
 41
3.133372134153246
 42
4.221820955034197
  0
ELLIPSE
  5
2BA
330
1F
100
AcDbEntity
  8
Untitled
 62
     7
370
     5
100
AcDbEllipse
 10
-1.740986
 20
12.100255
 30
0.0
 11
0.4499999999999972
 21
0.0
 31
0.0
210
0.0
220
0.0
230
1.0
 40
1.0
 41
3.938177323044022
 42
4.71238898038469
  0
ELLIPSE
  5
2BB
330
1F
100
AcDbEntity
  8
Untitled
 62
     7
370
     5
100
AcDbEllipse
 10
-1.68601
 20
12.151377
 30
0.0
 11
0.5250000000000039
 21
0.0
 31
0.0
210
0.0
220
0.0
230
1.0
 40
1.0
 41
3.141592653589793
 42
3.931389166452926
  0
LINE
  5
2BC
330
1F
100
AcDbEntity
  8
Untitled
 62
     7
370
     5
100
AcDbLine
 10
-2.24174
 20
12.775255
 30
0.0
 11
-1.786498
 21
12.775255
 31
0.0
  0
LINE
  5
2BD
330
1F
100
AcDbEntity
  8
Untitled
 62
     7
370
     5
100
AcDbLine
 10
-2.24174
 20
11.525255
 30
0.0
 11
-1.786498
 21
11.525255
 31
0.0
  0
ELLIPSE
  5
2BE
330
1F
100
AcDbEntity
  8
Untitled
 62
     7
370
     5
100
AcDbEllipse
 10
21.185385
 20
12.150231
 30
0.0
 11
0.6350000000000016
 21
0.0
 31
0.0
210
0.0
220
0.0
230
1.0
 40
1.0
 41
0.0
 42
1.393299162776308
  0
ELLIPSE
  5
2BF
330
1F
100
AcDbEntity
  8
Untitled
 62
     7
370
     5
100
AcDbEllipse
 10
21.185385
 20
12.150278
 30
0.0
 11
0.6350000000000051
 21
0.0
 31
0.0
210
0.0
220
0.0
230
1.0
 40
1.0
 41
4.889886144402646
 42
6.283185307179586
  0
ELLIPSE
  5
2C0
330
1F
100
AcDbEntity
  8
Untitled
 62
     7
370
     5
100
AcDbEllipse
 10
20.842263
 20
12.275255
 30
0.0
 11
0.5000000000001229
 21
0.0
 31
0.0
210
0.0
220
0.0
230
1.0
 40
1.0
 41
1.654612223933872
 42
2.293530574608206
  0
ELLIPSE
  5
2C1
330
1F
100
AcDbEntity
  8
Untitled
 62
     7
370
     5
100
AcDbEllipse
 10
20.821349
 20
12.321474
 30
0.0
 11
0.3787803399819048
 21
0.0
 31
0.0
210
0.0
220
0.0
230
1.0
 40
1.0
 41
1.051155063193615
 42
2.0904375903958
  0
ELLIPSE
  5
2C2
330
1F
100
AcDbEntity
  8
Untitled
 62
     7
370
     5
100
AcDbEllipse
 10
20.842263
 20
12.025255
 30
0.0
 11
0.5000000000000843
 21
0.0
 31
0.0
210
0.0
220
0.0
230
1.0
 40
1.0
 41
3.989654732571325
 42
4.628573083245708
  0
ELLIPSE
  5
2C3
330
1F
100
AcDbEntity
  8
Untitled
 62
     7
370
     5
100
AcDbEllipse
 10
20.821349
 20
11.979035
 30
0.0
 11
0.3787803399819142
 21
0.0
 31
0.0
210
0.0
220
0.0
230
1.0
 40
1.0
 41
4.192747716783789
 42
5.232030243985976
  0
ELLIPSE
  5
2C4
330
1F
100
AcDbEntity
  8
Untitled
 62
     7
370
     5
100
AcDbEllipse
 10
20.757651
 20
12.150255
 30
0.0
 11
0.6499999999999595
 21
0.0
 31
0.0
210
0.0
220
0.0
230
1.0
 40
1.0
 41
0.0
 42
1.073851060036608
  0
ELLIPSE
  5
2C5
330
1F
100
AcDbEntity
  8
Untitled
 62
     7
370
     5
100
AcDbEllipse
 10
20.842263
 20
12.275255
 30
0.0
 11
0.4999999999999982
 21
0.0
 31
0.0
210
0.0
220
0.0
230
1.0
 40
1.0
 41
1.103425400271578
 42
1.654612223933893
  0
ELLIPSE
  5
2C6
330
1F
100
AcDbEntity
  8
Untitled
 62
     7
370
     5
100
AcDbEllipse
 10
20.744847
 20
12.154871
 30
0.0
 11
0.5616173943100855
 21
0.0
 31
0.0
210
0.0
220
0.0
230
1.0
 40
1.0
 41
6.274964787743109
 42
7.36341360862405
  0
ELLIPSE
  5
2C7
330
1F
100
AcDbEntity
  8
Untitled
 62
     7
370
     5
100
AcDbEllipse
 10
20.796751
 20
12.200255
 30
0.0
 11
0.4500000000000096
 21
0.0
 31
0.0
210
0.0
220
0.0
230
1.0
 40
1.0
 41
0.7965846694542007
 42
1.570796326794897
  0
ELLIPSE
  5
2C8
330
1F
100
AcDbEntity
  8
Untitled
 62
     7
370
     5
100
AcDbEllipse
 10
20.741775
 20
12.149132
 30
0.0
 11
0.5250000000000021
 21
0.0
 31
0.0
210
0.0
220
0.0
230
1.0
 40
1.0
 41
0.0
 42
0.7897965128630591
  0
ELLIPSE
  5
2C9
330
1F
100
AcDbEntity
  8
Untitled
 62
     7
370
     5
100
AcDbEllipse
 10
20.842263
 20
12.025255
 30
0.0
 11
0.5000000000000061
 21
0.0
 31
0.0
210
0.0
220
0.0
230
1.0
 40
1.0
 41
4.628573083245695
 42
5.179759906908008
  0
ELLIPSE
  5
2CA
330
1F
100
AcDbEntity
  8
Untitled
 62
     7
370
     5
100
AcDbEllipse
 10
20.757651
 20
12.150255
 30
0.0
 11
0.6499999999999797
 21
0.0
 31
0.0
210
0.0
220
0.0
230
1.0
 40
1.0
 41
5.209334247142979
 42
6.283185307179586
  0
ELLIPSE
  5
2CB
330
1F
100
AcDbEntity
  8
Untitled
 62
     7
370
     5
100
AcDbEllipse
 10
20.744847
 20
12.145638
 30
0.0
 11
0.5616173943100488
 21
0.0
 31
0.0
210
0.0
220
0.0
230
1.0
 40
1.0
 41
5.202957005735159
 42
6.291405826616134
  0
ELLIPSE
  5
2CC
330
1F
100
AcDbEntity
  8
Untitled
 62
     7
370
     5
100
AcDbEllipse
 10
20.796751
 20
12.100255
 30
0.0
 11
0.4499999999999993
 21
0.0
 31
0.0
210
0.0
220
0.0
230
1.0
 40
1.0
 41
4.71238898038469
 42
5.486600637725383
  0
ELLIPSE
  5
2CD
330
1F
100
AcDbEntity
  8
Untitled
 62
     7
370
     5
100
AcDbEllipse
 10
20.741775
 20
12.151377
 30
0.0
 11
0.5250000000000152
 21
0.0
 31
0.0
210
0.0
220
0.0
230
1.0
 40
1.0
 41
5.49338879431647
 42
6.283185307179586
  0
LINE
  5
2CE
330
1F
100
AcDbEntity
  8
Untitled
 62
     7
370
     5
100
AcDbLine
 10
21.297505
 20
12.775255
 30
0.0
 11
20.842263
 21
12.775255
 31
0.0
  0
LINE
  5
2CF
330
1F
100
AcDbEntity
  8
Untitled
 62
     7
370
     5
100
AcDbLine
 10
21.297505
 20
11.525255
 30
0.0
 11
20.842263
 21
11.525255
 31
0.0
  0
ELLIPSE
  5
2D0
330
1F
100
AcDbEntity
  8
Untitled
 62
     7
370
     5
100
AcDbEllipse
 10
20.821349
 20
12.321474
 30
0.0
 11
0.3787803399818847
 21
0.0
 31
0.0
210
0.0
220
0.0
230
1.0
 40
1.0
 41
1.966688885789601
 42
2.090437590395843
  0
LINE
  5
2D1
330
1F
100
AcDbEntity
  8
Untitled
 62
     7
370
     5
100
AcDbLine
 10
-1.740986
 20
12.650255
 30
0.0
 11
20.796751
 21
12.650255
 31
0.0
  0
LINE
  5
2D2
330
1F
100
AcDbEntity
  8
Untitled
 62
     7
370
     5
100
AcDbLine
 10
20.796751
 20
11.650255
 30
0.0
 11
-1.740986
 21
11.650255
 31
0.0
  0
LINE
  5
2D3
330
1F
100
AcDbEntity
  8
Untitled
 62
     7
370
     5
100
AcDbLine
 10
45.402883
 20
11.299195
 30
0.0
 11
45.402883
 21
10.900195
 31
0.0
  0
LINE
  5
2D4
330
1F
100
AcDbEntity
  8
Untitled
 62
     7
370
     5
100
AcDbLine
 10
44.152883
 20
11.299195
 30
0.0
 11
44.152883
 21
10.900195
 31
0.0
  0
LINE
  5
2D5
330
1F
100
AcDbEntity
  8
Untitled
 62
     7
370
     5
100
AcDbLine
 10
44.152883
 20
-2.673686
 30
0.0
 11
44.152883
 21
-2.548686
 31
0.0
  0
LINE
  5
2D6
330
1F
100
AcDbEntity
  8
Untitled
 62
     7
370
     5
100
AcDbLine
 10
45.402883
 20
-2.673686
 30
0.0
 11
45.402883
 21
-2.548686
 31
0.0
  0
LINE
  5
2D7
330
1F
100
AcDbEntity
  8
Untitled
 62
     7
370
     5
100
AcDbLine
 10
45.277883
 20
-4.674805
 30
0.0
 11
45.277883
 21
-11.348627
 31
0.0
  0
LINE
  5
2D8
330
1F
100
AcDbEntity
  8
Untitled
 62
     7
370
     5
100
AcDbLine
 10
44.277883
 20
-11.348627
 30
0.0
 11
44.277883
 21
-4.674805
 31
0.0
  0
ELLIPSE
  5
2D9
330
1F
100
AcDbEntity
  8
Untitled
 62
     7
370
     5
100
AcDbEllipse
 10
44.777883
 20
-12.673686
 30
0.0
 11
0.9375000000000192
 21
0.0
 31
0.0
210
0.0
220
0.0
230
1.0
 40
1.0
 41
2.336160970428445
 42
3.947024336751144
  0
LINE
  5
2DA
330
1F
100
AcDbEntity
  8
Untitled
 62
     7
370
     5
100
AcDbLine
 10
44.128383
 20
-13.349745
 30
0.0
 11
45.427383
 21
-13.349745
 31
0.0
  0
LINE
  5
2DB
330
1F
100
AcDbEntity
  8
Untitled
 62
     7
370
     5
100
AcDbLine
 10
44.128383
 20
-11.997627
 30
0.0
 11
45.427383
 21
-11.997627
 31
0.0
  0
LINE
  5
2DC
330
1F
100
AcDbEntity
  8
Untitled
 62
     7
370
     5
100
AcDbLine
 10
44.152883
 20
-11.872627
 30
0.0
 11
45.402883
 21
-11.872627
 31
0.0
  0
LINE
  5
2DD
330
1F
100
AcDbEntity
  8
Untitled
 62
     7
370
     5
100
AcDbLine
 10
44.152883
 20
-11.822627
 30
0.0
 11
45.402883
 21
-11.822627
 31
0.0
  0
LINE
  5
2DE
330
1F
100
AcDbEntity
  8
Untitled
 62
     7
370
     5
100
AcDbLine
 10
44.152883
 20
-11.423627
 30
0.0
 11
45.402883
 21
-11.423627
 31
0.0
  0
LINE
  5
2DF
330
1F
100
AcDbEntity
  8
Untitled
 62
     7
370
     5
100
AcDbLine
 10
45.352883
 20
-11.847627
 30
0.0
 11
45.402883
 21
-11.822627
 31
0.0
  0
LINE
  5
2E0
330
1F
100
AcDbEntity
  8
Untitled
 62
     7
370
     5
100
AcDbLine
 10
45.402883
 20
-11.872627
 30
0.0
 11
45.352883
 21
-11.847627
 31
0.0
  0
LINE
  5
2E1
330
1F
100
AcDbEntity
  8
Untitled
 62
     7
370
     5
100
AcDbLine
 10
45.402883
 20
-11.423627
 30
0.0
 11
45.327883
 21
-11.348627
 31
0.0
  0
LINE
  5
2E2
330
1F
100
AcDbEntity
  8
Untitled
 62
     7
370
     5
100
AcDbLine
 10
45.327883
 20
-11.348627
 30
0.0
 11
44.227883
 21
-11.348627
 31
0.0
  0
LINE
  5
2E3
330
1F
100
AcDbEntity
  8
Untitled
 62
     7
370
     5
100
AcDbLine
 10
44.152883
 20
-11.822627
 30
0.0
 11
44.152883
 21
-11.423627
 31
0.0
  0
LINE
  5
2E4
330
1F
100
AcDbEntity
  8
Untitled
 62
     7
370
     5
100
AcDbLine
 10
44.152883
 20
-11.872627
 30
0.0
 11
44.202883
 21
-11.847627
 31
0.0
  0
LINE
  5
2E5
330
1F
100
AcDbEntity
  8
Untitled
 62
     7
370
     5
100
AcDbLine
 10
44.202883
 20
-11.847627
 30
0.0
 11
44.152883
 21
-11.822627
 31
0.0
  0
LINE
  5
2E6
330
1F
100
AcDbEntity
  8
Untitled
 62
     7
370
     5
100
AcDbLine
 10
44.152883
 20
-11.997627
 30
0.0
 11
44.152883
 21
-11.872627
 31
0.0
  0
LINE
  5
2E7
330
1F
100
AcDbEntity
  8
Untitled
 62
     7
370
     5
100
AcDbLine
 10
44.227883
 20
-11.348627
 30
0.0
 11
44.152883
 21
-11.423627
 31
0.0
  0
ELLIPSE
  5
2E8
330
1F
100
AcDbEntity
  8
Untitled
 62
     7
370
     5
100
AcDbEllipse
 10
44.777883
 20
-12.673686
 30
0.0
 11
0.9374999999999984
 21
0.0
 31
0.0
210
0.0
220
0.0
230
1.0
 40
1.0
 41
5.47775362401827
 42
7.088616990340902
  0
LINE
  5
2E9
330
1F
100
AcDbEntity
  8
Untitled
 62
     7
370
     5
100
AcDbLine
 10
45.402883
 20
-11.822627
 30
0.0
 11
45.402883
 21
-11.423627
 31
0.0
  0
LINE
  5
2EA
330
1F
100
AcDbEntity
  8
Untitled
 62
     7
370
     5
100
AcDbLine
 10
45.402883
 20
-11.997627
 30
0.0
 11
45.402883
 21
-11.872627
 31
0.0
  0
LINE
  5
2EB
330
1F
100
AcDbEntity
  8
Untitled
 62
     7
370
     5
100
AcDbLine
 10
45.402883
 20
-4.200805
 30
0.0
 11
45.402883
 21
-4.599805
 31
0.0
  0
LINE
  5
2EC
330
1F
100
AcDbEntity
  8
Untitled
 62
     7
370
     5
100
AcDbLine
 10
44.152883
 20
-4.200805
 30
0.0
 11
44.152883
 21
-4.599805
 31
0.0
  0
LINE
  5
2ED
330
1F
100
AcDbEntity
  8
Untitled
 62
     7
370
     5
100
AcDbLine
 10
45.327883
 20
-4.674805
 30
0.0
 11
44.227883
 21
-4.674805
 31
0.0
  0
LINE
  5
2EE
330
1F
100
AcDbEntity
  8
Untitled
 62
     7
370
     5
100
AcDbLine
 10
44.227883
 20
-4.674805
 30
0.0
 11
44.152883
 21
-4.599805
 31
0.0
  0
LINE
  5
2EF
330
1F
100
AcDbEntity
  8
Untitled
 62
     7
370
     5
100
AcDbLine
 10
45.402883
 20
-4.599805
 30
0.0
 11
45.327883
 21
-4.674805
 31
0.0
  0
LINE
  5
2F0
330
1F
100
AcDbEntity
  8
Untitled
 62
     7
370
     5
100
AcDbLine
 10
44.152883
 20
-4.599805
 30
0.0
 11
45.402883
 21
-4.599805
 31
0.0
  0
ELLIPSE
  5
2F1
330
1F
100
AcDbEntity
  8
Untitled
 62
     7
370
     5
100
AcDbEllipse
 10
44.777883
 20
-3.349745
 30
0.0
 11
0.9375000000000002
 21
0.0
 31
0.0
210
0.0
220
0.0
230
1.0
 40
1.0
 41
2.336160970428464
 42
3.947024336751121
  0
LINE
  5
2F2
330
1F
100
AcDbEntity
  8
Untitled
 62
     7
370
     5
100
AcDbLine
 10
44.128383
 20
-4.025805
 30
0.0
 11
45.427383
 21
-4.025805
 31
0.0
  0
LINE
  5
2F3
330
1F
100
AcDbEntity
  8
Untitled
 62
     7
370
     5
100
AcDbLine
 10
44.152883
 20
-4.150805
 30
0.0
 11
45.402883
 21
-4.150805
 31
0.0
  0
LINE
  5
2F4
330
1F
100
AcDbEntity
  8
Untitled
 62
     7
370
     5
100
AcDbLine
 10
44.152883
 20
-4.200805
 30
0.0
 11
45.402883
 21
-4.200805
 31
0.0
  0
LINE
  5
2F5
330
1F
100
AcDbEntity
  8
Untitled
 62
     7
370
     5
100
AcDbLine
 10
45.352883
 20
-4.175805
 30
0.0
 11
45.402883
 21
-4.200805
 31
0.0
  0
LINE
  5
2F6
330
1F
100
AcDbEntity
  8
Untitled
 62
     7
370
     5
100
AcDbLine
 10
45.402883
 20
-4.150805
 30
0.0
 11
45.352883
 21
-4.175805
 31
0.0
  0
LINE
  5
2F7
330
1F
100
AcDbEntity
  8
Untitled
 62
     7
370
     5
100
AcDbLine
 10
44.128383
 20
-2.673686
 30
0.0
 11
45.427383
 21
-2.673686
 31
0.0
  0
LINE
  5
2F8
330
1F
100
AcDbEntity
  8
Untitled
 62
     7
370
     5
100
AcDbLine
 10
44.152883
 20
-4.150805
 30
0.0
 11
44.202883
 21
-4.175805
 31
0.0
  0
LINE
  5
2F9
330
1F
100
AcDbEntity
  8
Untitled
 62
     7
370
     5
100
AcDbLine
 10
44.202883
 20
-4.175805
 30
0.0
 11
44.152883
 21
-4.200805
 31
0.0
  0
LINE
  5
2FA
330
1F
100
AcDbEntity
  8
Untitled
 62
     7
370
     5
100
AcDbLine
 10
44.152883
 20
-4.025805
 30
0.0
 11
44.152883
 21
-4.150805
 31
0.0
  0
ELLIPSE
  5
2FB
330
1F
100
AcDbEntity
  8
Untitled
 62
     7
370
     5
100
AcDbEllipse
 10
44.777883
 20
-3.349745
 30
0.0
 11
0.9375000000000026
 21
0.0
 31
0.0
210
0.0
220
0.0
230
1.0
 40
1.0
 41
5.477753624018265
 42
5.553457650952954
  0
LINE
  5
2FC
330
1F
100
AcDbEntity
  8
Untitled
 62
     7
370
     5
100
AcDbLine
 10
45.402883
 20
-4.025805
 30
0.0
 11
45.402883
 21
-4.150805
 31
0.0
  0
LINE
  5
2FD
330
1F
100
AcDbEntity
  8
Untitled
 62
     7
370
     5
100
AcDbLine
 10
45.327883
 20
10.825195
 30
0.0
 11
44.227883
 21
10.825195
 31
0.0
  0
LINE
  5
2FE
330
1F
100
AcDbEntity
  8
Untitled
 62
     7
370
     5
100
AcDbLine
 10
44.227883
 20
10.825195
 30
0.0
 11
44.152883
 21
10.900195
 31
0.0
  0
LINE
  5
2FF
330
1F
100
AcDbEntity
  8
Untitled
 62
     7
370
     5
100
AcDbLine
 10
45.402883
 20
10.900195
 30
0.0
 11
45.327883
 21
10.825195
 31
0.0
  0
LINE
  5
300
330
1F
100
AcDbEntity
  8
Untitled
 62
     7
370
     5
100
AcDbLine
 10
44.152883
 20
10.900195
 30
0.0
 11
45.402883
 21
10.900195
 31
0.0
  0
LINE
  5
301
330
1F
100
AcDbEntity
  8
Untitled
 62
     7
370
     5
100
AcDbLine
 10
44.152883
 20
-2.548686
 30
0.0
 11
45.402883
 21
-2.548686
 31
0.0
  0
LINE
  5
302
330
1F
100
AcDbEntity
  8
Untitled
 62
     7
370
     5
100
AcDbLine
 10
44.152883
 20
-2.498686
 30
0.0
 11
45.402883
 21
-2.498686
 31
0.0
  0
LINE
  5
303
330
1F
100
AcDbEntity
  8
Untitled
 62
     7
370
     5
100
AcDbLine
 10
44.152883
 20
-2.099686
 30
0.0
 11
45.402883
 21
-2.099686
 31
0.0
  0
LINE
  5
304
330
1F
100
AcDbEntity
  8
Untitled
 62
     7
370
     5
100
AcDbLine
 10
45.352883
 20
-2.523686
 30
0.0
 11
45.402883
 21
-2.498686
 31
0.0
  0
LINE
  5
305
330
1F
100
AcDbEntity
  8
Untitled
 62
     7
370
     5
100
AcDbLine
 10
45.402883
 20
-2.548686
 30
0.0
 11
45.352883
 21
-2.523686
 31
0.0
  0
LINE
  5
306
330
1F
100
AcDbEntity
  8
Untitled
 62
     7
370
     5
100
AcDbLine
 10
45.402883
 20
-2.099686
 30
0.0
 11
45.327883
 21
-2.024686
 31
0.0
  0
LINE
  5
307
330
1F
100
AcDbEntity
  8
Untitled
 62
     7
370
     5
100
AcDbLine
 10
45.327883
 20
-2.024686
 30
0.0
 11
44.227883
 21
-2.024686
 31
0.0
  0
LINE
  5
308
330
1F
100
AcDbEntity
  8
Untitled
 62
     7
370
     5
100
AcDbLine
 10
44.152883
 20
-2.498686
 30
0.0
 11
44.152883
 21
-2.099686
 31
0.0
  0
LINE
  5
309
330
1F
100
AcDbEntity
  8
Untitled
 62
     7
370
     5
100
AcDbLine
 10
44.152883
 20
-2.548686
 30
0.0
 11
44.202883
 21
-2.523686
 31
0.0
  0
LINE
  5
30A
330
1F
100
AcDbEntity
  8
Untitled
 62
     7
370
     5
100
AcDbLine
 10
44.202883
 20
-2.523686
 30
0.0
 11
44.152883
 21
-2.498686
 31
0.0
  0
LINE
  5
30B
330
1F
100
AcDbEntity
  8
Untitled
 62
     7
370
     5
100
AcDbLine
 10
44.227883
 20
-2.024686
 30
0.0
 11
44.152883
 21
-2.099686
 31
0.0
  0
LINE
  5
30C
330
1F
100
AcDbEntity
  8
Untitled
 62
     7
370
     5
100
AcDbLine
 10
45.402883
 20
-2.498686
 30
0.0
 11
45.402883
 21
-2.099686
 31
0.0
  0
LINE
  5
30D
330
1F
100
AcDbEntity
  8
Untitled
 62
     7
370
     5
100
AcDbLine
 10
44.277883
 20
-2.024686
 30
0.0
 11
44.277883
 21
10.825195
 31
0.0
  0
LINE
  5
30E
330
1F
100
AcDbEntity
  8
Untitled
 62
     7
370
     5
100
AcDbLine
 10
45.277883
 20
10.825195
 30
0.0
 11
45.277883
 21
-2.024686
 31
0.0
  0
LINE
  5
30F
330
1F
100
AcDbEntity
  8
Untitled
 62
     7
370
     5
100
AcDbLine
 10
44.277883
 20
13.475314
 30
0.0
 11
44.277883
 21
19.087755
 31
0.0
  0
LINE
  5
310
330
1F
100
AcDbEntity
  8
Untitled
 62
     7
370
     5
100
AcDbLine
 10
45.277883
 20
19.087755
 30
0.0
 11
45.277883
 21
13.475314
 31
0.0
  0
LINE
  5
311
330
1F
100
AcDbEntity
  8
Untitled
 62
     7
370
     5
100
AcDbLine
 10
45.476654
 20
11.525255
 30
0.0
 11
45.601654
 21
11.525255
 31
0.0
  0
LINE
  5
312
330
1F
100
AcDbEntity
  8
Untitled
 62
     7
370
     5
100
AcDbLine
 10
45.476654
 20
12.775255
 30
0.0
 11
45.601654
 21
12.775255
 31
0.0
  0
LINE
  5
313
330
1F
100
AcDbEntity
  8
Untitled
 62
     7
370
     5
100
AcDbLine
 10
45.402883
 20
12.826314
 30
0.0
 11
45.402883
 21
12.951314
 31
0.0
  0
LINE
  5
314
330
1F
100
AcDbEntity
  8
Untitled
 62
     7
370
     5
100
AcDbLine
 10
44.152883
 20
12.826314
 30
0.0
 11
44.152883
 21
12.951314
 31
0.0
  0
ELLIPSE
  5
315
330
1F
100
AcDbEntity
  8
Untitled
 62
     7
370
     5
100
AcDbEllipse
 10
44.777883
 20
12.150255
 30
0.0
 11
0.9374999999998661
 21
0.0
 31
0.0
210
0.0
220
0.0
230
1.0
 40
1.0
 41
0.7297276562270941
 42
0.8054316831611962
  0
LINE
  5
316
330
1F
100
AcDbEntity
  8
Untitled
 62
     7
370
     5
100
AcDbLine
 10
45.476654
 20
12.775255
 30
0.0
 11
45.476654
 21
11.525255
 31
0.0
  0
LINE
  5
317
330
1F
100
AcDbEntity
  8
Untitled
 62
     7
370
     5
100
AcDbLine
 10
44.128383
 20
12.826314
 30
0.0
 11
45.427383
 21
12.826314
 31
0.0
  0
ELLIPSE
  5
318
330
1F
100
AcDbEntity
  8
Untitled
 62
     7
370
     5
100
AcDbEllipse
 10
44.777883
 20
12.150255
 30
0.0
 11
0.937499999999991
 21
0.0
 31
0.0
210
0.0
220
0.0
230
1.0
 40
1.0
 41
2.336160970428474
 42
3.947024336751114
  0
LINE
  5
319
330
1F
100
AcDbEntity
  8
Untitled
 62
     7
370
     5
100
AcDbLine
 10
44.128383
 20
11.474195
 30
0.0
 11
45.427383
 21
11.474195
 31
0.0
  0
ELLIPSE
  5
31A
330
1F
100
AcDbEntity
  8
Untitled
 62
     7
370
     5
100
AcDbEllipse
 10
44.777883
 20
12.150255
 30
0.0
 11
0.9374999999999971
 21
0.0
 31
0.0
210
0.0
220
0.0
230
1.0
 40
1.0
 41
5.477753624018271
 42
5.553457650952367
  0
LINE
  5
31B
330
1F
100
AcDbEntity
  8
Untitled
 62
     7
370
     5
100
AcDbLine
 10
44.152883
 20
11.349195
 30
0.0
 11
45.402883
 21
11.349195
 31
0.0
  0
LINE
  5
31C
330
1F
100
AcDbEntity
  8
Untitled
 62
     7
370
     5
100
AcDbLine
 10
44.152883
 20
11.299195
 30
0.0
 11
45.402883
 21
11.299195
 31
0.0
  0
LINE
  5
31D
330
1F
100
AcDbEntity
  8
Untitled
 62
     7
370
     5
100
AcDbLine
 10
44.152883
 20
11.349195
 30
0.0
 11
44.202883
 21
11.324195
 31
0.0
  0
LINE
  5
31E
330
1F
100
AcDbEntity
  8
Untitled
 62
     7
370
     5
100
AcDbLine
 10
44.202883
 20
11.324195
 30
0.0
 11
44.152883
 21
11.299195
 31
0.0
  0
LINE
  5
31F
330
1F
100
AcDbEntity
  8
Untitled
 62
     7
370
     5
100
AcDbLine
 10
45.352883
 20
11.324195
 30
0.0
 11
45.402883
 21
11.299195
 31
0.0
  0
LINE
  5
320
330
1F
100
AcDbEntity
  8
Untitled
 62
     7
370
     5
100
AcDbLine
 10
45.402883
 20
11.349195
 30
0.0
 11
45.352883
 21
11.324195
 31
0.0
  0
LINE
  5
321
330
1F
100
AcDbEntity
  8
Untitled
 62
     7
370
     5
100
AcDbLine
 10
45.402883
 20
11.474195
 30
0.0
 11
45.402883
 21
11.349195
 31
0.0
  0
LINE
  5
322
330
1F
100
AcDbEntity
  8
Untitled
 62
     7
370
     5
100
AcDbLine
 10
44.152883
 20
11.474195
 30
0.0
 11
44.152883
 21
11.349195
 31
0.0
  0
LINE
  5
323
330
1F
100
AcDbEntity
  8
Untitled
 62
     7
370
     5
100
AcDbLine
 10
45.402883
 20
13.001314
 30
0.0
 11
45.402883
 21
13.400314
 31
0.0
  0
LINE
  5
324
330
1F
100
AcDbEntity
  8
Untitled
 62
     7
370
     5
100
AcDbLine
 10
44.152883
 20
13.001314
 30
0.0
 11
44.152883
 21
13.400314
 31
0.0
  0
LINE
  5
325
330
1F
100
AcDbEntity
  8
Untitled
 62
     7
370
     5
100
AcDbLine
 10
44.152883
 20
12.951314
 30
0.0
 11
45.402883
 21
12.951314
 31
0.0
  0
LINE
  5
326
330
1F
100
AcDbEntity
  8
Untitled
 62
     7
370
     5
100
AcDbLine
 10
44.152883
 20
13.001314
 30
0.0
 11
45.402883
 21
13.001314
 31
0.0
  0
LINE
  5
327
330
1F
100
AcDbEntity
  8
Untitled
 62
     7
370
     5
100
AcDbLine
 10
44.152883
 20
12.951314
 30
0.0
 11
44.202883
 21
12.976314
 31
0.0
  0
LINE
  5
328
330
1F
100
AcDbEntity
  8
Untitled
 62
     7
370
     5
100
AcDbLine
 10
44.202883
 20
12.976314
 30
0.0
 11
44.152883
 21
13.001314
 31
0.0
  0
LINE
  5
329
330
1F
100
AcDbEntity
  8
Untitled
 62
     7
370
     5
100
AcDbLine
 10
45.352883
 20
12.976314
 30
0.0
 11
45.402883
 21
13.001314
 31
0.0
  0
LINE
  5
32A
330
1F
100
AcDbEntity
  8
Untitled
 62
     7
370
     5
100
AcDbLine
 10
45.402883
 20
12.951314
 30
0.0
 11
45.352883
 21
12.976314
 31
0.0
  0
LINE
  5
32B
330
1F
100
AcDbEntity
  8
Untitled
 62
     7
370
     5
100
AcDbLine
 10
45.327883
 20
13.475314
 30
0.0
 11
44.227883
 21
13.475314
 31
0.0
  0
LINE
  5
32C
330
1F
100
AcDbEntity
  8
Untitled
 62
     7
370
     5
100
AcDbLine
 10
44.227883
 20
13.475314
 30
0.0
 11
44.152883
 21
13.400314
 31
0.0
  0
LINE
  5
32D
330
1F
100
AcDbEntity
  8
Untitled
 62
     7
370
     5
100
AcDbLine
 10
45.402883
 20
13.400314
 30
0.0
 11
45.327883
 21
13.475314
 31
0.0
  0
LINE
  5
32E
330
1F
100
AcDbEntity
  8
Untitled
 62
     7
370
     5
100
AcDbLine
 10
44.152883
 20
13.400314
 30
0.0
 11
45.402883
 21
13.400314
 31
0.0
  0
LINE
  5
32F
330
1F
100
AcDbEntity
  8
Untitled
 62
     7
370
     5
100
AcDbLine
 10
45.651654
 20
11.525255
 30
0.0
 11
46.348654
 21
11.525255
 31
0.0
  0
LINE
  5
330
330
1F
100
AcDbEntity
  8
Untitled
 62
     7
370
     5
100
AcDbLine
 10
46.423654
 20
11.600255
 30
0.0
 11
46.423654
 21
12.700255
 31
0.0
  0
LINE
  5
331
330
1F
100
AcDbEntity
  8
Untitled
 62
     7
370
     5
100
AcDbLine
 10
45.651654
 20
12.775255
 30
0.0
 11
46.348654
 21
12.775255
 31
0.0
  0
LINE
  5
332
330
1F
100
AcDbEntity
  8
Untitled
 62
     7
370
     5
100
AcDbLine
 10
46.423654
 20
12.700255
 30
0.0
 11
46.348654
 21
12.775255
 31
0.0
  0
LINE
  5
333
330
1F
100
AcDbEntity
  8
Untitled
 62
     7
370
     5
100
AcDbLine
 10
46.348654
 20
11.525255
 30
0.0
 11
46.423654
 21
11.600255
 31
0.0
  0
LINE
  5
334
330
1F
100
AcDbEntity
  8
Untitled
 62
     7
370
     5
100
AcDbLine
 10
46.348654
 20
12.775255
 30
0.0
 11
46.348654
 21
11.525255
 31
0.0
  0
LINE
  5
335
330
1F
100
AcDbEntity
  8
Untitled
 62
     7
370
     5
100
AcDbLine
 10
45.601654
 20
12.775255
 30
0.0
 11
45.601654
 21
11.525255
 31
0.0
  0
LINE
  5
336
330
1F
100
AcDbEntity
  8
Untitled
 62
     7
370
     5
100
AcDbLine
 10
45.651654
 20
12.775255
 30
0.0
 11
45.651654
 21
11.525255
 31
0.0
  0
LINE
  5
337
330
1F
100
AcDbEntity
  8
Untitled
 62
     7
370
     5
100
AcDbLine
 10
45.601654
 20
12.775255
 30
0.0
 11
45.626654
 21
12.725255
 31
0.0
  0
LINE
  5
338
330
1F
100
AcDbEntity
  8
Untitled
 62
     7
370
     5
100
AcDbLine
 10
45.626654
 20
12.725255
 30
0.0
 11
45.651654
 21
12.775255
 31
0.0
  0
LINE
  5
339
330
1F
100
AcDbEntity
  8
Untitled
 62
     7
370
     5
100
AcDbLine
 10
45.626654
 20
11.575255
 30
0.0
 11
45.651654
 21
11.525255
 31
0.0
  0
LINE
  5
33A
330
1F
100
AcDbEntity
  8
Untitled
 62
     7
370
     5
100
AcDbLine
 10
45.601654
 20
11.525255
 30
0.0
 11
45.626654
 21
11.575255
 31
0.0
  0
LINE
  5
33B
330
1F
100
AcDbEntity
  8
Untitled
 62
     7
370
     5
100
AcDbLine
 10
45.322883
 20
19.087755
 30
0.0
 11
44.232883
 21
19.087755
 31
0.0
  0
ELLIPSE
  5
33C
330
1F
100
AcDbEntity
  8
Untitled
 62
     7
370
     5
100
AcDbEllipse
 10
44.010383
 20
20.042755
 30
0.0
 11
0.1074999999999982
 21
0.0
 31
0.0
210
0.0
220
0.0
230
1.0
 40
1.0
 41
1.570796326794897
 42
4.712389118875814
  0
LINE
  5
33D
330
1F
100
AcDbEntity
  8
Untitled
 62
     7
370
     5
100
AcDbLine
 10
45.545383
 20
19.935255
 30
0.0
 11
44.010383
 21
19.935255
 31
0.0
  0
ELLIPSE
  5
33E
330
1F
100
AcDbEntity
  8
Untitled
 62
     7
370
     5
100
AcDbEllipse
 10
45.545383
 20
20.042755
 30
0.0
 11
0.1075000000000027
 21
0.0
 31
0.0
210
0.0
220
0.0
230
1.0
 40
1.0
 41
4.712388841893565
 42
7.853981633974483
  0
LINE
  5
33F
330
1F
100
AcDbEntity
  8
Untitled
 62
     7
370
     5
100
AcDbLine
 10
44.010383
 20
20.150255
 30
0.0
 11
45.545383
 21
20.150255
 31
0.0
  0
LINE
  5
340
330
1F
100
AcDbEntity
  8
Untitled
 62
     7
370
     5
100
AcDbLine
 10
45.372883
 20
19.137755
 30
0.0
 11
45.372883
 21
19.337755
 31
0.0
  0
LINE
  5
341
330
1F
100
AcDbEntity
  8
Untitled
 62
     7
370
     5
100
AcDbLine
 10
44.182883
 20
19.137755
 30
0.0
 11
44.182883
 21
19.337755
 31
0.0
  0
LINE
  5
342
330
1F
100
AcDbEntity
  8
Untitled
 62
     7
370
     5
100
AcDbLine
 10
45.372883
 20
19.137755
 30
0.0
 11
45.322883
 21
19.087755
 31
0.0
  0
LINE
  5
343
330
1F
100
AcDbEntity
  8
Untitled
 62
     7
370
     5
100
AcDbLine
 10
44.232883
 20
19.087755
 30
0.0
 11
44.182883
 21
19.137755
 31
0.0
  0
LINE
  5
344
330
1F
100
AcDbEntity
  8
Untitled
 62
     7
370
     5
100
AcDbLine
 10
45.372883
 20
19.137755
 30
0.0
 11
44.182883
 21
19.137755
 31
0.0
  0
LINE
  5
345
330
1F
100
AcDbEntity
  8
Untitled
 62
     7
370
     5
100
AcDbLine
 10
44.182883
 20
19.337755
 30
0.0
 11
45.372883
 21
19.337755
 31
0.0
  0
ELLIPSE
  5
346
330
1F
100
AcDbEntity
  8
Untitled
 62
     7
370
     5
100
AcDbEllipse
 10
45.372883
 20
19.431505
 30
0.0
 11
0.09374999999996092
 21
0.0
 31
0.0
210
0.0
220
0.0
230
1.0
 40
1.0
 41
4.71238898038469
 42
7.471382073451215
  0
ELLIPSE
  5
347
330
1F
100
AcDbEntity
  8
Untitled
 62
     7
370
     5
100
AcDbEllipse
 10
44.182883
 20
19.431505
 30
0.0
 11
0.09374999999998149
 21
0.0
 31
0.0
210
0.0
220
0.0
230
1.0
 40
1.0
 41
1.953395887318234
 42
4.71238898038469
  0
LINE
  5
348
330
1F
100
AcDbEntity
  8
Untitled
 62
     7
370
     5
100
AcDbLine
 10
45.407883
 20
19.518476
 30
0.0
 11
44.147883
 21
19.518476
 31
0.0
  0
LINE
  5
349
330
1F
100
AcDbEntity
  8
Untitled
 62
     7
370
     5
100
AcDbLine
 10
44.147883
 20
19.518476
 30
0.0
 11
44.147883
 21
19.688476
 31
0.0
  0
ELLIPSE
  5
34A
330
1F
100
AcDbEntity
  8
Untitled
 62
     7
370
     5
100
AcDbEllipse
 10
43.862897
 20
19.691383
 30
0.0
 11
0.2849999999999585
 21
0.0
 31
0.0
210
0.0
220
0.0
230
1.0
 40
1.0
 41
6.272982484929293
 42
7.310064484967647
  0
ELLIPSE
  5
34B
330
1F
100
AcDbEntity
  8
Untitled
 62
     7
370
     5
100
AcDbEllipse
 10
45.692868
 20
19.691383
 30
0.0
 11
0.2849999999999946
 21
0.0
 31
0.0
210
0.0
220
0.0
230
1.0
 40
1.0
 41
2.114713475801683
 42
3.151795475840085
  0
LINE
  5
34C
330
1F
100
AcDbEntity
  8
Untitled
 62
     7
370
     5
100
AcDbLine
 10
45.407883
 20
19.518476
 30
0.0
 11
45.407883
 21
19.688476
 31
0.0
  0
LINE
  5
34D
330
1F
100
AcDbEntity
  8
Untitled
 62
     7
370
     5
100
AcDbLine
 10
46.423654
 20
12.650255
 30
0.0
 11
57.215883
 21
12.650255
 31
0.0
  0
LINE
  5
34E
330
1F
100
AcDbEntity
  8
Untitled
 62
     7
370
     5
100
AcDbLine
 10
46.423654
 20
11.650255
 30
0.0
 11
57.215883
 21
11.650255
 31
0.0
  0
LINE
  5
34F
330
1F
100
AcDbEntity
  8
Untitled
 62
     7
370
     5
100
AcDbLine
 10
46.423654
 20
-2.849745
 30
0.0
 11
57.215883
 21
-2.849745
 31
0.0
  0
LINE
  5
350
330
1F
100
AcDbEntity
  8
Untitled
 62
     7
370
     5
100
AcDbLine
 10
45.651654
 20
-3.974745
 30
0.0
 11
46.348654
 21
-3.974745
 31
0.0
  0
LINE
  5
351
330
1F
100
AcDbEntity
  8
Untitled
 62
     7
370
     5
100
AcDbLine
 10
45.651654
 20
-2.724745
 30
0.0
 11
46.348654
 21
-2.724745
 31
0.0
  0
LINE
  5
352
330
1F
100
AcDbEntity
  8
Untitled
 62
     7
370
     5
100
AcDbLine
 10
45.476654
 20
-3.974745
 30
0.0
 11
45.601654
 21
-3.974745
 31
0.0
  0
LINE
  5
353
330
1F
100
AcDbEntity
  8
Untitled
 62
     7
370
     5
100
AcDbLine
 10
45.476654
 20
-2.724745
 30
0.0
 11
45.601654
 21
-2.724745
 31
0.0
  0
LINE
  5
354
330
1F
100
AcDbEntity
  8
Untitled
 62
     7
370
     5
100
AcDbLine
 10
45.476654
 20
-2.724745
 30
0.0
 11
45.476654
 21
-3.974745
 31
0.0
  0
LINE
  5
355
330
1F
100
AcDbEntity
  8
Untitled
 62
     7
370
     5
100
AcDbLine
 10
45.601654
 20
-2.724745
 30
0.0
 11
45.601654
 21
-3.974745
 31
0.0
  0
LINE
  5
356
330
1F
100
AcDbEntity
  8
Untitled
 62
     7
370
     5
100
AcDbLine
 10
45.651654
 20
-2.724745
 30
0.0
 11
45.651654
 21
-3.974745
 31
0.0
  0
LINE
  5
357
330
1F
100
AcDbEntity
  8
Untitled
 62
     7
370
     5
100
AcDbLine
 10
45.601654
 20
-2.724745
 30
0.0
 11
45.626654
 21
-2.774745
 31
0.0
  0
LINE
  5
358
330
1F
100
AcDbEntity
  8
Untitled
 62
     7
370
     5
100
AcDbLine
 10
45.626654
 20
-2.774745
 30
0.0
 11
45.651654
 21
-2.724745
 31
0.0
  0
LINE
  5
359
330
1F
100
AcDbEntity
  8
Untitled
 62
     7
370
     5
100
AcDbLine
 10
45.626654
 20
-3.924745
 30
0.0
 11
45.651654
 21
-3.974745
 31
0.0
  0
LINE
  5
35A
330
1F
100
AcDbEntity
  8
Untitled
 62
     7
370
     5
100
AcDbLine
 10
45.601654
 20
-3.974745
 30
0.0
 11
45.626654
 21
-3.924745
 31
0.0
  0
LINE
  5
35B
330
1F
100
AcDbEntity
  8
Untitled
 62
     7
370
     5
100
AcDbLine
 10
46.423654
 20
-3.899745
 30
0.0
 11
46.423654
 21
-2.799745
 31
0.0
  0
LINE
  5
35C
330
1F
100
AcDbEntity
  8
Untitled
 62
     7
370
     5
100
AcDbLine
 10
46.423654
 20
-2.799745
 30
0.0
 11
46.348654
 21
-2.724745
 31
0.0
  0
LINE
  5
35D
330
1F
100
AcDbEntity
  8
Untitled
 62
     7
370
     5
100
AcDbLine
 10
46.348654
 20
-3.974745
 30
0.0
 11
46.423654
 21
-3.899745
 31
0.0
  0
LINE
  5
35E
330
1F
100
AcDbEntity
  8
Untitled
 62
     7
370
     5
100
AcDbLine
 10
46.348654
 20
-2.724745
 30
0.0
 11
46.348654
 21
-3.974745
 31
0.0
  0
ELLIPSE
  5
35F
330
1F
100
AcDbEntity
  8
Untitled
 62
     7
370
     5
100
AcDbEllipse
 10
44.777883
 20
-3.349745
 30
0.0
 11
0.9375000000002571
 21
0.0
 31
0.0
210
0.0
220
0.0
230
1.0
 40
1.0
 41
0.7297276562269237
 42
0.8054316831615699
  0
ELLIPSE
  5
360
330
1F
100
AcDbEntity
  8
Untitled
 62
     7
370
     5
100
AcDbEllipse
 10
44.641128
 20
12.150255
 30
0.0
 11
0.8749999999999118
 21
0.0
 31
0.0
210
0.0
220
0.0
230
1.0
 40
1.0
 41
2.345989700105155
 42
3.937195607074431
  0
ELLIPSE
  5
361
330
1F
100
AcDbEntity
  8
Untitled
 62
     7
370
     5
100
AcDbEllipse
 10
44.572084
 20
12.150255
 30
0.0
 11
0.8500000000000143
 21
0.0
 31
0.0
210
0.0
220
0.0
230
1.0
 40
1.0
 41
2.315492130090443
 42
3.967693213944572
  0
LWPOLYLINE
  5
362
330
1F
100
AcDbEntity
  8
Untitled
 62
     7
370
     5
100
AcDbPolyline
 90
       14
 70
     0
 43
0.0
 10
43.207156
 20
11.686396
 10
43.174406
 20
11.738574
 10
43.145384
 20
11.80241
 10
43.121585
 20
11.875255
 10
43.103625
 20
11.955222
 10
43.091969
 20
12.04024
 10
43.086919
 20
12.128108
 10
43.088606
 20
12.21655
 10
43.096986
 20
12.303274
 10
43.111843
 20
12.386035
 10
43.13279
 20
12.46269
 10
43.159286
 20
12.531253
 10
43.190645
 20
12.589948
 10
43.207156
 20
12.614113
  0
LINE
  5
363
330
1F
100
AcDbEntity
  8
Untitled
 62
     7
370
     5
100
AcDbLine
 10
43.156909
 20
11.837754
 30
0.0
 11
43.181815
 21
11.760573
 31
0.0
  0
LINE
  5
364
330
1F
100
AcDbEntity
  8
Untitled
 62
     7
370
     5
100
AcDbLine
 10
43.181815
 20
11.760573
 30
0.0
 11
43.211889
 21
11.692097
 31
0.0
  0
LINE
  5
365
330
1F
100
AcDbEntity
  8
Untitled
 62
     7
370
     5
100
AcDbLine
 10
43.211889
 20
11.692097
 30
0.0
 11
43.246456
 21
11.633855
 31
0.0
  0
LINE
  5
366
330
1F
100
AcDbEntity
  8
Untitled
 62
     7
370
     5
100
AcDbLine
 10
43.246456
 20
11.633855
 30
0.0
 11
43.284747
 21
11.587149
 31
0.0
  0
LINE
  5
367
330
1F
100
AcDbEntity
  8
Untitled
 62
     7
370
     5
100
AcDbLine
 10
43.284747
 20
11.587149
 30
0.0
 11
43.325905
 21
11.553022
 31
0.0
  0
LINE
  5
368
330
1F
100
AcDbEntity
  8
Untitled
 62
     7
370
     5
100
AcDbLine
 10
43.325905
 20
11.553022
 30
0.0
 11
43.36901
 21
11.532235
 31
0.0
  0
LINE
  5
369
330
1F
100
AcDbEntity
  8
Untitled
 62
     7
370
     5
100
AcDbLine
 10
43.36901
 20
11.532235
 30
0.0
 11
43.413101
 21
11.525255
 31
0.0
  0
LINE
  5
36A
330
1F
100
AcDbEntity
  8
Untitled
 62
     7
370
     5
100
AcDbLine
 10
44.079111
 20
11.525255
 30
0.0
 11
43.413101
 21
11.525255
 31
0.0
  0
LINE
  5
36B
330
1F
100
AcDbEntity
  8
Untitled
 62
     7
370
     5
100
AcDbLine
 10
43.413101
 20
12.775255
 30
0.0
 11
43.36901
 21
12.768274
 31
0.0
  0
LINE
  5
36C
330
1F
100
AcDbEntity
  8
Untitled
 62
     7
370
     5
100
AcDbLine
 10
43.36901
 20
12.768274
 30
0.0
 11
43.325905
 21
12.747488
 31
0.0
  0
LINE
  5
36D
330
1F
100
AcDbEntity
  8
Untitled
 62
     7
370
     5
100
AcDbLine
 10
43.325905
 20
12.747488
 30
0.0
 11
43.284747
 21
12.71336
 31
0.0
  0
LINE
  5
36E
330
1F
100
AcDbEntity
  8
Untitled
 62
     7
370
     5
100
AcDbLine
 10
43.284747
 20
12.71336
 30
0.0
 11
43.246456
 21
12.666654
 31
0.0
  0
LINE
  5
36F
330
1F
100
AcDbEntity
  8
Untitled
 62
     7
370
     5
100
AcDbLine
 10
43.246456
 20
12.666654
 30
0.0
 11
43.211889
 21
12.608412
 31
0.0
  0
LINE
  5
370
330
1F
100
AcDbEntity
  8
Untitled
 62
     7
370
     5
100
AcDbLine
 10
43.211889
 20
12.608412
 30
0.0
 11
43.181815
 21
12.539936
 31
0.0
  0
LINE
  5
371
330
1F
100
AcDbEntity
  8
Untitled
 62
     7
370
     5
100
AcDbLine
 10
43.181815
 20
12.539936
 30
0.0
 11
43.156909
 21
12.462755
 31
0.0
  0
LINE
  5
372
330
1F
100
AcDbEntity
  8
Untitled
 62
     7
370
     5
100
AcDbLine
 10
43.156909
 20
12.462755
 30
0.0
 11
43.137725
 21
12.378593
 31
0.0
  0
LINE
  5
373
330
1F
100
AcDbEntity
  8
Untitled
 62
     7
370
     5
100
AcDbLine
 10
43.137725
 20
12.378593
 30
0.0
 11
43.124693
 21
12.28933
 31
0.0
  0
LINE
  5
374
330
1F
100
AcDbEntity
  8
Untitled
 62
     7
370
     5
100
AcDbLine
 10
43.124693
 20
12.28933
 30
0.0
 11
43.118103
 21
12.196961
 31
0.0
  0
LINE
  5
375
330
1F
100
AcDbEntity
  8
Untitled
 62
     7
370
     5
100
AcDbLine
 10
43.118103
 20
12.103548
 30
0.0
 11
43.124693
 21
12.011179
 31
0.0
  0
LINE
  5
376
330
1F
100
AcDbEntity
  8
Untitled
 62
     7
370
     5
100
AcDbLine
 10
43.124693
 20
12.011179
 30
0.0
 11
43.137725
 21
11.921916
 31
0.0
  0
LINE
  5
377
330
1F
100
AcDbEntity
  8
Untitled
 62
     7
370
     5
100
AcDbLine
 10
43.137725
 20
11.921916
 30
0.0
 11
43.156909
 21
11.837754
 31
0.0
  0
LINE
  5
378
330
1F
100
AcDbEntity
  8
Untitled
 62
     7
370
     5
100
AcDbLine
 10
44.079111
 20
12.775255
 30
0.0
 11
43.413101
 21
12.775255
 31
0.0
  0
LINE
  5
379
330
1F
100
AcDbEntity
  8
Untitled
 62
     7
370
     5
100
AcDbLine
 10
43.118103
 20
12.196961
 30
0.0
 11
43.118103
 21
12.103548
 31
0.0
  0
ELLIPSE
  5
37A
330
1F
100
AcDbEntity
  8
Untitled
 62
     7
370
     5
100
AcDbEllipse
 10
36.799729
 20
12.150255
 30
0.0
 11
0.4999999999999982
 21
0.0
 31
0.0
210
0.0
220
0.0
230
1.0
 40
1.0
 41
1.570796326794897
 42
4.71238898038469
  0
LINE
  5
37B
330
1F
100
AcDbEntity
  8
Untitled
 62
     7
370
     5
100
AcDbLine
 10
36.799729
 20
12.650255
 30
0.0
 11
43.234006
 21
12.650255
 31
0.0
  0
LINE
  5
37C
330
1F
100
AcDbEntity
  8
Untitled
 62
     7
370
     5
100
AcDbLine
 10
36.799729
 20
11.650255
 30
0.0
 11
43.234006
 21
11.650255
 31
0.0
  0
ELLIPSE
  5
37D
330
1F
100
AcDbEntity
  8
Untitled
 62
     7
370
     5
100
AcDbEllipse
 10
-10.222117
 20
39.400255
 30
0.0
 11
0.9375000000000131
 21
0.0
 31
0.0
210
0.0
220
0.0
230
1.0
 40
1.0
 41
0.7297276562269539
 42
0.8410686705676423
  0
LINE
  5
37E
330
1F
100
AcDbEntity
  8
Untitled
 62
     7
370
     5
100
AcDbLine
 10
-8.576346
 20
38.850255
 30
0.0
 11
-8.576346
 21
39.950255
 31
0.0
  0
LINE
  5
37F
330
1F
100
AcDbEntity
  8
Untitled
 62
     7
370
     5
100
AcDbLine
 10
-8.651346
 20
40.025255
 30
0.0
 11
-8.651346
 21
38.775255
 31
0.0
  0
LINE
  5
380
330
1F
100
AcDbEntity
  8
Untitled
 62
     7
370
     5
100
AcDbLine
 10
-9.523346
 20
40.025255
 30
0.0
 11
-9.523346
 21
38.775255
 31
0.0
  0
LINE
  5
381
330
1F
100
AcDbEntity
  8
Untitled
 62
     7
370
     5
100
AcDbLine
 10
-9.398346
 20
40.025255
 30
0.0
 11
-9.398346
 21
38.775255
 31
0.0
  0
LINE
  5
382
330
1F
100
AcDbEntity
  8
Untitled
 62
     7
370
     5
100
AcDbLine
 10
-9.348346
 20
40.025255
 30
0.0
 11
-9.348346
 21
38.775255
 31
0.0
  0
LINE
  5
383
330
1F
100
AcDbEntity
  8
Untitled
 62
     7
370
     5
100
AcDbLine
 10
-9.348346
 20
38.775255
 30
0.0
 11
-8.651346
 21
38.775255
 31
0.0
  0
LINE
  5
384
330
1F
100
AcDbEntity
  8
Untitled
 62
     7
370
     5
100
AcDbLine
 10
-8.651346
 20
38.775255
 30
0.0
 11
-8.576346
 21
38.850255
 31
0.0
  0
LINE
  5
385
330
1F
100
AcDbEntity
  8
Untitled
 62
     7
370
     5
100
AcDbLine
 10
-9.373346
 20
38.825255
 30
0.0
 11
-9.348346
 21
38.775255
 31
0.0
  0
LINE
  5
386
330
1F
100
AcDbEntity
  8
Untitled
 62
     7
370
     5
100
AcDbLine
 10
-9.398346
 20
38.775255
 30
0.0
 11
-9.373346
 21
38.825255
 31
0.0
  0
LINE
  5
387
330
1F
100
AcDbEntity
  8
Untitled
 62
     7
370
     5
100
AcDbLine
 10
-9.523346
 20
38.775255
 30
0.0
 11
-9.398346
 21
38.775255
 31
0.0
  0
LINE
  5
388
330
1F
100
AcDbEntity
  8
Untitled
 62
     7
370
     5
100
AcDbLine
 10
-9.348346
 20
40.025255
 30
0.0
 11
-8.651346
 21
40.025255
 31
0.0
  0
LINE
  5
389
330
1F
100
AcDbEntity
  8
Untitled
 62
     7
370
     5
100
AcDbLine
 10
-8.576346
 20
39.950255
 30
0.0
 11
-8.651346
 21
40.025255
 31
0.0
  0
LINE
  5
38A
330
1F
100
AcDbEntity
  8
Untitled
 62
     7
370
     5
100
AcDbLine
 10
-9.398346
 20
40.025255
 30
0.0
 11
-9.373346
 21
39.975255
 31
0.0
  0
LINE
  5
38B
330
1F
100
AcDbEntity
  8
Untitled
 62
     7
370
     5
100
AcDbLine
 10
-9.373346
 20
39.975255
 30
0.0
 11
-9.348346
 21
40.025255
 31
0.0
  0
LINE
  5
38C
330
1F
100
AcDbEntity
  8
Untitled
 62
     7
370
     5
100
AcDbLine
 10
-9.523346
 20
40.025255
 30
0.0
 11
-9.398346
 21
40.025255
 31
0.0
  0
LINE
  5
38D
330
1F
100
AcDbEntity
  8
Untitled
 62
     7
370
     5
100
AcDbLine
 10
-9.672117
 20
41.046026
 30
0.0
 11
-10.772117
 21
41.046026
 31
0.0
  0
LINE
  5
38E
330
1F
100
AcDbEntity
  8
Untitled
 62
     7
370
     5
100
AcDbLine
 10
-10.847117
 20
40.971026
 30
0.0
 11
-9.597117
 21
40.971026
 31
0.0
  0
LINE
  5
38F
330
1F
100
AcDbEntity
  8
Untitled
 62
     7
370
     5
100
AcDbLine
 10
-10.847117
 20
40.099026
 30
0.0
 11
-9.597117
 21
40.099026
 31
0.0
  0
LINE
  5
390
330
1F
100
AcDbEntity
  8
Untitled
 62
     7
370
     5
100
AcDbLine
 10
-10.847117
 20
40.224026
 30
0.0
 11
-9.597117
 21
40.224026
 31
0.0
  0
LINE
  5
391
330
1F
100
AcDbEntity
  8
Untitled
 62
     7
370
     5
100
AcDbLine
 10
-10.847117
 20
40.274026
 30
0.0
 11
-9.597117
 21
40.274026
 31
0.0
  0
LINE
  5
392
330
1F
100
AcDbEntity
  8
Untitled
 62
     7
370
     5
100
AcDbLine
 10
-9.597117
 20
40.274026
 30
0.0
 11
-9.597117
 21
40.971026
 31
0.0
  0
LINE
  5
393
330
1F
100
AcDbEntity
  8
Untitled
 62
     7
370
     5
100
AcDbLine
 10
-9.597117
 20
40.971026
 30
0.0
 11
-9.672117
 21
41.046026
 31
0.0
  0
LINE
  5
394
330
1F
100
AcDbEntity
  8
Untitled
 62
     7
370
     5
100
AcDbLine
 10
-9.647117
 20
40.249026
 30
0.0
 11
-9.597117
 21
40.274026
 31
0.0
  0
LINE
  5
395
330
1F
100
AcDbEntity
  8
Untitled
 62
     7
370
     5
100
AcDbLine
 10
-9.597117
 20
40.224026
 30
0.0
 11
-9.647117
 21
40.249026
 31
0.0
  0
LINE
  5
396
330
1F
100
AcDbEntity
  8
Untitled
 62
     7
370
     5
100
AcDbLine
 10
-9.597117
 20
40.099026
 30
0.0
 11
-9.597117
 21
40.224026
 31
0.0
  0
LINE
  5
397
330
1F
100
AcDbEntity
  8
Untitled
 62
     7
370
     5
100
AcDbLine
 10
-10.847117
 20
40.274026
 30
0.0
 11
-10.847117
 21
40.971026
 31
0.0
  0
LINE
  5
398
330
1F
100
AcDbEntity
  8
Untitled
 62
     7
370
     5
100
AcDbLine
 10
-10.772117
 20
41.046026
 30
0.0
 11
-10.847117
 21
40.971026
 31
0.0
  0
LINE
  5
399
330
1F
100
AcDbEntity
  8
Untitled
 62
     7
370
     5
100
AcDbLine
 10
-10.847117
 20
40.224026
 30
0.0
 11
-10.797117
 21
40.249026
 31
0.0
  0
LINE
  5
39A
330
1F
100
AcDbEntity
  8
Untitled
 62
     7
370
     5
100
AcDbLine
 10
-10.797117
 20
40.249026
 30
0.0
 11
-10.847117
 21
40.274026
 31
0.0
  0
LINE
  5
39B
330
1F
100
AcDbEntity
  8
Untitled
 62
     7
370
     5
100
AcDbLine
 10
-10.847117
 20
40.099026
 30
0.0
 11
-10.847117
 21
40.224026
 31
0.0
  0
ELLIPSE
  5
39C
330
1F
100
AcDbEntity
  8
Untitled
 62
     7
370
     5
100
AcDbEllipse
 10
-10.222117
 20
39.400255
 30
0.0
 11
0.9374999999998661
 21
0.0
 31
0.0
210
0.0
220
0.0
230
1.0
 40
1.0
 41
2.300523983021991
 42
5.553457650952492
  0
LINE
  5
39D
330
1F
100
AcDbEntity
  8
Untitled
 62
     7
370
     5
100
AcDbLine
 10
28.777883
 20
51.838255
 30
0.0
 11
28.777883
 21
41.046026
 31
0.0
  0
LINE
  5
39E
330
1F
100
AcDbEntity
  8
Untitled
 62
     7
370
     5
100
AcDbLine
 10
27.632111
 20
38.850255
 30
0.0
 11
27.632111
 21
39.950255
 31
0.0
  0
LINE
  5
39F
330
1F
100
AcDbEntity
  8
Untitled
 62
     7
370
     5
100
AcDbLine
 10
27.707111
 20
40.025255
 30
0.0
 11
27.707111
 21
38.775255
 31
0.0
  0
LINE
  5
3A0
330
1F
100
AcDbEntity
  8
Untitled
 62
     7
370
     5
100
AcDbLine
 10
28.579111
 20
40.025255
 30
0.0
 11
28.579111
 21
38.775255
 31
0.0
  0
LINE
  5
3A1
330
1F
100
AcDbEntity
  8
Untitled
 62
     7
370
     5
100
AcDbLine
 10
28.454111
 20
40.025255
 30
0.0
 11
28.454111
 21
38.775255
 31
0.0
  0
LINE
  5
3A2
330
1F
100
AcDbEntity
  8
Untitled
 62
     7
370
     5
100
AcDbLine
 10
28.404111
 20
40.025255
 30
0.0
 11
28.404111
 21
38.775255
 31
0.0
  0
ELLIPSE
  5
3A3
330
1F
100
AcDbEntity
  8
Untitled
 62
     7
370
     5
100
AcDbEllipse
 10
29.277883
 20
39.400255
 30
0.0
 11
0.937500000000116
 21
0.0
 31
0.0
210
0.0
220
0.0
230
1.0
 40
1.0
 41
3.871320309816872
 42
7.124253977747111
  0
LINE
  5
3A4
330
1F
100
AcDbEntity
  8
Untitled
 62
     7
370
     5
100
AcDbLine
 10
28.404111
 20
38.775255
 30
0.0
 11
27.707111
 21
38.775255
 31
0.0
  0
LINE
  5
3A5
330
1F
100
AcDbEntity
  8
Untitled
 62
     7
370
     5
100
AcDbLine
 10
27.707111
 20
38.775255
 30
0.0
 11
27.632111
 21
38.850255
 31
0.0
  0
LINE
  5
3A6
330
1F
100
AcDbEntity
  8
Untitled
 62
     7
370
     5
100
AcDbLine
 10
28.429111
 20
38.825255
 30
0.0
 11
28.404111
 21
38.775255
 31
0.0
  0
LINE
  5
3A7
330
1F
100
AcDbEntity
  8
Untitled
 62
     7
370
     5
100
AcDbLine
 10
28.454111
 20
38.775255
 30
0.0
 11
28.429111
 21
38.825255
 31
0.0
  0
LINE
  5
3A8
330
1F
100
AcDbEntity
  8
Untitled
 62
     7
370
     5
100
AcDbLine
 10
28.579111
 20
38.775255
 30
0.0
 11
28.454111
 21
38.775255
 31
0.0
  0
LINE
  5
3A9
330
1F
100
AcDbEntity
  8
Untitled
 62
     7
370
     5
100
AcDbLine
 10
28.727883
 20
41.046026
 30
0.0
 11
29.827883
 21
41.046026
 31
0.0
  0
LINE
  5
3AA
330
1F
100
AcDbEntity
  8
Untitled
 62
     7
370
     5
100
AcDbLine
 10
29.902883
 20
40.971026
 30
0.0
 11
28.652883
 21
40.971026
 31
0.0
  0
LINE
  5
3AB
330
1F
100
AcDbEntity
  8
Untitled
 62
     7
370
     5
100
AcDbLine
 10
29.902883
 20
40.099026
 30
0.0
 11
28.652883
 21
40.099026
 31
0.0
  0
LINE
  5
3AC
330
1F
100
AcDbEntity
  8
Untitled
 62
     7
370
     5
100
AcDbLine
 10
29.902883
 20
40.224026
 30
0.0
 11
28.652883
 21
40.224026
 31
0.0
  0
LINE
  5
3AD
330
1F
100
AcDbEntity
  8
Untitled
 62
     7
370
     5
100
AcDbLine
 10
29.902883
 20
40.274026
 30
0.0
 11
28.652883
 21
40.274026
 31
0.0
  0
LINE
  5
3AE
330
1F
100
AcDbEntity
  8
Untitled
 62
     7
370
     5
100
AcDbLine
 10
29.902883
 20
40.274026
 30
0.0
 11
29.902883
 21
40.971026
 31
0.0
  0
LINE
  5
3AF
330
1F
100
AcDbEntity
  8
Untitled
 62
     7
370
     5
100
AcDbLine
 10
29.827883
 20
41.046026
 30
0.0
 11
29.902883
 21
40.971026
 31
0.0
  0
LINE
  5
3B0
330
1F
100
AcDbEntity
  8
Untitled
 62
     7
370
     5
100
AcDbLine
 10
29.902883
 20
40.224026
 30
0.0
 11
29.852883
 21
40.249026
 31
0.0
  0
LINE
  5
3B1
330
1F
100
AcDbEntity
  8
Untitled
 62
     7
370
     5
100
AcDbLine
 10
29.852883
 20
40.249026
 30
0.0
 11
29.902883
 21
40.274026
 31
0.0
  0
LINE
  5
3B2
330
1F
100
AcDbEntity
  8
Untitled
 62
     7
370
     5
100
AcDbLine
 10
29.902883
 20
40.099026
 30
0.0
 11
29.902883
 21
40.224026
 31
0.0
  0
ELLIPSE
  5
3B3
330
1F
100
AcDbEntity
  8
Untitled
 62
     7
370
     5
100
AcDbEllipse
 10
29.277883
 20
39.400255
 30
0.0
 11
0.9374999999998377
 21
0.0
 31
0.0
210
0.0
220
0.0
230
1.0
 40
1.0
 41
2.300523983021957
 42
2.411864997362703
  0
LINE
  5
3B4
330
1F
100
AcDbEntity
  8
Untitled
 62
     7
370
     5
100
AcDbLine
 10
28.404111
 20
40.025255
 30
0.0
 11
27.707111
 21
40.025255
 31
0.0
  0
LINE
  5
3B5
330
1F
100
AcDbEntity
  8
Untitled
 62
     7
370
     5
100
AcDbLine
 10
27.632111
 20
39.950255
 30
0.0
 11
27.707111
 21
40.025255
 31
0.0
  0
LINE
  5
3B6
330
1F
100
AcDbEntity
  8
Untitled
 62
     7
370
     5
100
AcDbLine
 10
28.454111
 20
40.025255
 30
0.0
 11
28.429111
 21
39.975255
 31
0.0
  0
LINE
  5
3B7
330
1F
100
AcDbEntity
  8
Untitled
 62
     7
370
     5
100
AcDbLine
 10
28.429111
 20
39.975255
 30
0.0
 11
28.404111
 21
40.025255
 31
0.0
  0
LINE
  5
3B8
330
1F
100
AcDbEntity
  8
Untitled
 62
     7
370
     5
100
AcDbLine
 10
28.579111
 20
40.025255
 30
0.0
 11
28.454111
 21
40.025255
 31
0.0
  0
LINE
  5
3B9
330
1F
100
AcDbEntity
  8
Untitled
 62
     7
370
     5
100
AcDbLine
 10
28.652883
 20
40.274026
 30
0.0
 11
28.652883
 21
40.971026
 31
0.0
  0
LINE
  5
3BA
330
1F
100
AcDbEntity
  8
Untitled
 62
     7
370
     5
100
AcDbLine
 10
28.652883
 20
40.971026
 30
0.0
 11
28.727883
 21
41.046026
 31
0.0
  0
LINE
  5
3BB
330
1F
100
AcDbEntity
  8
Untitled
 62
     7
370
     5
100
AcDbLine
 10
28.702883
 20
40.249026
 30
0.0
 11
28.652883
 21
40.274026
 31
0.0
  0
LINE
  5
3BC
330
1F
100
AcDbEntity
  8
Untitled
 62
     7
370
     5
100
AcDbLine
 10
28.652883
 20
40.224026
 30
0.0
 11
28.702883
 21
40.249026
 31
0.0
  0
LINE
  5
3BD
330
1F
100
AcDbEntity
  8
Untitled
 62
     7
370
     5
100
AcDbLine
 10
28.652883
 20
40.099026
 30
0.0
 11
28.652883
 21
40.224026
 31
0.0
  0
ELLIPSE
  5
3BE
330
1F
100
AcDbEntity
  8
Untitled
 62
     7
370
     5
100
AcDbEllipse
 10
-2.534617
 20
39.400255
 30
0.0
 11
0.9375000000000961
 21
0.0
 31
0.0
210
0.0
220
0.0
230
1.0
 40
1.0
 41
3.871320309816891
 42
4.48008016097612
  0
LINE
  5
3BF
330
1F
100
AcDbEntity
  8
Untitled
 62
     7
370
     5
100
AcDbLine
 10
-4.180389
 20
38.850255
 30
0.0
 11
-4.180389
 21
39.950255
 31
0.0
  0
LINE
  5
3C0
330
1F
100
AcDbEntity
  8
Untitled
 62
     7
370
     5
100
AcDbLine
 10
-4.105389
 20
40.025255
 30
0.0
 11
-4.105389
 21
38.775255
 31
0.0
  0
LINE
  5
3C1
330
1F
100
AcDbEntity
  8
Untitled
 62
     7
370
     5
100
AcDbLine
 10
-3.233389
 20
40.025255
 30
0.0
 11
-3.233389
 21
38.775255
 31
0.0
  0
LINE
  5
3C2
330
1F
100
AcDbEntity
  8
Untitled
 62
     7
370
     5
100
AcDbLine
 10
-3.358389
 20
40.025255
 30
0.0
 11
-3.358389
 21
38.775255
 31
0.0
  0
LINE
  5
3C3
330
1F
100
AcDbEntity
  8
Untitled
 62
     7
370
     5
100
AcDbLine
 10
-3.408389
 20
40.025255
 30
0.0
 11
-3.408389
 21
38.775255
 31
0.0
  0
LINE
  5
3C4
330
1F
100
AcDbEntity
  8
Untitled
 62
     7
370
     5
100
AcDbLine
 10
-3.408389
 20
38.775255
 30
0.0
 11
-4.105389
 21
38.775255
 31
0.0
  0
LINE
  5
3C5
330
1F
100
AcDbEntity
  8
Untitled
 62
     7
370
     5
100
AcDbLine
 10
-4.105389
 20
38.775255
 30
0.0
 11
-4.180389
 21
38.850255
 31
0.0
  0
LINE
  5
3C6
330
1F
100
AcDbEntity
  8
Untitled
 62
     7
370
     5
100
AcDbLine
 10
-3.383389
 20
38.825255
 30
0.0
 11
-3.408389
 21
38.775255
 31
0.0
  0
LINE
  5
3C7
330
1F
100
AcDbEntity
  8
Untitled
 62
     7
370
     5
100
AcDbLine
 10
-3.358389
 20
38.775255
 30
0.0
 11
-3.383389
 21
38.825255
 31
0.0
  0
LINE
  5
3C8
330
1F
100
AcDbEntity
  8
Untitled
 62
     7
370
     5
100
AcDbLine
 10
-3.233389
 20
38.775255
 30
0.0
 11
-3.358389
 21
38.775255
 31
0.0
  0
LINE
  5
3C9
330
1F
100
AcDbEntity
  8
Untitled
 62
     7
370
     5
100
AcDbLine
 10
-3.408389
 20
40.025255
 30
0.0
 11
-4.105389
 21
40.025255
 31
0.0
  0
LINE
  5
3CA
330
1F
100
AcDbEntity
  8
Untitled
 62
     7
370
     5
100
AcDbLine
 10
-4.180389
 20
39.950255
 30
0.0
 11
-4.105389
 21
40.025255
 31
0.0
  0
LINE
  5
3CB
330
1F
100
AcDbEntity
  8
Untitled
 62
     7
370
     5
100
AcDbLine
 10
-3.358389
 20
40.025255
 30
0.0
 11
-3.383389
 21
39.975255
 31
0.0
  0
LINE
  5
3CC
330
1F
100
AcDbEntity
  8
Untitled
 62
     7
370
     5
100
AcDbLine
 10
-3.383389
 20
39.975255
 30
0.0
 11
-3.408389
 21
40.025255
 31
0.0
  0
LINE
  5
3CD
330
1F
100
AcDbEntity
  8
Untitled
 62
     7
370
     5
100
AcDbLine
 10
-3.233389
 20
40.025255
 30
0.0
 11
-3.358389
 21
40.025255
 31
0.0
  0
LINE
  5
3CE
330
1F
100
AcDbEntity
  8
Untitled
 62
     7
370
     5
100
AcDbLine
 10
-4.180389
 20
39.900255
 30
0.0
 11
-8.576346
 21
39.900255
 31
0.0
  0
LINE
  5
3CF
330
1F
100
AcDbEntity
  8
Untitled
 62
     7
370
     5
100
AcDbLine
 10
-8.576346
 20
38.900255
 30
0.0
 11
-4.180389
 21
38.900255
 31
0.0
  0
LINE
  5
3D0
330
1F
100
AcDbEntity
  8
Untitled
 62
     7
370
     5
100
AcDbLine
 10
-1.265974
 20
38.21636
 30
0.0
 11
-2.232673
 21
37.691485
 31
0.0
  0
LINE
  5
3D1
330
1F
100
AcDbEntity
  8
Untitled
 62
     7
370
     5
100
AcDbLine
 10
-2.334371
 20
37.72161
 30
0.0
 11
-1.235849
 21
38.318058
 31
0.0
  0
LINE
  5
3D2
330
1F
100
AcDbEntity
  8
Untitled
 62
     7
370
     5
100
AcDbLine
 10
-2.750453
 20
38.487938
 30
0.0
 11
-1.651932
 21
39.084387
 31
0.0
  0
LINE
  5
3D3
330
1F
100
AcDbEntity
  8
Untitled
 62
     7
370
     5
100
AcDbLine
 10
-2.690808
 20
38.378086
 30
0.0
 11
-1.592287
 21
38.974535
 31
0.0
  0
LINE
  5
3D4
330
1F
100
AcDbEntity
  8
Untitled
 62
     7
370
     5
100
AcDbLine
 10
-2.666951
 20
38.334145
 30
0.0
 11
-1.568429
 21
38.930594
 31
0.0
  0
LINE
  5
3D5
330
1F
100
AcDbEntity
  8
Untitled
 62
     7
370
     5
100
AcDbLine
 10
-1.568429
 20
38.930594
 30
0.0
 11
-1.235849
 21
38.318058
 31
0.0
  0
LINE
  5
3D6
330
1F
100
AcDbEntity
  8
Untitled
 62
     7
370
     5
100
AcDbLine
 10
-1.235849
 20
38.318058
 30
0.0
 11
-1.265974
 21
38.21636
 31
0.0
  0
LINE
  5
3D7
330
1F
100
AcDbEntity
  8
Untitled
 62
     7
370
     5
100
AcDbLine
 10
-1.624299
 20
38.928706
 30
0.0
 11
-1.568429
 21
38.930594
 31
0.0
  0
LINE
  5
3D8
330
1F
100
AcDbEntity
  8
Untitled
 62
     7
370
     5
100
AcDbLine
 10
-1.592287
 20
38.974535
 30
0.0
 11
-1.624299
 21
38.928706
 31
0.0
  0
LINE
  5
3D9
330
1F
100
AcDbEntity
  8
Untitled
 62
     7
370
     5
100
AcDbLine
 10
-1.651932
 20
39.084387
 30
0.0
 11
-1.592287
 21
38.974535
 31
0.0
  0
LINE
  5
3DA
330
1F
100
AcDbEntity
  8
Untitled
 62
     7
370
     5
100
AcDbLine
 10
-2.666951
 20
38.334145
 30
0.0
 11
-2.334371
 21
37.72161
 31
0.0
  0
LINE
  5
3DB
330
1F
100
AcDbEntity
  8
Untitled
 62
     7
370
     5
100
AcDbLine
 10
-2.232673
 20
37.691485
 30
0.0
 11
-2.334371
 21
37.72161
 31
0.0
  0
LINE
  5
3DC
330
1F
100
AcDbEntity
  8
Untitled
 62
     7
370
     5
100
AcDbLine
 10
-2.690808
 20
38.378086
 30
0.0
 11
-2.634939
 21
38.379974
 31
0.0
  0
LINE
  5
3DD
330
1F
100
AcDbEntity
  8
Untitled
 62
     7
370
     5
100
AcDbLine
 10
-2.634939
 20
38.379974
 30
0.0
 11
-2.666951
 21
38.334145
 31
0.0
  0
LINE
  5
3DE
330
1F
100
AcDbEntity
  8
Untitled
 62
     7
370
     5
100
AcDbLine
 10
-2.750453
 20
38.487938
 30
0.0
 11
-2.690808
 21
38.378086
 31
0.0
  0
ELLIPSE
  5
3DF
330
1F
100
AcDbEntity
  8
Untitled
 62
     7
370
     5
100
AcDbEllipse
 10
-2.534617
 20
39.400255
 30
0.0
 11
0.9375000000000474
 21
0.0
 31
0.0
210
0.0
220
0.0
230
1.0
 40
1.0
 41
5.939535473429889
 42
8.695050304542457
  0
LINE
  5
3E0
330
1F
100
AcDbEntity
  8
Untitled
 62
     7
370
     5
100
AcDbLine
 10
23.236154
 20
38.850255
 30
0.0
 11
23.236154
 21
39.950255
 31
0.0
  0
LINE
  5
3E1
330
1F
100
AcDbEntity
  8
Untitled
 62
     7
370
     5
100
AcDbLine
 10
23.161154
 20
40.025255
 30
0.0
 11
23.161154
 21
38.775255
 31
0.0
  0
LINE
  5
3E2
330
1F
100
AcDbEntity
  8
Untitled
 62
     7
370
     5
100
AcDbLine
 10
22.289154
 20
40.025255
 30
0.0
 11
22.289154
 21
38.775255
 31
0.0
  0
LINE
  5
3E3
330
1F
100
AcDbEntity
  8
Untitled
 62
     7
370
     5
100
AcDbLine
 10
22.414154
 20
40.025255
 30
0.0
 11
22.414154
 21
38.775255
 31
0.0
  0
LINE
  5
3E4
330
1F
100
AcDbEntity
  8
Untitled
 62
     7
370
     5
100
AcDbLine
 10
22.464154
 20
40.025255
 30
0.0
 11
22.464154
 21
38.775255
 31
0.0
  0
ELLIPSE
  5
3E5
330
1F
100
AcDbEntity
  8
Untitled
 62
     7
370
     5
100
AcDbEllipse
 10
21.590383
 20
39.400255
 30
0.0
 11
0.9374999999999827
 21
0.0
 31
0.0
210
0.0
220
0.0
230
1.0
 40
1.0
 41
0.729727656226983
 42
3.485242487339473
  0
LINE
  5
3E6
330
1F
100
AcDbEntity
  8
Untitled
 62
     7
370
     5
100
AcDbLine
 10
21.806218
 20
38.487938
 30
0.0
 11
20.707697
 21
39.084387
 31
0.0
  0
LINE
  5
3E7
330
1F
100
AcDbEntity
  8
Untitled
 62
     7
370
     5
100
AcDbLine
 10
21.746574
 20
38.378086
 30
0.0
 11
20.648052
 21
38.974535
 31
0.0
  0
LINE
  5
3E8
330
1F
100
AcDbEntity
  8
Untitled
 62
     7
370
     5
100
AcDbLine
 10
21.722716
 20
38.334145
 30
0.0
 11
20.624194
 21
38.930594
 31
0.0
  0
LINE
  5
3E9
330
1F
100
AcDbEntity
  8
Untitled
 62
     7
370
     5
100
AcDbLine
 10
21.722716
 20
38.334145
 30
0.0
 11
21.390136
 21
37.72161
 31
0.0
  0
ELLIPSE
  5
3EA
330
1F
100
AcDbEntity
  8
Untitled
 62
     7
370
     5
100
AcDbEllipse
 10
21.590383
 20
39.400255
 30
0.0
 11
0.9375000000001612
 21
0.0
 31
0.0
210
0.0
220
0.0
230
1.0
 40
1.0
 41
4.944697799793249
 42
5.553457650952502
  0
LINE
  5
3EB
330
1F
100
AcDbEntity
  8
Untitled
 62
     7
370
     5
100
AcDbLine
 10
22.464154
 20
38.775255
 30
0.0
 11
23.161154
 21
38.775255
 31
0.0
  0
LINE
  5
3EC
330
1F
100
AcDbEntity
  8
Untitled
 62
     7
370
     5
100
AcDbLine
 10
23.161154
 20
38.775255
 30
0.0
 11
23.236154
 21
38.850255
 31
0.0
  0
LINE
  5
3ED
330
1F
100
AcDbEntity
  8
Untitled
 62
     7
370
     5
100
AcDbLine
 10
22.439154
 20
38.825255
 30
0.0
 11
22.464154
 21
38.775255
 31
0.0
  0
LINE
  5
3EE
330
1F
100
AcDbEntity
  8
Untitled
 62
     7
370
     5
100
AcDbLine
 10
22.414154
 20
38.775255
 30
0.0
 11
22.439154
 21
38.825255
 31
0.0
  0
LINE
  5
3EF
330
1F
100
AcDbEntity
  8
Untitled
 62
     7
370
     5
100
AcDbLine
 10
22.289154
 20
38.775255
 30
0.0
 11
22.414154
 21
38.775255
 31
0.0
  0
LINE
  5
3F0
330
1F
100
AcDbEntity
  8
Untitled
 62
     7
370
     5
100
AcDbLine
 10
21.746574
 20
38.378086
 30
0.0
 11
21.690704
 21
38.379974
 31
0.0
  0
LINE
  5
3F1
330
1F
100
AcDbEntity
  8
Untitled
 62
     7
370
     5
100
AcDbLine
 10
21.690704
 20
38.379974
 30
0.0
 11
21.722716
 21
38.334145
 31
0.0
  0
LINE
  5
3F2
330
1F
100
AcDbEntity
  8
Untitled
 62
     7
370
     5
100
AcDbLine
 10
21.806218
 20
38.487938
 30
0.0
 11
21.746574
 21
38.378086
 31
0.0
  0
LINE
  5
3F3
330
1F
100
AcDbEntity
  8
Untitled
 62
     7
370
     5
100
AcDbLine
 10
20.321739
 20
38.21636
 30
0.0
 11
21.288438
 21
37.691485
 31
0.0
  0
LINE
  5
3F4
330
1F
100
AcDbEntity
  8
Untitled
 62
     7
370
     5
100
AcDbLine
 10
21.390136
 20
37.72161
 30
0.0
 11
20.291615
 21
38.318058
 31
0.0
  0
LINE
  5
3F5
330
1F
100
AcDbEntity
  8
Untitled
 62
     7
370
     5
100
AcDbLine
 10
20.624194
 20
38.930594
 30
0.0
 11
20.291615
 21
38.318058
 31
0.0
  0
LINE
  5
3F6
330
1F
100
AcDbEntity
  8
Untitled
 62
     7
370
     5
100
AcDbLine
 10
20.291615
 20
38.318058
 30
0.0
 11
20.321739
 21
38.21636
 31
0.0
  0
LINE
  5
3F7
330
1F
100
AcDbEntity
  8
Untitled
 62
     7
370
     5
100
AcDbLine
 10
20.680064
 20
38.928706
 30
0.0
 11
20.624194
 21
38.930594
 31
0.0
  0
LINE
  5
3F8
330
1F
100
AcDbEntity
  8
Untitled
 62
     7
370
     5
100
AcDbLine
 10
20.648052
 20
38.974535
 30
0.0
 11
20.680064
 21
38.928706
 31
0.0
  0
LINE
  5
3F9
330
1F
100
AcDbEntity
  8
Untitled
 62
     7
370
     5
100
AcDbLine
 10
20.707697
 20
39.084387
 30
0.0
 11
20.648052
 21
38.974535
 31
0.0
  0
LINE
  5
3FA
330
1F
100
AcDbEntity
  8
Untitled
 62
     7
370
     5
100
AcDbLine
 10
21.288438
 20
37.691485
 30
0.0
 11
21.390136
 21
37.72161
 31
0.0
  0
LINE
  5
3FB
330
1F
100
AcDbEntity
  8
Untitled
 62
     7
370
     5
100
AcDbLine
 10
22.464154
 20
40.025255
 30
0.0
 11
23.161154
 21
40.025255
 31
0.0
  0
LINE
  5
3FC
330
1F
100
AcDbEntity
  8
Untitled
 62
     7
370
     5
100
AcDbLine
 10
23.236154
 20
39.950255
 30
0.0
 11
23.161154
 21
40.025255
 31
0.0
  0
LINE
  5
3FD
330
1F
100
AcDbEntity
  8
Untitled
 62
     7
370
     5
100
AcDbLine
 10
22.414154
 20
40.025255
 30
0.0
 11
22.439154
 21
39.975255
 31
0.0
  0
LINE
  5
3FE
330
1F
100
AcDbEntity
  8
Untitled
 62
     7
370
     5
100
AcDbLine
 10
22.439154
 20
39.975255
 30
0.0
 11
22.464154
 21
40.025255
 31
0.0
  0
LINE
  5
3FF
330
1F
100
AcDbEntity
  8
Untitled
 62
     7
370
     5
100
AcDbLine
 10
22.289154
 20
40.025255
 30
0.0
 11
22.414154
 21
40.025255
 31
0.0
  0
LINE
  5
400
330
1F
100
AcDbEntity
  8
Untitled
 62
     7
370
     5
100
AcDbLine
 10
23.236154
 20
39.900255
 30
0.0
 11
27.632111
 21
39.900255
 31
0.0
  0
LINE
  5
401
330
1F
100
AcDbEntity
  8
Untitled
 62
     7
370
     5
100
AcDbLine
 10
27.632111
 20
38.900255
 30
0.0
 11
23.236154
 21
38.900255
 31
0.0
  0
INSERT
  5
403
330
1F
100
AcDbEntity
  8
0
100
AcDbBlockReference
  2
Block791
 10
21.590383
 20
43.400255
 30
0.0
  0
ELLIPSE
  5
40A
330
1F
100
AcDbEntity
  8
Untitled
 62
     7
370
     5
100
AcDbEllipse
 10
9.527883
 20
44.422101
 30
0.0
 11
13.50000000000002
 21
0.0
 31
0.0
210
0.0
220
0.0
230
1.0
 40
1.0
 41
3.661482126282798
 42
5.763295834486581
  0
ELLIPSE
  5
40B
330
1F
100
AcDbEntity
  8
Untitled
 62
     7
370
     5
100
AcDbEllipse
 10
9.527883
 20
44.422101
 30
0.0
 11
12.50000000000011
 21
0.0
 31
0.0
210
0.0
220
0.0
230
1.0
 40
1.0
 41
3.663280117072255
 42
5.761497843697123
  0
ELLIPSE
  5
40C
330
1F
100
AcDbEntity
  8
Untitled
 62
     7
370
     5
100
AcDbEllipse
 10
9.527883
 20
44.422101
 30
0.0
 11
13.00000000000038
 21
0.0
 31
0.0
210
0.0
220
0.0
230
1.0
 40
1.0
 41
3.926990816987241
 42
4.363323129985824
  0
LINE
  5
40D
330
1F
100
AcDbEntity
  8
Untitled
 62
     7
370
     5
100
AcDbLine
 10
58.027883
 20
11.290255
 30
0.0
 11
58.027883
 21
13.010255
 31
0.0
  0
LINE
  5
40E
330
1F
100
AcDbEntity
  8
Untitled
 62
     7
370
     5
100
AcDbLine
 10
58.012883
 20
13.025255
 30
0.0
 11
57.961883
 21
13.025255
 31
0.0
  0
LINE
  5
40F
330
1F
100
AcDbEntity
  8
Untitled
 62
     7
370
     5
100
AcDbLine
 10
57.285883
 20
11.525255
 30
0.0
 11
57.487883
 21
11.525255
 31
0.0
  0
LINE
  5
410
330
1F
100
AcDbEntity
  8
Untitled
 62
     7
370
     5
100
AcDbLine
 10
57.285883
 20
12.775255
 30
0.0
 11
57.487883
 21
12.775255
 31
0.0
  0
LINE
  5
411
330
1F
100
AcDbEntity
  8
Untitled
 62
     7
370
     5
100
AcDbLine
 10
57.215883
 20
12.705255
 30
0.0
 11
57.215883
 21
11.595255
 31
0.0
  0
LINE
  5
412
330
1F
100
AcDbEntity
  8
Untitled
 62
     7
370
     5
100
AcDbLine
 10
57.215883
 20
11.595255
 30
0.0
 11
57.285883
 21
11.525255
 31
0.0
  0
LINE
  5
413
330
1F
100
AcDbEntity
  8
Untitled
 62
     7
370
     5
100
AcDbLine
 10
57.285883
 20
12.775255
 30
0.0
 11
57.215883
 21
12.705255
 31
0.0
  0
LINE
  5
414
330
1F
100
AcDbEntity
  8
Untitled
 62
     7
370
     5
100
AcDbLine
 10
57.285883
 20
11.525255
 30
0.0
 11
57.285883
 21
12.775255
 31
0.0
  0
ELLIPSE
  5
415
330
1F
100
AcDbEntity
  8
Untitled
 62
     7
370
     5
100
AcDbEllipse
 10
58.012883
 20
11.290255
 30
0.0
 11
0.01500000000000057
 21
0.0
 31
0.0
210
0.0
220
0.0
230
1.0
 40
1.0
 41
4.71238898038469
 42
6.283185307179586
  0
ELLIPSE
  5
416
330
1F
100
AcDbEntity
  8
Untitled
 62
     7
370
     5
100
AcDbEllipse
 10
58.012883
 20
13.010255
 30
0.0
 11
0.01499999999999346
 21
0.0
 31
0.0
210
0.0
220
0.0
230
1.0
 40
1.0
 41
0.0
 42
1.570796326794897
  0
LINE
  5
417
330
1F
100
AcDbEntity
  8
Untitled
 62
     7
370
     5
100
AcDbLine
 10
57.487883
 20
11.525255
 30
0.0
 11
57.487883
 21
12.775255
 31
0.0
  0
ELLIPSE
  5
418
330
1F
100
AcDbEntity
  8
Untitled
 62
     7
370
     5
100
AcDbEllipse
 10
57.962074
 20
11.357282
 30
0.0
 11
0.08202755905521752
 21
0.0
 31
0.0
210
0.0
220
0.0
230
1.0
 40
1.0
 41
3.246808474048974
 42
4.710055510342913
  0
ELLIPSE
  5
419
330
1F
100
AcDbEntity
  8
Untitled
 62
     7
370
     5
100
AcDbEllipse
 10
57.80936
 20
11.738103
 30
0.0
 11
0.3855548038424697
 21
0.0
 31
0.0
210
0.0
220
0.0
230
1.0
 40
1.0
 41
3.72642318422746
 42
4.872442851866005
  0
ELLIPSE
  5
41A
330
1F
100
AcDbEntity
  8
Untitled
 62
     7
370
     5
100
AcDbEllipse
 10
57.870711
 20
11.347633
 30
0.0
 11
0.009843307086509214
 21
0.0
 31
0.0
210
0.0
220
0.0
230
1.0
 40
1.0
 41
0.1052158204646812
 42
1.561085532346727
  0
LINE
  5
41B
330
1F
100
AcDbEntity
  8
Untitled
 62
     7
370
     5
100
AcDbLine
 10
57.961883
 20
11.275255
 30
0.0
 11
58.012883
 21
11.275255
 31
0.0
  0
ELLIPSE
  5
41C
330
1F
100
AcDbEntity
  8
Untitled
 62
     7
370
     5
100
AcDbEllipse
 10
57.870711
 20
12.952876
 30
0.0
 11
0.00984330708663219
 21
0.0
 31
0.0
210
0.0
220
0.0
230
1.0
 40
1.0
 41
4.722099774832744
 42
6.177969486711169
  0
ELLIPSE
  5
41D
330
1F
100
AcDbEntity
  8
Untitled
 62
     7
370
     5
100
AcDbEllipse
 10
57.80936
 20
12.562406
 30
0.0
 11
0.3855548038424111
 21
0.0
 31
0.0
210
0.0
220
0.0
230
1.0
 40
1.0
 41
1.410742455313555
 42
2.556762122952297
  0
ELLIPSE
  5
41E
330
1F
100
AcDbEntity
  8
Untitled
 62
     7
370
     5
100
AcDbEllipse
 10
57.962074
 20
12.943227
 30
0.0
 11
0.08202755905508055
 21
0.0
 31
0.0
210
0.0
220
0.0
230
1.0
 40
1.0
 41
1.573129796836677
 42
3.036376833130633
  0
LINE
  5
41F
330
1F
100
AcDbEntity
  8
Untitled
 62
     7
370
     5
100
AcDbLine
 10
57.8805
 20
11.348667
 30
0.0
 11
57.8805
 21
12.951842
 31
0.0
  0
LINE
  5
420
330
1F
100
AcDbEntity
  8
Untitled
 62
     7
370
     5
100
AcDbLine
 10
58.027883
 20
-4.209745
 30
0.0
 11
58.027883
 21
-2.489745
 31
0.0
  0
LINE
  5
421
330
1F
100
AcDbEntity
  8
Untitled
 62
     7
370
     5
100
AcDbLine
 10
58.012883
 20
-2.474745
 30
0.0
 11
57.961883
 21
-2.474745
 31
0.0
  0
LINE
  5
422
330
1F
100
AcDbEntity
  8
Untitled
 62
     7
370
     5
100
AcDbLine
 10
57.285883
 20
-3.974745
 30
0.0
 11
57.487883
 21
-3.974745
 31
0.0
  0
LINE
  5
423
330
1F
100
AcDbEntity
  8
Untitled
 62
     7
370
     5
100
AcDbLine
 10
57.285883
 20
-2.724745
 30
0.0
 11
57.487883
 21
-2.724745
 31
0.0
  0
LINE
  5
424
330
1F
100
AcDbEntity
  8
Untitled
 62
     7
370
     5
100
AcDbLine
 10
57.215883
 20
-2.794745
 30
0.0
 11
57.215883
 21
-3.904745
 31
0.0
  0
LINE
  5
425
330
1F
100
AcDbEntity
  8
Untitled
 62
     7
370
     5
100
AcDbLine
 10
57.215883
 20
-3.904745
 30
0.0
 11
57.285883
 21
-3.974745
 31
0.0
  0
LINE
  5
426
330
1F
100
AcDbEntity
  8
Untitled
 62
     7
370
     5
100
AcDbLine
 10
57.285883
 20
-2.724745
 30
0.0
 11
57.215883
 21
-2.794745
 31
0.0
  0
LINE
  5
427
330
1F
100
AcDbEntity
  8
Untitled
 62
     7
370
     5
100
AcDbLine
 10
57.285883
 20
-3.974745
 30
0.0
 11
57.285883
 21
-2.724745
 31
0.0
  0
ELLIPSE
  5
428
330
1F
100
AcDbEntity
  8
Untitled
 62
     7
370
     5
100
AcDbEllipse
 10
58.012883
 20
-4.209745
 30
0.0
 11
0.01499999999999968
 21
0.0
 31
0.0
210
0.0
220
0.0
230
1.0
 40
1.0
 41
4.71238898038469
 42
6.283185307179586
  0
ELLIPSE
  5
429
330
1F
100
AcDbEntity
  8
Untitled
 62
     7
370
     5
100
AcDbEllipse
 10
58.012883
 20
-2.489745
 30
0.0
 11
0.01499999999999346
 21
0.0
 31
0.0
210
0.0
220
0.0
230
1.0
 40
1.0
 41
0.0
 42
1.570796326794897
  0
LINE
  5
42A
330
1F
100
AcDbEntity
  8
Untitled
 62
     7
370
     5
100
AcDbLine
 10
57.487883
 20
-3.974745
 30
0.0
 11
57.487883
 21
-2.724745
 31
0.0
  0
ELLIPSE
  5
42B
330
1F
100
AcDbEntity
  8
Untitled
 62
     7
370
     5
100
AcDbEllipse
 10
57.962074
 20
-4.142718
 30
0.0
 11
0.08202755905521734
 21
0.0
 31
0.0
210
0.0
220
0.0
230
1.0
 40
1.0
 41
3.246808474048952
 42
4.710055510342913
  0
ELLIPSE
  5
42C
330
1F
100
AcDbEntity
  8
Untitled
 62
     7
370
     5
100
AcDbEllipse
 10
57.80936
 20
-3.761897
 30
0.0
 11
0.3855548038424746
 21
0.0
 31
0.0
210
0.0
220
0.0
230
1.0
 40
1.0
 41
3.72642318422748
 42
4.872442851866002
  0
ELLIPSE
  5
42D
330
1F
100
AcDbEntity
  8
Untitled
 62
     7
370
     5
100
AcDbEllipse
 10
57.870711
 20
-4.152367
 30
0.0
 11
0.00984330708650912
 21
0.0
 31
0.0
210
0.0
220
0.0
230
1.0
 40
1.0
 41
0.1052158204645915
 42
1.561085532346727
  0
LINE
  5
42E
330
1F
100
AcDbEntity
  8
Untitled
 62
     7
370
     5
100
AcDbLine
 10
57.961883
 20
-4.224745
 30
0.0
 11
58.012883
 21
-4.224745
 31
0.0
  0
ELLIPSE
  5
42F
330
1F
100
AcDbEntity
  8
Untitled
 62
     7
370
     5
100
AcDbEllipse
 10
57.870711
 20
-2.547124
 30
0.0
 11
0.009843307086632634
 21
0.0
 31
0.0
210
0.0
220
0.0
230
1.0
 40
1.0
 41
4.722099774832743
 42
6.177969486706217
  0
ELLIPSE
  5
430
330
1F
100
AcDbEntity
  8
Untitled
 62
     7
370
     5
100
AcDbEllipse
 10
57.80936
 20
-2.937594
 30
0.0
 11
0.385554803842412
 21
0.0
 31
0.0
210
0.0
220
0.0
230
1.0
 40
1.0
 41
1.410742455313555
 42
2.556762122952332
  0
ELLIPSE
  5
431
330
1F
100
AcDbEntity
  8
Untitled
 62
     7
370
     5
100
AcDbEllipse
 10
57.962074
 20
-2.556773
 30
0.0
 11
0.082027559055081
 21
0.0
 31
0.0
210
0.0
220
0.0
230
1.0
 40
1.0
 41
1.573129796836677
 42
3.036376833131499
  0
LINE
  5
432
330
1F
100
AcDbEntity
  8
Untitled
 62
     7
370
     5
100
AcDbLine
 10
57.8805
 20
-4.151333
 30
0.0
 11
57.8805
 21
-2.548158
 31
0.0
  0
LINE
  5
433
330
1F
100
AcDbEntity
  8
Untitled
 62
     7
370
     5
100
AcDbLine
 10
46.423654
 20
-3.849745
 30
0.0
 11
57.215883
 21
-3.849745
 31
0.0
  0
LINE
  5
434
330
1F
100
AcDbEntity
  8
Untitled
 62
     7
370
     5
100
AcDbLine
 10
30.137883
 20
52.650255
 30
0.0
 11
28.417883
 21
52.650255
 31
0.0
  0
LINE
  5
435
330
1F
100
AcDbEntity
  8
Untitled
 62
     7
370
     5
100
AcDbLine
 10
28.402883
 20
52.635255
 30
0.0
 11
28.402883
 21
52.584255
 31
0.0
  0
LINE
  5
436
330
1F
100
AcDbEntity
  8
Untitled
 62
     7
370
     5
100
AcDbLine
 10
29.902883
 20
51.908255
 30
0.0
 11
29.902883
 21
52.110255
 31
0.0
  0
LINE
  5
437
330
1F
100
AcDbEntity
  8
Untitled
 62
     7
370
     5
100
AcDbLine
 10
28.652883
 20
51.908255
 30
0.0
 11
28.652883
 21
52.110255
 31
0.0
  0
LINE
  5
438
330
1F
100
AcDbEntity
  8
Untitled
 62
     7
370
     5
100
AcDbLine
 10
28.722883
 20
51.838255
 30
0.0
 11
29.832883
 21
51.838255
 31
0.0
  0
LINE
  5
439
330
1F
100
AcDbEntity
  8
Untitled
 62
     7
370
     5
100
AcDbLine
 10
29.832883
 20
51.838255
 30
0.0
 11
29.902883
 21
51.908255
 31
0.0
  0
LINE
  5
43A
330
1F
100
AcDbEntity
  8
Untitled
 62
     7
370
     5
100
AcDbLine
 10
28.652883
 20
51.908255
 30
0.0
 11
28.722883
 21
51.838255
 31
0.0
  0
LINE
  5
43B
330
1F
100
AcDbEntity
  8
Untitled
 62
     7
370
     5
100
AcDbLine
 10
29.902883
 20
51.908255
 30
0.0
 11
28.652883
 21
51.908255
 31
0.0
  0
ELLIPSE
  5
43C
330
1F
100
AcDbEntity
  8
Untitled
 62
     7
370
     5
100
AcDbEllipse
 10
30.137883
 20
52.635255
 30
0.0
 11
0.01500000000000057
 21
0.0
 31
0.0
210
0.0
220
0.0
230
1.0
 40
1.0
 41
0.0
 42
1.570796326794897
  0
ELLIPSE
  5
43D
330
1F
100
AcDbEntity
  8
Untitled
 62
     7
370
     5
100
AcDbEllipse
 10
28.417883
 20
52.635255
 30
0.0
 11
0.01500000000000057
 21
0.0
 31
0.0
210
0.0
220
0.0
230
1.0
 40
1.0
 41
1.570796326794897
 42
3.141592653589793
  0
LINE
  5
43E
330
1F
100
AcDbEntity
  8
Untitled
 62
     7
370
     5
100
AcDbLine
 10
29.902883
 20
52.110255
 30
0.0
 11
28.652883
 21
52.110255
 31
0.0
  0
ELLIPSE
  5
43F
330
1F
100
AcDbEntity
  8
Untitled
 62
     7
370
     5
100
AcDbEllipse
 10
30.070855
 20
52.584446
 30
0.0
 11
0.08202755905521697
 21
0.0
 31
0.0
210
0.0
220
0.0
230
1.0
 40
1.0
 41
4.817604800843806
 42
6.280851837137723
  0
ELLIPSE
  5
440
330
1F
100
AcDbEntity
  8
Untitled
 62
     7
370
     5
100
AcDbEllipse
 10
29.690034
 20
52.431732
 30
0.0
 11
0.3855548038424835
 21
0.0
 31
0.0
210
0.0
220
0.0
230
1.0
 40
1.0
 41
5.297219511022345
 42
6.443239178660859
  0
ELLIPSE
  5
441
330
1F
100
AcDbEntity
  8
Untitled
 62
     7
370
     5
100
AcDbEllipse
 10
30.080504
 20
52.493083
 30
0.0
 11
0.009843307086523345
 21
0.0
 31
0.0
210
0.0
220
0.0
230
1.0
 40
1.0
 41
1.676012147259426
 42
3.131881859141632
  0
LINE
  5
442
330
1F
100
AcDbEntity
  8
Untitled
 62
     7
370
     5
100
AcDbLine
 10
30.152883
 20
52.584255
 30
0.0
 11
30.152883
 21
52.635255
 31
0.0
  0
ELLIPSE
  5
443
330
1F
100
AcDbEntity
  8
Untitled
 62
     7
370
     5
100
AcDbEllipse
 10
28.475261
 20
52.493083
 30
0.0
 11
0.009843307086633965
 21
0.0
 31
0.0
210
0.0
220
0.0
230
1.0
 40
1.0
 41
0.0097107944480521
 42
1.465580506326838
  0
ELLIPSE
  5
444
330
1F
100
AcDbEntity
  8
Untitled
 62
     7
370
     5
100
AcDbEllipse
 10
28.865731
 20
52.431732
 30
0.0
 11
0.3855548038424088
 21
0.0
 31
0.0
210
0.0
220
0.0
230
1.0
 40
1.0
 41
2.981538782108488
 42
4.12755844974722
  0
ELLIPSE
  5
445
330
1F
100
AcDbEntity
  8
Untitled
 62
     7
370
     5
100
AcDbEllipse
 10
28.48491
 20
52.584446
 30
0.0
 11
0.08202755905508234
 21
0.0
 31
0.0
210
0.0
220
0.0
230
1.0
 40
1.0
 41
3.14392612363166
 42
4.607173159925487
  0
LINE
  5
446
330
1F
100
AcDbEntity
  8
Untitled
 62
     7
370
     5
100
AcDbLine
 10
30.07947
 20
52.502872
 30
0.0
 11
28.476295
 21
52.502872
 31
0.0
  0
LINE
  5
447
330
1F
100
AcDbEntity
  8
Untitled
 62
     7
370
     5
100
AcDbLine
 10
29.777883
 20
41.046026
 30
0.0
 11
29.777883
 21
51.838255
 31
0.0
  0
LINE
  5
448
330
1F
100
AcDbEntity
  8
Untitled
 62
     7
370
     5
100
AcDbLine
 10
-11.082117
 20
52.650255
 30
0.0
 11
-9.362117
 21
52.650255
 31
0.0
  0
LINE
  5
449
330
1F
100
AcDbEntity
  8
Untitled
 62
     7
370
     5
100
AcDbLine
 10
-9.347117
 20
52.635255
 30
0.0
 11
-9.347117
 21
52.584255
 31
0.0
  0
LINE
  5
44A
330
1F
100
AcDbEntity
  8
Untitled
 62
     7
370
     5
100
AcDbLine
 10
-10.847117
 20
51.908255
 30
0.0
 11
-10.847117
 21
52.110255
 31
0.0
  0
LINE
  5
44B
330
1F
100
AcDbEntity
  8
Untitled
 62
     7
370
     5
100
AcDbLine
 10
-9.597117
 20
51.908255
 30
0.0
 11
-9.597117
 21
52.110255
 31
0.0
  0
LINE
  5
44C
330
1F
100
AcDbEntity
  8
Untitled
 62
     7
370
     5
100
AcDbLine
 10
-9.667117
 20
51.838255
 30
0.0
 11
-10.777117
 21
51.838255
 31
0.0
  0
LINE
  5
44D
330
1F
100
AcDbEntity
  8
Untitled
 62
     7
370
     5
100
AcDbLine
 10
-10.777117
 20
51.838255
 30
0.0
 11
-10.847117
 21
51.908255
 31
0.0
  0
LINE
  5
44E
330
1F
100
AcDbEntity
  8
Untitled
 62
     7
370
     5
100
AcDbLine
 10
-9.597117
 20
51.908255
 30
0.0
 11
-9.667117
 21
51.838255
 31
0.0
  0
LINE
  5
44F
330
1F
100
AcDbEntity
  8
Untitled
 62
     7
370
     5
100
AcDbLine
 10
-10.847117
 20
51.908255
 30
0.0
 11
-9.597117
 21
51.908255
 31
0.0
  0
ELLIPSE
  5
450
330
1F
100
AcDbEntity
  8
Untitled
 62
     7
370
     5
100
AcDbEllipse
 10
-11.082117
 20
52.635255
 30
0.0
 11
0.01500000000000057
 21
0.0
 31
0.0
210
0.0
220
0.0
230
1.0
 40
1.0
 41
1.570796326794897
 42
3.141592653589793
  0
ELLIPSE
  5
451
330
1F
100
AcDbEntity
  8
Untitled
 62
     7
370
     5
100
AcDbEllipse
 10
-9.362117
 20
52.635255
 30
0.0
 11
0.01500000000000057
 21
0.0
 31
0.0
210
0.0
220
0.0
230
1.0
 40
1.0
 41
0.0
 42
1.570796326794897
  0
LINE
  5
452
330
1F
100
AcDbEntity
  8
Untitled
 62
     7
370
     5
100
AcDbLine
 10
-10.847117
 20
52.110255
 30
0.0
 11
-9.597117
 21
52.110255
 31
0.0
  0
ELLIPSE
  5
453
330
1F
100
AcDbEntity
  8
Untitled
 62
     7
370
     5
100
AcDbEllipse
 10
-11.01509
 20
52.584446
 30
0.0
 11
0.08202755905524044
 21
0.0
 31
0.0
210
0.0
220
0.0
230
1.0
 40
1.0
 41
3.143926123631656
 42
4.607173159925524
  0
ELLIPSE
  5
454
330
1F
100
AcDbEntity
  8
Untitled
 62
     7
370
     5
100
AcDbEllipse
 10
-10.634269
 20
52.431732
 30
0.0
 11
0.3855548038424877
 21
0.0
 31
0.0
210
0.0
220
0.0
230
1.0
 40
1.0
 41
2.981538782108521
 42
4.127558449747063
  0
ELLIPSE
  5
455
330
1F
100
AcDbEntity
  8
Untitled
 62
     7
370
     5
100
AcDbEllipse
 10
-11.024739
 20
52.493083
 30
0.0
 11
0.009843307086513179
 21
0.0
 31
0.0
210
0.0
220
0.0
230
1.0
 40
1.0
 41
0.0097107944481713
 42
1.465580506330215
  0
LINE
  5
456
330
1F
100
AcDbEntity
  8
Untitled
 62
     7
370
     5
100
AcDbLine
 10
-11.097117
 20
52.584255
 30
0.0
 11
-11.097117
 21
52.635255
 31
0.0
  0
ELLIPSE
  5
457
330
1F
100
AcDbEntity
  8
Untitled
 62
     7
370
     5
100
AcDbEllipse
 10
-9.419496
 20
52.493083
 30
0.0
 11
0.009843307086527449
 21
0.0
 31
0.0
210
0.0
220
0.0
230
1.0
 40
1.0
 41
1.676012147263374
 42
3.131881859141636
  0
ELLIPSE
  5
458
330
1F
100
AcDbEntity
  8
Untitled
 62
     7
370
     5
100
AcDbEllipse
 10
-9.809966
 20
52.431732
 30
0.0
 11
0.3855548038424384
 21
0.0
 31
0.0
210
0.0
220
0.0
230
1.0
 40
1.0
 41
5.297219511022168
 42
6.44323917866088
  0
ELLIPSE
  5
459
330
1F
100
AcDbEntity
  8
Untitled
 62
     7
370
     5
100
AcDbEllipse
 10
-9.429145
 20
52.584446
 30
0.0
 11
0.08202755905521734
 21
0.0
 31
0.0
210
0.0
220
0.0
230
1.0
 40
1.0
 41
4.817604800843849
 42
6.280851837137723
  0
LINE
  5
45A
330
1F
100
AcDbEntity
  8
Untitled
 62
     7
370
     5
100
AcDbLine
 10
-11.023705
 20
52.502872
 30
0.0
 11
-9.42053
 21
52.502872
 31
0.0
  0
LINE
  5
45B
330
1F
100
AcDbEntity
  8
Untitled
 62
     7
370
     5
100
AcDbLine
 10
-10.722117
 20
41.046026
 30
0.0
 11
-10.722117
 21
51.838255
 31
0.0
  0
LINE
  5
45C
330
1F
100
AcDbEntity
  8
Untitled
 62
     7
370
     5
100
AcDbLine
 10
-9.722117
 20
51.838255
 30
0.0
 11
-9.722117
 21
41.046026
 31
0.0
  0
LINE
  5
45D
330
1F
100
AcDbEntity
  8
Untitled
 62
     7
370
     5
100
AcDbLine
 10
-11.472117
 20
38.150255
 30
0.0
 11
-11.472117
 21
52.650255
 31
0.0
  0
LINE
  5
45E
330
1F
100
AcDbEntity
  8
Untitled
 62
     7
370
     5
100
AcDbLine
 10
30.527883
 20
38.150255
 30
0.0
 11
30.527883
 21
52.650255
 31
0.0
  0
ELLIPSE
  5
45F
330
1F
100
AcDbEntity
  8
Untitled
 62
     7
370
     5
100
AcDbEllipse
 10
9.527883
 20
45.814003
 30
0.0
 11
15.66374824355606
 21
0.0
 31
0.0
210
0.0
220
0.0
230
1.0
 40
1.0
 41
3.832703814754086
 42
5.592074146017038
  0
LINE
  5
460
330
1F
100
AcDbEntity
  8
Untitled
 62
     7
370
     5
100
AcDbLine
 10
30.527883
 20
52.650255
 30
0.0
 11
-11.472117
 21
52.650255
 31
0.0
  0
LINE
  5
461
330
1F
100
AcDbEntity
  8
Untitled
 62
     7
370
     5
100
AcDbLine
 10
-7.396965
 20
38.150255
 30
0.0
 11
-11.472117
 21
38.150255
 31
0.0
  0
ELLIPSE
  5
462
330
1F
100
AcDbEntity
  8
Untitled
 62
     7
370
     5
100
AcDbEllipse
 10
-7.473079
 20
31.750707
 30
0.0
 11
6.400000000000016
 21
0.0
 31
0.0
210
0.0
220
0.0
230
1.0
 40
1.0
 41
0.6911111611625528
 42
1.558903232401907
  0
LINE
  5
463
330
1F
100
AcDbEntity
  8
Untitled
 62
     7
370
     5
100
AcDbLine
 10
26.45273
 20
38.150255
 30
0.0
 11
30.527883
 21
38.150255
 31
0.0
  0
ELLIPSE
  5
464
330
1F
100
AcDbEntity
  8
Untitled
 62
     7
370
     5
100
AcDbEllipse
 10
26.528844
 20
31.750707
 30
0.0
 11
6.400000000000011
 21
0.0
 31
0.0
210
0.0
220
0.0
230
1.0
 40
1.0
 41
1.58268942118788
 42
2.450481492427239
  0
ELLIPSE
  5
465
330
1F
100
AcDbEntity
  8
Untitled
 62
     7
370
     5
100
AcDbEllipse
 10
9.527883
 20
40.400255
 30
0.0
 11
10.0
 21
0.0
 31
0.0
210
0.0
220
0.0
230
1.0
 40
0.775
 41
4.71238898038469
 42
10.99557428756428
  0
ELLIPSE
  5
466
330
1F
100
AcDbEntity
  8
Untitled
 62
     7
370
     5
100
AcDbEllipse
 10
9.527883
 20
41.400255
 30
0.0
 11
0.7499999999995985
 21
0.0
 31
0.0
210
0.0
220
0.0
230
1.0
 40
1.0
 41
0.0
 42
6.283185307179586
  0
ELLIPSE
  5
467
330
1F
100
AcDbEntity
  8
Untitled
 62
     7
370
     5
100
AcDbEllipse
 10
9.527883
 20
41.400255
 30
0.0
 11
1.249999999999789
 21
0.0
 31
0.0
210
0.0
220
0.0
230
1.0
 40
1.0
 41
0.0
 42
6.283185307179586
  0
LINE
  5
468
330
1F
100
AcDbEntity
  8
Untitled
 62
     7
370
     5
100
AcDbLine
 10
9.527883
 20
40.900255
 30
0.0
 11
9.527883
 21
41.900255
 31
0.0
  0
LINE
  5
469
330
1F
100
AcDbEntity
  8
Untitled
 62
     7
370
     5
100
AcDbLine
 10
10.027883
 20
41.400255
 30
0.0
 11
9.027883
 21
41.400255
 31
0.0
  0
ELLIPSE
  5
46A
330
1F
100
AcDbEntity
  8
Untitled
 62
     7
370
     5
100
AcDbEllipse
 10
9.527883
 20
50.400255
 30
0.0
 11
0.6249999999998394
 21
0.0
 31
0.0
210
0.0
220
0.0
230
1.0
 40
1.0
 41
0.0
 42
6.283185307179586
  0
ELLIPSE
  5
46B
330
1F
100
AcDbEntity
  8
Untitled
 62
     7
370
     5
100
AcDbEllipse
 10
5.527883
 20
50.400255
 30
0.0
 11
0.6250000000002818
 21
0.0
 31
0.0
210
0.0
220
0.0
230
1.0
 40
1.0
 41
0.0
 42
6.283185307179586
  0
ELLIPSE
  5
46C
330
1F
100
AcDbEntity
  8
Untitled
 62
     7
370
     5
100
AcDbEllipse
 10
13.527883
 20
50.400255
 30
0.0
 11
0.6250000000000603
 21
0.0
 31
0.0
210
0.0
220
0.0
230
1.0
 40
1.0
 41
0.0
 42
6.283185307179586
  0
INSERT
  5
46E
330
1F
100
AcDbEntity
  8
0
100
AcDbBlockReference
  2
Block892
 10
-14.472117
 20
38.150255
 30
0.0
  0
INSERT
  5
476
330
1F
100
AcDbEntity
  8
0
100
AcDbBlockReference
  2
Block893
 10
-11.472117
 20
55.650255
 30
0.0
  0
INSERT
  5
47E
330
1F
100
AcDbEntity
  8
0
100
AcDbBlockReference
  2
Block894
 10
35.027883
 20
52.650255
 30
0.0
  0
INSERT
  5
486
330
1F
100
AcDbEntity
  8
0
100
AcDbBlockReference
  2
Block895
 10
40.087763
 20
12.650255
 30
0.0
  0
LINE
  5
48C
330
1F
100
AcDbEntity
  8
Untitled
 62
     7
370
     5
100
AcDbLine
 10
43.207156
 20
11.686396
 30
0.0
 11
43.246285
 21
11.633728
 31
0.0
  0
LINE
  5
48D
330
1F
100
AcDbEntity
  8
Untitled
 62
     7
370
     5
100
AcDbLine
 10
43.246285
 20
12.666782
 30
0.0
 11
43.207156
 21
12.614113
 31
0.0
  0
INSERT
  5
48F
330
1F
100
AcDbEntity
  8
0
100
AcDbBlockReference
  2
Block898
 10
58.027883
 20
6.552075
 30
0.0
  0
LINE
  5
495
330
1F
100
AcDbEntity
  8
Untitled
 62
     7
370
     5
100
AcDbLine
 10
19.698828
 20
20.150255
 30
0.0
 11
12.698828
 21
20.150255
 31
0.0
  0
LINE
  5
496
330
1F
100
AcDbEntity
  8
Untitled
 62
     7
370
     5
100
AcDbLine
 10
12.698828
 20
18.900255
 30
0.0
 11
19.698828
 21
18.900255
 31
0.0
  0
LINE
  5
497
330
1F
100
AcDbEntity
  8
Untitled
 62
     7
370
     5
100
AcDbLine
 10
19.698828
 20
20.025255
 30
0.0
 11
12.698828
 21
20.025255
 31
0.0
  0
LINE
  5
498
330
1F
100
AcDbEntity
  8
Untitled
 62
     7
370
     5
100
AcDbLine
 10
19.698828
 20
18.900255
 30
0.0
 11
19.698828
 21
20.150255
 31
0.0
  0
ELLIPSE
  5
499
330
1F
100
AcDbEntity
  8
Untitled
 62
     7
370
     5
100
AcDbEllipse
 10
18.698828
 20
19.525255
 30
0.0
 11
0.2499999999999959
 21
0.0
 31
0.0
210
0.0
220
0.0
230
1.0
 40
1.0
 41
0.0
 42
6.283185307179586
  0
LINE
  5
49A
330
1F
100
AcDbEntity
  8
Untitled
 62
     7
370
     5
100
AcDbLine
 10
12.698828
 20
20.150255
 30
0.0
 11
12.698828
 21
18.900255
 31
0.0
  0
ELLIPSE
  5
49B
330
1F
100
AcDbEntity
  8
Untitled
 62
     7
370
     5
100
AcDbEllipse
 10
13.698828
 20
19.525255
 30
0.0
 11
0.2500000000000333
 21
0.0
 31
0.0
210
0.0
220
0.0
230
1.0
 40
1.0
 41
0.0
 42
6.283185307179586
  0
INSERT
  5
49D
330
1F
100
AcDbEntity
  8
0
100
AcDbBlockReference
  2
Block909
 10
11.95211
 20
39.400255
 30
0.0
  0
INSERT
  5
4A5
330
1F
100
AcDbEntity
  8
0
100
AcDbBlockReference
  2
Block914
 10
-10.056086
 20
69.73185
 30
0.0
  0
TEXT
  5
4A8
330
1F
100
AcDbEntity
  8
Untitled
 62
     7
100
AcDbText
 10
-15.974819
 20
64.84931
 30
0.0
 40
1.125
  1
Refer to the PDF specification for model numbers and additional information.
  7
ARIAL_400_0
100
AcDbText
  0
INSERT
  5
4AA
330
1F
100
AcDbEntity
  8
0
100
AcDbBlockReference
  2
Block916
 10
-17.137225
 20
62.113182
 30
0.0
  0
LINE
  5
4AE
330
1F
100
AcDbEntity
  8
Untitled
 62
     1
370
     5
100
AcDbLine
 10
-9.924205
 20
67.442277
 30
0.0
 11
30.09433
 21
67.442277
 31
0.0
  0
TEXT
  5
4AF
330
1F
100
AcDbEntity
  8
Untitled
 62
     7
100
AcDbText
 10
1.281356
 20
72.284226
 30
0.0
 40
1.125
  1
PALMER INDUSTRIES
  7
ARIAL_400_0
100
AcDbText
  0
LINE
  5
4B0
330
1F
100
AcDbEntity
  8
Untitled
 62
   136
370
     5
100
AcDbLine
 10
1.437125
 20
71.705242
 30
0.0
 11
17.535577
 21
71.705242
 31
0.0
  0
ENDSEC
  0
SECTION
  2
OBJECTS
  0
DICTIONARY
  5
C
330
0
100
AcDbDictionary
281
     1
  3
ACAD_COLOR
350
6B
  3
ACAD_GROUP
350
D
  3
ACAD_IMAGE_VARS
350
8D
  3
ACAD_LAYOUT
350
1A
  3
ACAD_MATERIAL
350
6A
  3
ACAD_MLEADERSTYLE
350
D8
  3
ACAD_MLINESTYLE
350
17
  3
ACAD_PLOTSETTINGS
350
19
  3
ACAD_PLOTSTYLENAME
350
E
  3
ACAD_SCALELIST
350
98
  3
ACAD_TABLESTYLE
350
D6
  3
ACAD_VISUALSTYLE
350
BD
  3
ACDBHEADERROUNDTRIPXREC
350
4CC
  3
AcDbVariableDictionary
350
5E
  0
DICTIONARY
  5
4CF
330
8
100
AcDbDictionary
280
     1
281
     1
  3
ACAD_XREC_ROUNDTRIP
360
4D0
  0
DICTIONARY
  5
6B
102
{ACAD_REACTORS
330
C
102
}
330
C
100
AcDbDictionary
281
     1
  0
DICTIONARY
  5
D
102
{ACAD_REACTORS
330
C
102
}
330
C
100
AcDbDictionary
281
     1
  0
RASTERVARIABLES
  5
8D
102
{ACAD_REACTORS
330
C
102
}
330
C
100
AcDbRasterVariables
 90
        0
 70
     0
 71
     1
 72
     1
  0
DICTIONARY
  5
1A
102
{ACAD_REACTORS
330
C
102
}
330
C
100
AcDbDictionary
281
     1
  3
Layout1
350
51
  3
Layout2
350
56
  3
Model
350
22
  0
DICTIONARY
  5
6A
102
{ACAD_REACTORS
330
C
102
}
330
C
100
AcDbDictionary
281
     1
  3
ByBlock
350
BB
  3
ByLayer
350
BA
  3
Global
350
BC
  0
DICTIONARY
  5
D8
102
{ACAD_REACTORS
330
C
102
}
330
C
100
AcDbDictionary
281
     1
  3
Standard
350
D9
  0
DICTIONARY
  5
17
102
{ACAD_REACTORS
330
C
102
}
330
C
100
AcDbDictionary
281
     1
  3
Standard
350
18
  0
DICTIONARY
  5
19
102
{ACAD_REACTORS
330
C
102
}
330
C
100
AcDbDictionary
281
     1
  0
ACDBDICTIONARYWDFLT
  5
E
102
{ACAD_REACTORS
330
C
102
}
330
C
100
AcDbDictionary
281
     1
  3
Normal
350
F
100
AcDbDictionaryWithDefault
340
F
  0
DICTIONARY
  5
98
102
{ACAD_REACTORS
330
C
102
}
330
C
100
AcDbDictionary
281
     1
  3
A0
350
99
  3
A1
350
9A
  3
A2
350
9B
  3
A3
350
9C
  3
A4
350
9D
  3
A5
350
9E
  3
A6
350
9F
  3
A7
350
A0
  3
A8
350
A1
  3
A9
350
A2
  3
B0
350
A3
  3
B1
350
A4
  3
B2
350
A5
  3
B3
350
A6
  3
B4
350
A7
  3
B5
350
A8
  3
B6
350
A9
  3
B7
350
AA
  3
B8
350
AB
  3
B9
350
AC
  3
C0
350
AD
  3
C1
350
AE
  3
C2
350
AF
  3
C3
350
B0
  3
C4
350
B1
  3
C5
350
B2
  3
C6
350
B3
  3
C7
350
B4
  3
C8
350
B5
  3
C9
350
B6
  3
D0
350
B7
  3
D1
350
B8
  3
D2
350
B9
  0
DICTIONARY
  5
D6
102
{ACAD_REACTORS
330
C
102
}
330
C
100
AcDbDictionary
281
     1
  3
Standard
350
D7
  0
DICTIONARY
  5
BD
102
{ACAD_REACTORS
330
C
102
}
330
C
100
AcDbDictionary
281
     1
  3
2dWireframe
350
C2
  3
Basic
350
C5
  3
Brighten
350
C9
  3
ColorChange
350
CD
  3
Conceptual
350
C7
  3
Dim
350
C8
  3
EdgeColorOff
350
D0
  3
Facepattern
350
CC
  3
Flat
350
BE
  3
FlatWithEdges
350
BF
  3
Gouraud
350
C0
  3
GouraudWithEdges
350
C1
  3
Hidden
350
C4
  3
JitterOff
350
CE
  3
Linepattern
350
CB
  3
OverhangOff
350
CF
  3
Realistic
350
C6
  3
Shaded
350
D5
  3
Shaded with edges
350
D4
  3
Shades of Gray
350
D1
  3
Sketchy
350
D2
  3
Thicken
350
CA
  3
Wireframe
350
C3
  3
X-Ray
350
D3
  0
DICTIONARY
  5
4CC
102
{ACAD_REACTORS
330
C
102
}
330
C
100
AcDbDictionary
281
     1
  3
COLORDICT
350
4CD
  3
MATERIALDICT
350
4CE
  0
DICTIONARY
  5
5E
102
{ACAD_REACTORS
330
C
102
}
330
C
100
AcDbDictionary
281
     1
  3
CANNOSCALE
350
4D1
  3
CMLEADERSTYLE
350
4C8
  3
CTABLESTYLE
350
4C7
  3
DIMASSOC
350
5F
  3
HIDETEXT
350
63
  3
MSLTSCALE
350
4C9
  3
PROJECTNAME
350
89
  0
XRECORD
  5
4D0
102
{ACAD_REACTORS
330
4CF
102
}
330
4CF
100
AcDbXrecord
280
     1
102
VTR_0.000_0.000_1.000_1.000_VISUALSTYLE
340
C2
102
VTR_0.000_0.000_1.000_1.000_GRIDDISPLAY
 70
     3
102
VTR_0.000_0.000_1.000_1.000_GRIDMAJOR
 70
     5
102
VTR_0.000_0.000_1.000_1.000_DEFAULTLIGHTING
280
     1
102
VTR_0.000_0.000_1.000_1.000_DEFAULTLIGHTINGTYPE
 70
     1
102
VTR_0.000_0.000_1.000_1.000_BRIGHTNESS
141
0.0
102
VTR_0.000_0.000_1.000_1.000_CONTRAST
142
0.0
  0
LAYOUT
  5
51
102
{ACAD_REACTORS
330
1A
102
}
330
1A
100
AcDbPlotSettings
  1

  2
None
  4

  6

 40
0.0
 41
0.0
 42
0.0
 43
0.0
 44
0.0
 45
0.0
 46
0.0
 47
0.0
 48
0.0
 49
0.0
140
0.0
141
0.0
142
1.0
143
1.0
 70
   688
 72
     0
 73
     0
 74
     5
  7

 75
    16
147
1.0
148
0.0
149
0.0
100
AcDbLayout
  1
Layout1
 70
     1
 71
     1
 10
0.0
 20
0.0
 11
12.0
 21
9.0
 12
0.0
 22
0.0
 32
0.0
 14
0.0
 24
0.0
 34
0.0
 15
0.0
 25
0.0
 35
0.0
146
0.0
 13
0.0
 23
0.0
 33
0.0
 16
1.0
 26
0.0
 36
0.0
 17
0.0
 27
1.0
 37
0.0
 76
     0
330
50
  0
LAYOUT
  5
56
102
{ACAD_REACTORS
330
1A
102
}
330
1A
100
AcDbPlotSettings
  1

  2
None
  4

  6

 40
0.0
 41
0.0
 42
0.0
 43
0.0
 44
0.0
 45
0.0
 46
0.0
 47
0.0
 48
0.0
 49
0.0
140
0.0
141
0.0
142
1.0
143
1.0
 70
   688
 72
     0
 73
     0
 74
     5
  7

 75
    16
147
1.0
148
0.0
149
0.0
100
AcDbLayout
  1
Layout2
 70
     1
 71
     2
 10
0.0
 20
0.0
 11
12.0
 21
9.0
 12
0.0
 22
0.0
 32
0.0
 14
0.0
 24
0.0
 34
0.0
 15
0.0
 25
0.0
 35
0.0
146
0.0
 13
0.0
 23
0.0
 33
0.0
 16
1.0
 26
0.0
 36
0.0
 17
0.0
 27
1.0
 37
0.0
 76
     0
330
55
  0
LAYOUT
  5
22
102
{ACAD_REACTORS
330
1A
102
}
330
1A
100
AcDbPlotSettings
  1

  2
none_device
  4
ANSI_A_(8.50_x_11.00_Inches)
  6

 40
6.35
 41
19.049999
 42
6.350006
 43
19.049988
 44
215.899994
 45
279.399994
 46
0.0
 47
0.0
 48
0.0
 49
0.0
140
0.0
141
0.0
142
1.0
143
78.436453
 70
 11952
 72
     0
 73
     1
 74
     0
  7

 75
     0
147
0.012749
148
0.0
149
0.0
100
AcDbLayout
  1
Model
 70
     1
 71
     0
 10
0.0
 20
0.0
 11
12.0
 21
9.0
 12
0.0
 22
0.0
 32
0.0
 14
0.0
 24
0.0
 34
0.0
 15
0.0
 25
0.0
 35
0.0
146
0.0
 13
0.0
 23
0.0
 33
0.0
 16
1.0
 26
0.0
 36
0.0
 17
0.0
 27
1.0
 37
0.0
 76
     0
330
1F
331
8E
  0
MATERIAL
  5
BB
102
{ACAD_REACTORS
330
6A
102
}
102
{ACAD_XDICTIONARY
360
4D4
102
}
330
6A
100
AcDbMaterial
  1
ByBlock
  0
MATERIAL
  5
BA
102
{ACAD_REACTORS
330
6A
102
}
102
{ACAD_XDICTIONARY
360
4D2
102
}
330
6A
100
AcDbMaterial
  1
ByLayer
  0
MATERIAL
  5
BC
102
{ACAD_REACTORS
330
6A
102
}
102
{ACAD_XDICTIONARY
360
4D6
102
}
330
6A
100
AcDbMaterial
  1
Global
  0
MLEADERSTYLE
  5
D9
102
{ACAD_REACTORS
330
D8
102
}
102
{ACAD_XDICTIONARY
360
509
102
}
330
D8
100
AcDbMLeaderStyle
170
     2
171
     1
172
     0
 90
        2
 40
0.0
 41
0.0
173
     1
 91
-1056964608
340
14
 92
       -2
290
     1
 42
2.0
291
     1
 43
8.0
  3
Standard
341
0
 44
4.0
300

342
11
174
     1
178
     6
175
     1
176
     0
 93
-1056964608
 45
4.0
292
     0
297
     0
 46
4.0
343
0
 94
-1056964608
 47
1.0
 49
1.0
140
1.0
293
     1
141
0.0
294
     1
177
     0
142
1.0
295
     0
296
     0
143
3.75
1001
ACAD_MLEADERVER
1070
     2
  0
MLINESTYLE
  5
18
102
{ACAD_REACTORS
330
17
102
}
330
17
100
AcDbMlineStyle
  2
STANDARD
 70
     0
  3

 62
   256
 51
90.0
 52
90.0
 71
     2
 49
0.5
 62
   256
  6
BYLAYER
 49
-0.5
 62
   256
  6
BYLAYER
  0
ACDBPLACEHOLDER
  5
F
102
{ACAD_REACTORS
330
E
102
}
330
E
  0
SCALE
  5
99
102
{ACAD_REACTORS
330
98
102
}
330
98
100
AcDbScale
 70
     0
300
1:1
140
1.0
141
1.0
290
     1
  0
SCALE
  5
9A
102
{ACAD_REACTORS
330
98
102
}
330
98
100
AcDbScale
 70
     0
300
1:2
140
1.0
141
2.0
290
     0
  0
SCALE
  5
9B
102
{ACAD_REACTORS
330
98
102
}
330
98
100
AcDbScale
 70
     0
300
1:4
140
1.0
141
4.0
290
     0
  0
SCALE
  5
9C
102
{ACAD_REACTORS
330
98
102
}
330
98
100
AcDbScale
 70
     0
300
1:5
140
1.0
141
5.0
290
     0
  0
SCALE
  5
9D
102
{ACAD_REACTORS
330
98
102
}
330
98
100
AcDbScale
 70
     0
300
1:8
140
1.0
141
8.0
290
     0
  0
SCALE
  5
9E
102
{ACAD_REACTORS
330
98
102
}
330
98
100
AcDbScale
 70
     0
300
1:10
140
1.0
141
10.0
290
     0
  0
SCALE
  5
9F
102
{ACAD_REACTORS
330
98
102
}
330
98
100
AcDbScale
 70
     0
300
1:16
140
1.0
141
16.0
290
     0
  0
SCALE
  5
A0
102
{ACAD_REACTORS
330
98
102
}
330
98
100
AcDbScale
 70
     0
300
1:20
140
1.0
141
20.0
290
     0
  0
SCALE
  5
A1
102
{ACAD_REACTORS
330
98
102
}
330
98
100
AcDbScale
 70
     0
300
1:30
140
1.0
141
30.0
290
     0
  0
SCALE
  5
A2
102
{ACAD_REACTORS
330
98
102
}
330
98
100
AcDbScale
 70
     0
300
1:40
140
1.0
141
40.0
290
     0
  0
SCALE
  5
A3
102
{ACAD_REACTORS
330
98
102
}
330
98
100
AcDbScale
 70
     0
300
1:50
140
1.0
141
50.0
290
     0
  0
SCALE
  5
A4
102
{ACAD_REACTORS
330
98
102
}
330
98
100
AcDbScale
 70
     0
300
1:100
140
1.0
141
100.0
290
     0
  0
SCALE
  5
A5
102
{ACAD_REACTORS
330
98
102
}
330
98
100
AcDbScale
 70
     0
300
2:1
140
2.0
141
1.0
290
     0
  0
SCALE
  5
A6
102
{ACAD_REACTORS
330
98
102
}
330
98
100
AcDbScale
 70
     0
300
4:1
140
4.0
141
1.0
290
     0
  0
SCALE
  5
A7
102
{ACAD_REACTORS
330
98
102
}
330
98
100
AcDbScale
 70
     0
300
8:1
140
8.0
141
1.0
290
     0
  0
SCALE
  5
A8
102
{ACAD_REACTORS
330
98
102
}
330
98
100
AcDbScale
 70
     0
300
10:1
140
10.0
141
1.0
290
     0
  0
SCALE
  5
A9
102
{ACAD_REACTORS
330
98
102
}
330
98
100
AcDbScale
 70
     0
300
100:1
140
100.0
141
1.0
290
     0
  0
SCALE
  5
AA
102
{ACAD_REACTORS
330
98
102
}
330
98
100
AcDbScale
 70
     0
300
1/128" = 1'-0"
140
0.007812
141
12.0
290
     0
  0
SCALE
  5
AB
102
{ACAD_REACTORS
330
98
102
}
330
98
100
AcDbScale
 70
     0
300
1/64" = 1'-0"
140
0.015625
141
12.0
290
     0
  0
SCALE
  5
AC
102
{ACAD_REACTORS
330
98
102
}
330
98
100
AcDbScale
 70
     0
300
1/32" = 1'-0"
140
0.03125
141
12.0
290
     0
  0
SCALE
  5
AD
102
{ACAD_REACTORS
330
98
102
}
330
98
100
AcDbScale
 70
     0
300
1/16" = 1'-0"
140
0.0625
141
12.0
290
     0
  0
SCALE
  5
AE
102
{ACAD_REACTORS
330
98
102
}
330
98
100
AcDbScale
 70
     0
300
3/32" = 1'-0"
140
0.09375
141
12.0
290
     0
  0
SCALE
  5
AF
102
{ACAD_REACTORS
330
98
102
}
330
98
100
AcDbScale
 70
     0
300
1/8" = 1'-0"
140
0.125
141
12.0
290
     0
  0
SCALE
  5
B0
102
{ACAD_REACTORS
330
98
102
}
330
98
100
AcDbScale
 70
     0
300
3/16" = 1'-0"
140
0.1875
141
12.0
290
     0
  0
SCALE
  5
B1
102
{ACAD_REACTORS
330
98
102
}
330
98
100
AcDbScale
 70
     0
300
1/4" = 1'-0"
140
0.25
141
12.0
290
     0
  0
SCALE
  5
B2
102
{ACAD_REACTORS
330
98
102
}
330
98
100
AcDbScale
 70
     0
300
3/8" = 1'-0"
140
0.375
141
12.0
290
     0
  0
SCALE
  5
B3
102
{ACAD_REACTORS
330
98
102
}
330
98
100
AcDbScale
 70
     0
300
1/2" = 1'-0"
140
0.5
141
12.0
290
     0
  0
SCALE
  5
B4
102
{ACAD_REACTORS
330
98
102
}
330
98
100
AcDbScale
 70
     0
300
3/4" = 1'-0"
140
0.75
141
12.0
290
     0
  0
SCALE
  5
B5
102
{ACAD_REACTORS
330
98
102
}
330
98
100
AcDbScale
 70
     0
300
1" = 1'-0"
140
1.0
141
12.0
290
     0
  0
SCALE
  5
B6
102
{ACAD_REACTORS
330
98
102
}
330
98
100
AcDbScale
 70
     0
300
1-1/2" = 1'-0"
140
1.5
141
12.0
290
     0
  0
SCALE
  5
B7
102
{ACAD_REACTORS
330
98
102
}
330
98
100
AcDbScale
 70
     0
300
3" = 1'-0"
140
3.0
141
12.0
290
     0
  0
SCALE
  5
B8
102
{ACAD_REACTORS
330
98
102
}
330
98
100
AcDbScale
 70
     0
300
6" = 1'-0"
140
6.0
141
12.0
290
     0
  0
SCALE
  5
B9
102
{ACAD_REACTORS
330
98
102
}
330
98
100
AcDbScale
 70
     0
300
1'-0" = 1'-0"
140
12.0
141
12.0
290
     0
  0
TABLESTYLE
  5
D7
102
{ACAD_REACTORS
330
D6
102
}
330
D6
100
AcDbTableStyle
  3
Standard
 70
     0
 71
     0
 40
1.5
 41
1.5
280
     0
281
     0
  7
Standard
140
4.5
170
     2
 62
     0
 63
   257
283
     0
274
    -2
284
     1
 64
     0
275
    -2
285
     1
 65
     0
276
    -2
286
     1
 66
     0
277
    -2
287
     1
 67
     0
278
    -2
288
     1
 68
     0
279
    -2
289
     1
 69
     0
  7
Standard
140
6.0
170
     5
 62
     0
 63
   257
283
     0
274
    -2
284
     1
 64
     0
275
    -2
285
     1
 65
     0
276
    -2
286
     1
 66
     0
277
    -2
287
     1
 67
     0
278
    -2
288
     1
 68
     0
279
    -2
289
     1
 69
     0
  7
Standard
140
4.5
170
     5
 62
     0
 63
   257
283
     0
274
    -2
284
     1
 64
     0
275
    -2
285
     1
 65
     0
276
    -2
286
     1
 66
     0
277
    -2
287
     1
 67
     0
278
    -2
288
     1
 68
     0
279
    -2
289
     1
 69
     0
  0
VISUALSTYLE
  5
C2
102
{ACAD_REACTORS
330
BD
102
}
102
{ACAD_XDICTIONARY
360
4E0
102
}
330
BD
100
AcDbVisualStyle
  2
2dWireframe
 70
     4
 71
     0
 72
     2
 73
     0
 90
        0
 40
0.6
 41
30.0
 62
     5
 63
     7
 74
     1
 91
        4
 64
     7
 65
   257
 75
     1
175
     1
 42
1.0
 92
        0
 66
   257
 43
1.0
 76
     1
 77
     6
 78
     2
 67
     7
 79
     5
170
     0
171
     0
290
     0
174
     0
 93
        1
 44
0.0
173
     0
291
     0
 45
0.0
1001
ACAD
1000
AcDbSavedByObjectVersion
1070
     0
  0
VISUALSTYLE
  5
C5
102
{ACAD_REACTORS
330
BD
102
}
102
{ACAD_XDICTIONARY
360
4E6
102
}
330
BD
100
AcDbVisualStyle
  2
Basic
 70
     7
 71
     1
 72
     0
 73
     1
 90
        0
 40
0.6
 41
30.0
 62
     5
 63
     7
 74
     0
 91
        4
 64
     7
 65
   257
 75
     1
175
     1
 42
1.0
 92
        8
 66
     7
 43
1.0
 76
     1
 77
     6
 78
     2
 67
     7
 79
     5
170
     0
171
     0
290
     0
174
     0
 93
        1
 44
0.0
173
     0
291
     1
 45
0.0
1001
ACAD
1000
AcDbSavedByObjectVersion
1070
     0
  0
VISUALSTYLE
  5
C9
102
{ACAD_REACTORS
330
BD
102
}
102
{ACAD_XDICTIONARY
360
4EE
102
}
330
BD
100
AcDbVisualStyle
  2
Brighten
 70
    12
 71
     2
 72
     2
 73
     0
 90
        0
 40
0.6
 41
30.0
 62
     5
 63
     7
 74
     1
 91
        4
 64
     7
 65
   257
 75
     1
175
     1
 42
1.0
 92
        8
 66
     7
 43
1.0
 76
     1
 77
     6
 78
     2
 67
     7
 79
     5
170
     0
171
     0
290
     0
174
     0
 93
        1
 44
50.0
173
     0
291
     1
 45
0.0
1001
ACAD
1000
AcDbSavedByObjectVersion
1070
     0
  0
VISUALSTYLE
  5
CD
102
{ACAD_REACTORS
330
BD
102
}
102
{ACAD_XDICTIONARY
360
4F6
102
}
330
BD
100
AcDbVisualStyle
  2
ColorChange
 70
    16
 71
     2
 72
     2
 73
     3
 90
        0
 40
0.6
 41
30.0
 62
     5
 63
     8
 74
     1
 91
        4
 64
     7
 65
   257
 75
     1
175
     1
 42
1.0
 92
        8
 66
     8
 43
1.0
 76
     1
 77
     6
 78
     2
 67
     7
 79
     5
170
     0
171
     0
290
     0
174
     0
 93
        1
 44
0.0
173
     0
291
     1
 45
0.0
1001
ACAD
1000
AcDbSavedByObjectVersion
1070
     0
  0
VISUALSTYLE
  5
C7
102
{ACAD_REACTORS
330
BD
102
}
102
{ACAD_XDICTIONARY
360
4EA
102
}
330
BD
100
AcDbVisualStyle
  2
Conceptual
 70
     9
 71
     3
 72
     2
 73
     0
 90
        0
 40
0.6
 41
30.0
 62
     5
 63
     7
 74
     2
 91
        2
 64
     7
 65
   257
 75
     1
175
     1
 42
179.0
 92
        8
 66
     7
 43
1.0
 76
     1
 77
     6
 78
     2
 67
     7
 79
     3
170
     0
171
     0
290
     0
174
     0
 93
        1
 44
0.0
173
     0
291
     0
 45
0.0
1001
ACAD
1000
AcDbSavedByObjectVersion
1070
     0
  0
VISUALSTYLE
  5
C8
102
{ACAD_REACTORS
330
BD
102
}
102
{ACAD_XDICTIONARY
360
4EC
102
}
330
BD
100
AcDbVisualStyle
  2
Dim
 70
    11
 71
     2
 72
     2
 73
     0
 90
        0
 40
0.6
 41
30.0
 62
     5
 63
     7
 74
     1
 91
        4
 64
     7
 65
   257
 75
     1
175
     1
 42
1.0
 92
        8
 66
     7
 43
1.0
 76
     1
 77
     6
 78
     2
 67
     7
 79
     5
170
     0
171
     0
290
     0
174
     0
 93
        1
 44
-50.0
173
     0
291
     1
 45
0.0
1001
ACAD
1000
AcDbSavedByObjectVersion
1070
     0
  0
VISUALSTYLE
  5
D0
102
{ACAD_REACTORS
330
BD
102
}
102
{ACAD_XDICTIONARY
360
4FC
102
}
330
BD
100
AcDbVisualStyle
  2
EdgeColorOff
 70
    22
 71
     2
 72
     2
 73
     0
 90
        0
 40
0.6
 41
30.0
 62
     5
 63
     7
 74
     1
 91
        4
 64
     7
 65
   257
 75
     1
175
     1
 42
1.0
 92
        8
 66
     7
 43
1.0
 76
     1
 77
     6
 78
     2
 67
     7
 79
     5
170
     0
171
     0
290
     0
174
     0
 93
        1
 44
0.0
173
     0
291
     1
 45
0.0
1001
ACAD
1000
AcDbSavedByObjectVersion
1070
     0
  0
VISUALSTYLE
  5
CC
102
{ACAD_REACTORS
330
BD
102
}
102
{ACAD_XDICTIONARY
360
4F4
102
}
330
BD
100
AcDbVisualStyle
  2
Facepattern
 70
    15
 71
     2
 72
     2
 73
     0
 90
        0
 40
0.6
 41
30.0
 62
     5
 63
     7
 74
     1
 91
        4
 64
     7
 65
   257
 75
     1
175
     1
 42
1.0
 92
        8
 66
     7
 43
1.0
 76
     1
 77
     6
 78
     2
 67
     7
 79
     5
170
     0
171
     0
290
     0
174
     0
 93
        1
 44
0.0
173
     0
291
     1
 45
0.0
1001
ACAD
1000
AcDbSavedByObjectVersion
1070
     0
  0
VISUALSTYLE
  5
BE
102
{ACAD_REACTORS
330
BD
102
}
102
{ACAD_XDICTIONARY
360
4D8
102
}
330
BD
100
AcDbVisualStyle
  2
Flat
 70
     0
 71
     2
 72
     1
 73
     1
 90
        2
 40
0.6
 41
30.0
 62
     5
 63
     7
 74
     0
 91
        0
 64
     7
 65
   257
 75
     1
175
     1
 42
1.0
 92
        8
 66
     7
 43
1.0
 76
     1
 77
     6
 78
     2
 67
     7
 79
     5
170
     0
171
     0
290
     0
174
     0
 93
       13
 44
0.0
173
     0
291
     1
 45
0.0
1001
ACAD
1000
AcDbSavedByObjectVersion
1070
     0
  0
VISUALSTYLE
  5
BF
102
{ACAD_REACTORS
330
BD
102
}
102
{ACAD_XDICTIONARY
360
4DA
102
}
330
BD
100
AcDbVisualStyle
  2
FlatWithEdges
 70
     1
 71
     2
 72
     1
 73
     1
 90
        2
 40
0.6
 41
30.0
 62
     5
 63
     7
 74
     1
 91
        0
 64
     7
 65
   257
 75
     1
175
     1
 42
1.0
 92
        0
 66
   257
 43
1.0
 76
     1
 77
     6
 78
     2
 67
     7
 79
     5
170
     0
171
     0
290
     0
174
     0
 93
       13
 44
0.0
173
     0
291
     1
 45
0.0
1001
ACAD
1000
AcDbSavedByObjectVersion
1070
     0
  0
VISUALSTYLE
  5
C0
102
{ACAD_REACTORS
330
BD
102
}
102
{ACAD_XDICTIONARY
360
4DC
102
}
330
BD
100
AcDbVisualStyle
  2
Gouraud
 70
     2
 71
     2
 72
     2
 73
     1
 90
        2
 40
0.6
 41
30.0
 62
     5
 63
     7
 74
     0
 91
        0
 64
     7
 65
   257
 75
     1
175
     1
 42
1.0
 92
        0
 66
     7
 43
1.0
 76
     1
 77
     6
 78
     2
 67
     7
 79
     5
170
     0
171
     0
290
     0
174
     0
 93
       13
 44
0.0
173
     0
291
     1
 45
0.0
1001
ACAD
1000
AcDbSavedByObjectVersion
1070
     0
  0
VISUALSTYLE
  5
C1
102
{ACAD_REACTORS
330
BD
102
}
102
{ACAD_XDICTIONARY
360
4DE
102
}
330
BD
100
AcDbVisualStyle
  2
GouraudWithEdges
 70
     3
 71
     2
 72
     2
 73
     1
 90
        2
 40
0.6
 41
30.0
 62
     5
 63
     7
 74
     1
 91
        0
 64
     7
 65
   257
 75
     1
175
     1
 42
1.0
 92
        0
 66
   257
 43
1.0
 76
     1
 77
     6
 78
     2
 67
     7
 79
     5
170
     0
171
     0
290
     0
174
     0
 93
       13
 44
0.0
173
     0
291
     1
 45
0.0
1001
ACAD
1000
AcDbSavedByObjectVersion
1070
     0
  0
VISUALSTYLE
  5
C4
102
{ACAD_REACTORS
330
BD
102
}
102
{ACAD_XDICTIONARY
360
4E4
102
}
330
BD
100
AcDbVisualStyle
  2
Hidden
 70
     6
 71
     1
 72
     2
 73
     2
 90
        0
 40
0.6
 41
30.0
 62
     5
 63
     7
 74
     2
 91
        2
 64
     7
 65
   257
 75
     2
175
     1
 42
40.0
 92
        0
 66
   257
 43
1.0
 76
     1
 77
     6
 78
     2
 67
     7
 79
     3
170
     0
171
     0
290
     0
174
     0
 93
        1
 44
0.0
173
     0
291
     0
 45
0.0
1001
ACAD
1000
AcDbSavedByObjectVersion
1070
     0
  0
VISUALSTYLE
  5
CE
102
{ACAD_REACTORS
330
BD
102
}
102
{ACAD_XDICTIONARY
360
4F8
102
}
330
BD
100
AcDbVisualStyle
  2
JitterOff
 70
    20
 71
     2
 72
     2
 73
     0
 90
        0
 40
0.6
 41
30.0
 62
     5
 63
     7
 74
     1
 91
        4
 64
     7
 65
   257
 75
     1
175
     1
 42
1.0
 92
       10
 66
     7
 43
1.0
 76
     1
 77
     6
 78
     2
 67
     7
 79
     5
170
     0
171
     0
290
     0
174
     0
 93
        1
 44
0.0
173
     0
291
     1
 45
0.0
1001
ACAD
1000
AcDbSavedByObjectVersion
1070
     0
  0
VISUALSTYLE
  5
CB
102
{ACAD_REACTORS
330
BD
102
}
102
{ACAD_XDICTIONARY
360
4F2
102
}
330
BD
100
AcDbVisualStyle
  2
Linepattern
 70
    14
 71
     2
 72
     2
 73
     0
 90
        0
 40
0.6
 41
30.0
 62
     5
 63
     7
 74
     1
 91
        4
 64
     7
 65
   257
 75
     7
175
     7
 42
1.0
 92
        8
 66
     7
 43
1.0
 76
     1
 77
     6
 78
     2
 67
     7
 79
     5
170
     0
171
     0
290
     0
174
     0
 93
        1
 44
0.0
173
     0
291
     1
 45
0.0
1001
ACAD
1000
AcDbSavedByObjectVersion
1070
     0
  0
VISUALSTYLE
  5
CF
102
{ACAD_REACTORS
330
BD
102
}
102
{ACAD_XDICTIONARY
360
4FA
102
}
330
BD
100
AcDbVisualStyle
  2
OverhangOff
 70
    21
 71
     2
 72
     2
 73
     0
 90
        0
 40
0.6
 41
30.0
 62
     5
 63
     7
 74
     1
 91
        4
 64
     7
 65
   257
 75
     1
175
     1
 42
1.0
 92
        9
 66
     7
 43
1.0
 76
     1
 77
     6
 78
     2
 67
     7
 79
     5
170
     0
171
     0
290
     0
174
     0
 93
        1
 44
0.0
173
     0
291
     1
 45
0.0
1001
ACAD
1000
AcDbSavedByObjectVersion
1070
     0
  0
VISUALSTYLE
  5
C6
102
{ACAD_REACTORS
330
BD
102
}
102
{ACAD_XDICTIONARY
360
4E8
102
}
330
BD
100
AcDbVisualStyle
  2
Realistic
 70
     8
 71
     2
 72
     3
 73
     0
 90
        2
 40
0.6
 41
30.0
 62
     5
 63
     7
 74
     0
 91
        0
 64
     7
 65
   257
 75
     1
175
     1
 42
1.0
 92
        8
 66
   257
 43
1.0
 76
     1
 77
     6
 78
     2
 67
     7
 79
     3
170
     0
171
     0
290
     0
174
     0
 93
       13
 44
0.0
173
     0
291
     0
 45
0.0
1001
ACAD
1000
AcDbSavedByObjectVersion
1070
     0
  0
VISUALSTYLE
  5
D5
102
{ACAD_REACTORS
330
BD
102
}
102
{ACAD_XDICTIONARY
360
506
102
}
330
BD
100
AcDbVisualStyle
  2
Shaded
 70
    27
 71
     2
 72
     2
 73
     1
 90
        2
 40
0.6
 41
30.0
 62
     5
 63
     7
 74
     0
 91
        4
 64
     7
 65
   257
 75
     1
175
     1
 42
1.0
 92
        8
 66
   257
 43
1.0
 76
     1
 77
     6
 78
     2
 67
     8
 79
     3
170
     0
171
     0
290
     0
174
     0
 93
        5
 44
0.0
173
     0
291
     0
 45
0.0
1001
ACAD
1000
AcDbSavedByObjectVersion
1070
     0
  0
VISUALSTYLE
  5
D4
102
{ACAD_REACTORS
330
BD
102
}
102
{ACAD_XDICTIONARY
360
504
102
}
330
BD
100
AcDbVisualStyle
  2
Shaded with edges
 70
    26
 71
     2
 72
     2
 73
     1
 90
        2
 40
0.6
 41
30.0
 62
     5
 63
     7
 74
     1
 91
       10
 64
     7
 65
   257
 75
     2
175
     1
 42
1.0
 92
        8
 66
   257
 43
1.0
 76
     1
 77
     6
 78
     2
 67
     7
 79
     3
170
     0
171
     0
290
     0
174
     0
 93
        5
 44
0.0
173
     0
291
     0
 45
0.0
1001
ACAD
1000
AcDbSavedByObjectVersion
1070
     0
  0
VISUALSTYLE
  5
D1
102
{ACAD_REACTORS
330
BD
102
}
102
{ACAD_XDICTIONARY
360
4FE
102
}
330
BD
100
AcDbVisualStyle
  2
Shades of Gray
 70
    23
 71
     2
 72
     2
 73
     3
 90
        0
 40
0.6
 41
30.0
 62
     5
 63
     7
 74
     2
 91
        2
 64
     7
 65
     7
 75
     1
175
     1
 42
40.0
 92
        8
 66
     7
 43
1.0
 76
     1
 77
     6
 78
     2
 67
     7
 79
     3
170
     0
171
     0
290
     0
174
     0
 93
        1
 44
0.0
173
     0
291
     0
 45
0.0
1001
ACAD
1000
AcDbSavedByObjectVersion
1070
     0
  0
VISUALSTYLE
  5
D2
102
{ACAD_REACTORS
330
BD
102
}
102
{ACAD_XDICTIONARY
360
500
102
}
330
BD
100
AcDbVisualStyle
  2
Sketchy
 70
    24
 71
     1
 72
     2
 73
     2
 90
        0
 40
0.6
 41
30.0
 62
     5
 63
     7
 74
     2
 91
        2
 64
     7
 65
     7
 75
     1
175
     1
 42
40.0
 92
       11
 66
     7
 43
1.0
 76
     1
 77
     6
 78
     2
 67
     7
 79
     6
170
     0
171
     0
290
     0
174
     0
 93
        1
 44
0.0
173
     0
291
     0
 45
0.0
1001
ACAD
1000
AcDbSavedByObjectVersion
1070
     0
  0
VISUALSTYLE
  5
CA
102
{ACAD_REACTORS
330
BD
102
}
102
{ACAD_XDICTIONARY
360
4F0
102
}
330
BD
100
AcDbVisualStyle
  2
Thicken
 70
    13
 71
     2
 72
     2
 73
     0
 90
        0
 40
0.6
 41
30.0
 62
     5
 63
     7
 74
     1
 91
        4
 64
     7
 65
   257
 75
     1
175
     1
 42
1.0
 92
       12
 66
     7
 43
1.0
 76
     1
 77
     6
 78
     2
 67
     7
 79
     5
170
     0
171
     0
290
     0
174
     0
 93
        1
 44
0.0
173
     0
291
     1
 45
0.0
1001
ACAD
1000
AcDbSavedByObjectVersion
1070
     0
  0
VISUALSTYLE
  5
C3
102
{ACAD_REACTORS
330
BD
102
}
102
{ACAD_XDICTIONARY
360
4E2
102
}
330
BD
100
AcDbVisualStyle
  2
Wireframe
 70
     5
 71
     0
 72
     2
 73
     0
 90
        0
 40
0.6
 41
30.0
 62
     5
 63
     7
 74
     1
 91
        4
 64
     7
 65
   257
 75
     1
175
     1
 42
1.0
 92
        0
 66
   257
 43
1.0
 76
     1
 77
     6
 78
     2
 67
     7
 79
     3
170
     0
171
     0
290
     0
174
     0
 93
        1
 44
0.0
173
     0
291
     0
 45
0.0
1001
ACAD
1000
AcDbSavedByObjectVersion
1070
     0
  0
VISUALSTYLE
  5
D3
102
{ACAD_REACTORS
330
BD
102
}
102
{ACAD_XDICTIONARY
360
502
102
}
330
BD
100
AcDbVisualStyle
  2
X-Ray
 70
    25
 71
     2
 72
     2
 73
     1
 90
        1
 40
0.5
 41
30.0
 62
     5
 63
     7
 74
     1
 91
        0
 64
     7
 65
   257
 75
     1
175
     1
 42
1.0
 92
        8
 66
     7
 43
1.0
 76
     1
 77
     6
 78
     2
 67
     7
 79
     3
170
     0
171
     0
290
     0
174
     0
 93
       13
 44
0.0
173
     0
291
     0
 45
0.0
1001
ACAD
1000
AcDbSavedByObjectVersion
1070
     0
  0
XRECORD
  5
4CD
102
{ACAD_REACTORS
330
4CC
102
}
330
4CC
100
AcDbXrecord
280
     1
340
6B
  0
XRECORD
  5
4CE
102
{ACAD_REACTORS
330
4CC
102
}
330
4CC
100
AcDbXrecord
280
     1
340
6A
  0
DICTIONARYVAR
  5
4D1
102
{ACAD_REACTORS
330
5E
102
}
330
5E
100
DictionaryVariables
280
     0
  1
1:1
  0
DICTIONARYVAR
  5
4C8
102
{ACAD_REACTORS
330
5E
102
}
330
5E
100
DictionaryVariables
280
     0
  1
Standard
  0
DICTIONARYVAR
  5
4C7
102
{ACAD_REACTORS
330
5E
102
}
330
5E
100
DictionaryVariables
280
     0
  1
Standard
  0
DICTIONARYVAR
  5
5F
102
{ACAD_REACTORS
330
5E
102
}
330
5E
100
DictionaryVariables
280
     0
  1
2
  0
DICTIONARYVAR
  5
63
102
{ACAD_REACTORS
330
5E
102
}
330
5E
100
DictionaryVariables
280
     0
  1
1
  0
DICTIONARYVAR
  5
4C9
102
{ACAD_REACTORS
330
5E
102
}
330
5E
100
DictionaryVariables
280
     0
  1
0
  0
DICTIONARYVAR
  5
89
102
{ACAD_REACTORS
330
5E
102
}
330
5E
100
DictionaryVariables
280
     0
  1

  0
DICTIONARY
  5
4D4
330
BB
100
AcDbDictionary
280
     1
281
     1
  3
ACAD_XREC_ROUNDTRIP
360
4D5
  0
DICTIONARY
  5
4D2
330
BA
100
AcDbDictionary
280
     1
281
     1
  3
ACAD_XREC_ROUNDTRIP
360
4D3
  0
DICTIONARY
  5
4D6
330
BC
100
AcDbDictionary
280
     1
281
     1
  3
ACAD_XREC_ROUNDTRIP
360
4D7
  0
DICTIONARY
  5
509
330
D9
100
AcDbDictionary
280
     1
281
     1
  3
ACAD_XREC_ROUNDTRIP
360
50A
  0
DICTIONARY
  5
4E0
330
C2
100
AcDbDictionary
280
     1
281
     1
  3
ACAD_XREC_ROUNDTRIP
360
4E1
  0
DICTIONARY
  5
4E6
330
C5
100
AcDbDictionary
280
     1
281
     1
  3
ACAD_XREC_ROUNDTRIP
360
4E7
  0
DICTIONARY
  5
4EE
330
C9
100
AcDbDictionary
280
     1
281
     1
  3
ACAD_XREC_ROUNDTRIP
360
4EF
  0
DICTIONARY
  5
4F6
330
CD
100
AcDbDictionary
280
     1
281
     1
  3
ACAD_XREC_ROUNDTRIP
360
4F7
  0
DICTIONARY
  5
4EA
330
C7
100
AcDbDictionary
280
     1
281
     1
  3
ACAD_XREC_ROUNDTRIP
360
4EB
  0
DICTIONARY
  5
4EC
330
C8
100
AcDbDictionary
280
     1
281
     1
  3
ACAD_XREC_ROUNDTRIP
360
4ED
  0
DICTIONARY
  5
4FC
330
D0
100
AcDbDictionary
280
     1
281
     1
  3
ACAD_XREC_ROUNDTRIP
360
4FD
  0
DICTIONARY
  5
4F4
330
CC
100
AcDbDictionary
280
     1
281
     1
  3
ACAD_XREC_ROUNDTRIP
360
4F5
  0
DICTIONARY
  5
4D8
330
BE
100
AcDbDictionary
280
     1
281
     1
  3
ACAD_XREC_ROUNDTRIP
360
4D9
  0
DICTIONARY
  5
4DA
330
BF
100
AcDbDictionary
280
     1
281
     1
  3
ACAD_XREC_ROUNDTRIP
360
4DB
  0
DICTIONARY
  5
4DC
330
C0
100
AcDbDictionary
280
     1
281
     1
  3
ACAD_XREC_ROUNDTRIP
360
4DD
  0
DICTIONARY
  5
4DE
330
C1
100
AcDbDictionary
280
     1
281
     1
  3
ACAD_XREC_ROUNDTRIP
360
4DF
  0
DICTIONARY
  5
4E4
330
C4
100
AcDbDictionary
280
     1
281
     1
  3
ACAD_XREC_ROUNDTRIP
360
4E5
  0
DICTIONARY
  5
4F8
330
CE
100
AcDbDictionary
280
     1
281
     1
  3
ACAD_XREC_ROUNDTRIP
360
4F9
  0
DICTIONARY
  5
4F2
330
CB
100
AcDbDictionary
280
     1
281
     1
  3
ACAD_XREC_ROUNDTRIP
360
4F3
  0
DICTIONARY
  5
4FA
330
CF
100
AcDbDictionary
280
     1
281
     1
  3
ACAD_XREC_ROUNDTRIP
360
4FB
  0
DICTIONARY
  5
4E8
330
C6
100
AcDbDictionary
280
     1
281
     1
  3
ACAD_XREC_ROUNDTRIP
360
4E9
  0
DICTIONARY
  5
506
330
D5
100
AcDbDictionary
280
     1
281
     1
  3
ACAD_XREC_ROUNDTRIP
360
507
  0
DICTIONARY
  5
504
330
D4
100
AcDbDictionary
280
     1
281
     1
  3
ACAD_XREC_ROUNDTRIP
360
505
  0
DICTIONARY
  5
4FE
330
D1
100
AcDbDictionary
280
     1
281
     1
  3
ACAD_XREC_ROUNDTRIP
360
4FF
  0
DICTIONARY
  5
500
330
D2
100
AcDbDictionary
280
     1
281
     1
  3
ACAD_XREC_ROUNDTRIP
360
501
  0
DICTIONARY
  5
4F0
330
CA
100
AcDbDictionary
280
     1
281
     1
  3
ACAD_XREC_ROUNDTRIP
360
4F1
  0
DICTIONARY
  5
4E2
330
C3
100
AcDbDictionary
280
     1
281
     1
  3
ACAD_XREC_ROUNDTRIP
360
4E3
  0
DICTIONARY
  5
502
330
D3
100
AcDbDictionary
280
     1
281
     1
  3
ACAD_XREC_ROUNDTRIP
360
503
  0
XRECORD
  5
4D5
102
{ACAD_REACTORS
330
4D4
102
}
330
4D4
100
AcDbXrecord
280
     1
102
MATERIAL
148
0.0
149
0.0
149
0.0
 93
        0
 94
      127
282
     0
 72
     1
 77
     1
171
     1
175
     1
179
     1
273
     0
  0
XRECORD
  5
4D3
102
{ACAD_REACTORS
330
4D2
102
}
330
4D2
100
AcDbXrecord
280
     1
102
MATERIAL
148
0.0
149
0.0
149
0.0
 93
        0
 94
      127
282
     0
 72
     1
 77
     1
171
     1
175
     1
179
     1
273
     0
  0
XRECORD
  5
4D7
102
{ACAD_REACTORS
330
4D6
102
}
330
4D6
100
AcDbXrecord
280
     1
102
MATERIAL
148
0.0
149
0.0
149
0.0
 93
        0
 94
      127
282
     0
 72
     1
 77
     1
171
     1
175
     1
179
     1
273
     0
  0
XRECORD
  5
50A
102
{ACAD_REACTORS
330
509
102
}
330
509
100
AcDbXrecord
280
     1
102
ACAD_ROUNDTRIP_2010_MLEADER_STYLE
  0
XRECORD
  5
4E1
102
{ACAD_REACTORS
330
4E0
102
}
330
4E0
100
AcDbXrecord
280
     1
102
RTVSPropertyOp0
 70
     1
102
RTVSPropertyOp1
 70
     1
102
RTVSPropertyOp2
 70
     1
102
RTVSPropertyOp3
 70
     1
102
RTVSPropertyOp4
 70
     1
102
RTVSPropertyOp5
 70
     1
102
RTVSPropertyOp6
 70
     1
102
RTVSPropertyOp7
 70
     1
102
RTVSPropertyOp8
 70
     1
102
RTVSPropertyOp9
 70
     1
102
RTVSPropertyOp10
 70
     1
102
RTVSPropertyOp11
 70
     1
102
RTVSPropertyOp12
 70
     1
102
RTVSPropertyOp13
 70
     1
102
RTVSPropertyOp14
 70
     1
102
RTVSPropertyOp15
 70
     1
102
RTVSPropertyOp16
 70
     1
102
RTVSPropertyOp17
 70
     1
102
RTVSPropertyOp18
 70
     1
102
RTVSPropertyOp19
 70
     1
102
RTVSPropertyOp20
 70
     1
102
RTVSPropertyOp21
 70
     1
102
RTVSPropertyOp22
 70
     1
102
RTVSPropertyOp23
 70
     1
102
RTVSPropertyOp24
 70
     1
102
RTVSPropertyOp25
 70
     1
102
RTVSPropertyOp26
 70
     1
102
RTVSPropertyOp27
 70
     1
102
RTVSPropertyOp28
 70
     1
102
RTVSPropertyOp29
 70
     1
102
RTVSPropertyOp30
 70
     1
102
RTVSPropertyOp31
 70
     1
102
RTVSPropertyOp32
 70
     1
102
RTVSPropertyOp33
 70
     1
102
RTVSPropertyOp34
 70
     1
102
RTVSPropertyOp35
 70
     1
102
RTVSPropertyOp36
 70
     1
102
RTVSPropertyOp37
 70
     1
102
RTVSPropertyOp38
 70
     1
102
RTVSPropertyOp39
 70
     1
102
RTVSPropertyOp40
 70
     1
102
RTVSPropertyOp41
 70
     1
102
RTVSPropertyOp42
 70
     1
102
RTVSPropertyOp43
 70
     1
102
RTVSPropertyOp44
 70
     1
102
RTVSPropertyOp45
 70
     1
102
RTVSPropertyOp46
 70
     1
102
RTVSPropertyOp47
 70
     1
102
RTVSPropertyOp48
 70
     1
102
RTVSPropertyOp49
 70
     1
102
RTVSPropertyOp50
 70
     1
102
RTVSPropertyOp51
 70
     0
102
RTVSPropertyOp52
 70
     0
102
RTVSPropertyOp53
 70
     1
102
RTVSPropertyOp54
 70
     1
102
RTVSPropertyOp55
 70
     1
102
RTVSPropertyOp56
 70
     1
102
RTVSPropertyOp57
 70
     1
102
RTVSPost2010Prop28
280
     1
102
RTVSPost2010PropOp28
 70
     1
102
RTVSPost2010Prop29
280
     1
102
RTVSPost2010PropOp29
 70
     1
102
RTVSPost2010Prop30
280
     0
102
RTVSPost2010PropOp30
 70
     1
102
RTVSPost2010Prop31
280
     0
102
RTVSPost2010PropOp31
 70
     1
102
RTVSPost2010Prop32
280
     0
102
RTVSPost2010PropOp32
 70
     1
102
RTVSPost2010Prop33
280
     0
102
RTVSPost2010PropOp33
 70
     1
102
RTVSPost2010Prop34
280
     0
102
RTVSPost2010PropOp34
 70
     1
102
RTVSPost2010Prop35
280
     0
102
RTVSPost2010PropOp35
 70
     1
102
RTVSPost2010Prop36
280
     0
102
RTVSPost2010PropOp36
 70
     1
102
RTVSPost2010Prop37
 90
       50
102
RTVSPost2010PropOp37
 70
     1
102
RTVSPost2010Prop38
140
0.0
102
RTVSPost2010PropOp38
 70
     1
102
RTVSPost2010Prop39
140
1.0
102
RTVSPost2010PropOp39
 70
     1
102
RTVSPost2010Prop40
 90
        0
102
RTVSPost2010PropOp40
 70
     1
102
RTVSPost2010Prop41ColorIndex
 90
       18
102
RTVSPost2010Prop41ColorRGB
 90
        0
102
RTVSPost2010PropOp41
 70
     1
102
RTVSPost2010Prop42
 90
       50
102
RTVSPost2010PropOp42
 70
     1
102
RTVSPost2010Prop43
 90
        3
102
RTVSPost2010PropOp43
 70
     1
102
RTVSPost2010Prop44ColorIndex
 90
        5
102
RTVSPost2010Prop44ColorRGB
 90
      255
102
RTVSPost2010PropOp44
 70
     1
102
RTVSPost2010Prop45
280
     0
102
RTVSPost2010PropOp45
 70
     1
102
RTVSPost2010Prop46
 90
       50
102
RTVSPost2010PropOp46
 70
     1
102
RTVSPost2010Prop47
 90
       50
102
RTVSPost2010PropOp47
 70
     1
102
RTVSPost2010Prop48
 90
       50
102
RTVSPost2010PropOp48
 70
     1
102
RTVSPost2010Prop49
280
     0
102
RTVSPost2010PropOp49
 70
     1
102
RTVSPost2010Prop50
 90
       50
102
RTVSPost2010PropOp50
 70
     1
102
RTVSPost2010Prop51ColorIndex
 90
      256
102
RTVSPost2010Prop51ColorRGB
 90
-16777216
102
RTVSPost2010PropOp51
 70
     0
102
RTVSPost2010Prop52
140
1.0
102
RTVSPost2010PropOp52
 70
     0
102
RTVSPost2010Prop53
 90
        2
102
RTVSPost2010PropOp53
 70
     1
102
RTVSPost2010Prop54
  1
strokes_ogs.tif
102
RTVSPost2010PropOp54
 70
     1
102
RTVSPost2010Prop55
280
     0
102
RTVSPost2010PropOp55
 70
     1
102
RTVSPost2010Prop56
140
1.0
102
RTVSPost2010PropOp56
 70
     1
102
RTVSPost2010Prop57
140
1.0
102
RTVSPost2010PropOp57
 70
     1
  0
XRECORD
  5
4E7
102
{ACAD_REACTORS
330
4E6
102
}
330
4E6
100
AcDbXrecord
280
     1
102
RTVSPropertyOp0
 70
     1
102
RTVSPropertyOp1
 70
     1
102
RTVSPropertyOp2
 70
     1
102
RTVSPropertyOp3
 70
     1
102
RTVSPropertyOp4
 70
     1
102
RTVSPropertyOp5
 70
     1
102
RTVSPropertyOp6
 70
     1
102
RTVSPropertyOp7
 70
     1
102
RTVSPropertyOp8
 70
     1
102
RTVSPropertyOp9
 70
     1
102
RTVSPropertyOp10
 70
     1
102
RTVSPropertyOp11
 70
     1
102
RTVSPropertyOp12
 70
     1
102
RTVSPropertyOp13
 70
     1
102
RTVSPropertyOp14
 70
     1
102
RTVSPropertyOp15
 70
     1
102
RTVSPropertyOp16
 70
     1
102
RTVSPropertyOp17
 70
     1
102
RTVSPropertyOp18
 70
     1
102
RTVSPropertyOp19
 70
     1
102
RTVSPropertyOp20
 70
     1
102
RTVSPropertyOp21
 70
     1
102
RTVSPropertyOp22
 70
     1
102
RTVSPropertyOp23
 70
     1
102
RTVSPropertyOp24
 70
     1
102
RTVSPropertyOp25
 70
     1
102
RTVSPropertyOp26
 70
     1
102
RTVSPropertyOp27
 70
     1
102
RTVSPropertyOp28
 70
     1
102
RTVSPropertyOp29
 70
     1
102
RTVSPropertyOp30
 70
     1
102
RTVSPropertyOp31
 70
     1
102
RTVSPropertyOp32
 70
     1
102
RTVSPropertyOp33
 70
     1
102
RTVSPropertyOp34
 70
     1
102
RTVSPropertyOp35
 70
     1
102
RTVSPropertyOp36
 70
     1
102
RTVSPropertyOp37
 70
     1
102
RTVSPropertyOp38
 70
     1
102
RTVSPropertyOp39
 70
     1
102
RTVSPropertyOp40
 70
     1
102
RTVSPropertyOp41
 70
     1
102
RTVSPropertyOp42
 70
     1
102
RTVSPropertyOp43
 70
     1
102
RTVSPropertyOp44
 70
     1
102
RTVSPropertyOp45
 70
     1
102
RTVSPropertyOp46
 70
     1
102
RTVSPropertyOp47
 70
     1
102
RTVSPropertyOp48
 70
     1
102
RTVSPropertyOp49
 70
     1
102
RTVSPropertyOp50
 70
     1
102
RTVSPropertyOp51
 70
     0
102
RTVSPropertyOp52
 70
     0
102
RTVSPropertyOp53
 70
     1
102
RTVSPropertyOp54
 70
     1
102
RTVSPropertyOp55
 70
     1
102
RTVSPropertyOp56
 70
     1
102
RTVSPropertyOp57
 70
     1
102
RTVSPost2010Prop28
280
     0
102
RTVSPost2010PropOp28
 70
     1
102
RTVSPost2010Prop29
280
     1
102
RTVSPost2010PropOp29
 70
     1
102
RTVSPost2010Prop30
280
     1
102
RTVSPost2010PropOp30
 70
     1
102
RTVSPost2010Prop31
280
     0
102
RTVSPost2010PropOp31
 70
     1
102
RTVSPost2010Prop32
280
     0
102
RTVSPost2010PropOp32
 70
     1
102
RTVSPost2010Prop33
280
     0
102
RTVSPost2010PropOp33
 70
     1
102
RTVSPost2010Prop34
280
     0
102
RTVSPost2010PropOp34
 70
     1
102
RTVSPost2010Prop35
280
     0
102
RTVSPost2010PropOp35
 70
     1
102
RTVSPost2010Prop36
280
     0
102
RTVSPost2010PropOp36
 70
     1
102
RTVSPost2010Prop37
 90
       50
102
RTVSPost2010PropOp37
 70
     1
102
RTVSPost2010Prop38
140
0.0
102
RTVSPost2010PropOp38
 70
     1
102
RTVSPost2010Prop39
140
1.0
102
RTVSPost2010PropOp39
 70
     1
102
RTVSPost2010Prop40
 90
        0
102
RTVSPost2010PropOp40
 70
     1
102
RTVSPost2010Prop41ColorIndex
 90
       18
102
RTVSPost2010Prop41ColorRGB
 90
        0
102
RTVSPost2010PropOp41
 70
     1
102
RTVSPost2010Prop42
 90
       50
102
RTVSPost2010PropOp42
 70
     1
102
RTVSPost2010Prop43
 90
        3
102
RTVSPost2010PropOp43
 70
     1
102
RTVSPost2010Prop44ColorIndex
 90
        5
102
RTVSPost2010Prop44ColorRGB
 90
      255
102
RTVSPost2010PropOp44
 70
     1
102
RTVSPost2010Prop45
280
     0
102
RTVSPost2010PropOp45
 70
     1
102
RTVSPost2010Prop46
 90
       50
102
RTVSPost2010PropOp46
 70
     1
102
RTVSPost2010Prop47
 90
       50
102
RTVSPost2010PropOp47
 70
     1
102
RTVSPost2010Prop48
 90
       50
102
RTVSPost2010PropOp48
 70
     1
102
RTVSPost2010Prop49
280
     0
102
RTVSPost2010PropOp49
 70
     1
102
RTVSPost2010Prop50
 90
       50
102
RTVSPost2010PropOp50
 70
     1
102
RTVSPost2010Prop51ColorIndex
 90
      256
102
RTVSPost2010Prop51ColorRGB
 90
-16777216
102
RTVSPost2010PropOp51
 70
     0
102
RTVSPost2010Prop52
140
1.0
102
RTVSPost2010PropOp52
 70
     0
102
RTVSPost2010Prop53
 90
        2
102
RTVSPost2010PropOp53
 70
     1
102
RTVSPost2010Prop54
  1
strokes_ogs.tif
102
RTVSPost2010PropOp54
 70
     1
102
RTVSPost2010Prop55
280
     0
102
RTVSPost2010PropOp55
 70
     1
102
RTVSPost2010Prop56
140
1.0
102
RTVSPost2010PropOp56
 70
     1
102
RTVSPost2010Prop57
140
1.0
102
RTVSPost2010PropOp57
 70
     1
  0
XRECORD
  5
4EF
102
{ACAD_REACTORS
330
4EE
102
}
330
4EE
100
AcDbXrecord
280
     1
102
RTVSPropertyOp0
 70
     1
102
RTVSPropertyOp1
 70
     1
102
RTVSPropertyOp2
 70
     1
102
RTVSPropertyOp3
 70
     1
102
RTVSPropertyOp4
 70
     1
102
RTVSPropertyOp5
 70
     1
102
RTVSPropertyOp6
 70
     1
102
RTVSPropertyOp7
 70
     1
102
RTVSPropertyOp8
 70
     1
102
RTVSPropertyOp9
 70
     1
102
RTVSPropertyOp10
 70
     1
102
RTVSPropertyOp11
 70
     1
102
RTVSPropertyOp12
 70
     1
102
RTVSPropertyOp13
 70
     1
102
RTVSPropertyOp14
 70
     1
102
RTVSPropertyOp15
 70
     1
102
RTVSPropertyOp16
 70
     1
102
RTVSPropertyOp17
 70
     1
102
RTVSPropertyOp18
 70
     1
102
RTVSPropertyOp19
 70
     1
102
RTVSPropertyOp20
 70
     1
102
RTVSPropertyOp21
 70
     1
102
RTVSPropertyOp22
 70
     1
102
RTVSPropertyOp23
 70
     1
102
RTVSPropertyOp24
 70
     1
102
RTVSPropertyOp25
 70
     1
102
RTVSPropertyOp26
 70
     1
102
RTVSPropertyOp27
 70
     1
102
RTVSPropertyOp28
 70
     1
102
RTVSPropertyOp29
 70
     1
102
RTVSPropertyOp30
 70
     1
102
RTVSPropertyOp31
 70
     1
102
RTVSPropertyOp32
 70
     1
102
RTVSPropertyOp33
 70
     1
102
RTVSPropertyOp34
 70
     1
102
RTVSPropertyOp35
 70
     1
102
RTVSPropertyOp36
 70
     1
102
RTVSPropertyOp37
 70
     1
102
RTVSPropertyOp38
 70
     1
102
RTVSPropertyOp39
 70
     1
102
RTVSPropertyOp40
 70
     1
102
RTVSPropertyOp41
 70
     1
102
RTVSPropertyOp42
 70
     1
102
RTVSPropertyOp43
 70
     1
102
RTVSPropertyOp44
 70
     1
102
RTVSPropertyOp45
 70
     1
102
RTVSPropertyOp46
 70
     1
102
RTVSPropertyOp47
 70
     1
102
RTVSPropertyOp48
 70
     1
102
RTVSPropertyOp49
 70
     1
102
RTVSPropertyOp50
 70
     1
102
RTVSPropertyOp51
 70
     0
102
RTVSPropertyOp52
 70
     0
102
RTVSPropertyOp53
 70
     1
102
RTVSPropertyOp54
 70
     1
102
RTVSPropertyOp55
 70
     1
102
RTVSPropertyOp56
 70
     1
102
RTVSPropertyOp57
 70
     1
102
RTVSPost2010Prop28
280
     0
102
RTVSPost2010PropOp28
 70
     1
102
RTVSPost2010Prop29
280
     1
102
RTVSPost2010PropOp29
 70
     1
102
RTVSPost2010Prop30
280
     1
102
RTVSPost2010PropOp30
 70
     1
102
RTVSPost2010Prop31
280
     0
102
RTVSPost2010PropOp31
 70
     1
102
RTVSPost2010Prop32
280
     0
102
RTVSPost2010PropOp32
 70
     1
102
RTVSPost2010Prop33
280
     0
102
RTVSPost2010PropOp33
 70
     1
102
RTVSPost2010Prop34
280
     0
102
RTVSPost2010PropOp34
 70
     1
102
RTVSPost2010Prop35
280
     0
102
RTVSPost2010PropOp35
 70
     1
102
RTVSPost2010Prop36
280
     0
102
RTVSPost2010PropOp36
 70
     1
102
RTVSPost2010Prop37
 90
       50
102
RTVSPost2010PropOp37
 70
     1
102
RTVSPost2010Prop38
140
0.0
102
RTVSPost2010PropOp38
 70
     1
102
RTVSPost2010Prop39
140
1.0
102
RTVSPost2010PropOp39
 70
     1
102
RTVSPost2010Prop40
 90
        0
102
RTVSPost2010PropOp40
 70
     1
102
RTVSPost2010Prop41ColorIndex
 90
       18
102
RTVSPost2010Prop41ColorRGB
 90
        0
102
RTVSPost2010PropOp41
 70
     1
102
RTVSPost2010Prop42
 90
       50
102
RTVSPost2010PropOp42
 70
     1
102
RTVSPost2010Prop43
 90
        3
102
RTVSPost2010PropOp43
 70
     1
102
RTVSPost2010Prop44ColorIndex
 90
        5
102
RTVSPost2010Prop44ColorRGB
 90
      255
102
RTVSPost2010PropOp44
 70
     1
102
RTVSPost2010Prop45
280
     0
102
RTVSPost2010PropOp45
 70
     1
102
RTVSPost2010Prop46
 90
       50
102
RTVSPost2010PropOp46
 70
     1
102
RTVSPost2010Prop47
 90
       50
102
RTVSPost2010PropOp47
 70
     1
102
RTVSPost2010Prop48
 90
       50
102
RTVSPost2010PropOp48
 70
     1
102
RTVSPost2010Prop49
280
     0
102
RTVSPost2010PropOp49
 70
     1
102
RTVSPost2010Prop50
 90
       50
102
RTVSPost2010PropOp50
 70
     1
102
RTVSPost2010Prop51ColorIndex
 90
      256
102
RTVSPost2010Prop51ColorRGB
 90
-16777216
102
RTVSPost2010PropOp51
 70
     0
102
RTVSPost2010Prop52
140
1.0
102
RTVSPost2010PropOp52
 70
     0
102
RTVSPost2010Prop53
 90
        2
102
RTVSPost2010PropOp53
 70
     1
102
RTVSPost2010Prop54
  1
strokes_ogs.tif
102
RTVSPost2010PropOp54
 70
     1
102
RTVSPost2010Prop55
280
     0
102
RTVSPost2010PropOp55
 70
     1
102
RTVSPost2010Prop56
140
1.0
102
RTVSPost2010PropOp56
 70
     1
102
RTVSPost2010Prop57
140
1.0
102
RTVSPost2010PropOp57
 70
     1
  0
XRECORD
  5
4F7
102
{ACAD_REACTORS
330
4F6
102
}
330
4F6
100
AcDbXrecord
280
     1
102
RTVSPropertyOp0
 70
     1
102
RTVSPropertyOp1
 70
     1
102
RTVSPropertyOp2
 70
     1
102
RTVSPropertyOp3
 70
     1
102
RTVSPropertyOp4
 70
     1
102
RTVSPropertyOp5
 70
     1
102
RTVSPropertyOp6
 70
     1
102
RTVSPropertyOp7
 70
     1
102
RTVSPropertyOp8
 70
     1
102
RTVSPropertyOp9
 70
     1
102
RTVSPropertyOp10
 70
     1
102
RTVSPropertyOp11
 70
     1
102
RTVSPropertyOp12
 70
     1
102
RTVSPropertyOp13
 70
     1
102
RTVSPropertyOp14
 70
     1
102
RTVSPropertyOp15
 70
     1
102
RTVSPropertyOp16
 70
     1
102
RTVSPropertyOp17
 70
     1
102
RTVSPropertyOp18
 70
     1
102
RTVSPropertyOp19
 70
     1
102
RTVSPropertyOp20
 70
     1
102
RTVSPropertyOp21
 70
     1
102
RTVSPropertyOp22
 70
     1
102
RTVSPropertyOp23
 70
     1
102
RTVSPropertyOp24
 70
     1
102
RTVSPropertyOp25
 70
     1
102
RTVSPropertyOp26
 70
     1
102
RTVSPropertyOp27
 70
     1
102
RTVSPropertyOp28
 70
     1
102
RTVSPropertyOp29
 70
     1
102
RTVSPropertyOp30
 70
     1
102
RTVSPropertyOp31
 70
     1
102
RTVSPropertyOp32
 70
     1
102
RTVSPropertyOp33
 70
     1
102
RTVSPropertyOp34
 70
     1
102
RTVSPropertyOp35
 70
     1
102
RTVSPropertyOp36
 70
     1
102
RTVSPropertyOp37
 70
     1
102
RTVSPropertyOp38
 70
     1
102
RTVSPropertyOp39
 70
     1
102
RTVSPropertyOp40
 70
     1
102
RTVSPropertyOp41
 70
     1
102
RTVSPropertyOp42
 70
     1
102
RTVSPropertyOp43
 70
     1
102
RTVSPropertyOp44
 70
     1
102
RTVSPropertyOp45
 70
     1
102
RTVSPropertyOp46
 70
     1
102
RTVSPropertyOp47
 70
     1
102
RTVSPropertyOp48
 70
     1
102
RTVSPropertyOp49
 70
     1
102
RTVSPropertyOp50
 70
     1
102
RTVSPropertyOp51
 70
     0
102
RTVSPropertyOp52
 70
     0
102
RTVSPropertyOp53
 70
     1
102
RTVSPropertyOp54
 70
     1
102
RTVSPropertyOp55
 70
     1
102
RTVSPropertyOp56
 70
     1
102
RTVSPropertyOp57
 70
     1
102
RTVSPost2010Prop28
280
     0
102
RTVSPost2010PropOp28
 70
     1
102
RTVSPost2010Prop29
280
     1
102
RTVSPost2010PropOp29
 70
     1
102
RTVSPost2010Prop30
280
     1
102
RTVSPost2010PropOp30
 70
     1
102
RTVSPost2010Prop31
280
     0
102
RTVSPost2010PropOp31
 70
     1
102
RTVSPost2010Prop32
280
     0
102
RTVSPost2010PropOp32
 70
     1
102
RTVSPost2010Prop33
280
     0
102
RTVSPost2010PropOp33
 70
     1
102
RTVSPost2010Prop34
280
     0
102
RTVSPost2010PropOp34
 70
     1
102
RTVSPost2010Prop35
280
     0
102
RTVSPost2010PropOp35
 70
     1
102
RTVSPost2010Prop36
280
     0
102
RTVSPost2010PropOp36
 70
     1
102
RTVSPost2010Prop37
 90
       50
102
RTVSPost2010PropOp37
 70
     1
102
RTVSPost2010Prop38
140
0.0
102
RTVSPost2010PropOp38
 70
     1
102
RTVSPost2010Prop39
140
1.0
102
RTVSPost2010PropOp39
 70
     1
102
RTVSPost2010Prop40
 90
        0
102
RTVSPost2010PropOp40
 70
     1
102
RTVSPost2010Prop41ColorIndex
 90
       18
102
RTVSPost2010Prop41ColorRGB
 90
        0
102
RTVSPost2010PropOp41
 70
     1
102
RTVSPost2010Prop42
 90
       50
102
RTVSPost2010PropOp42
 70
     1
102
RTVSPost2010Prop43
 90
        3
102
RTVSPost2010PropOp43
 70
     1
102
RTVSPost2010Prop44ColorIndex
 90
        5
102
RTVSPost2010Prop44ColorRGB
 90
      255
102
RTVSPost2010PropOp44
 70
     1
102
RTVSPost2010Prop45
280
     0
102
RTVSPost2010PropOp45
 70
     1
102
RTVSPost2010Prop46
 90
       50
102
RTVSPost2010PropOp46
 70
     1
102
RTVSPost2010Prop47
 90
       50
102
RTVSPost2010PropOp47
 70
     1
102
RTVSPost2010Prop48
 90
       50
102
RTVSPost2010PropOp48
 70
     1
102
RTVSPost2010Prop49
280
     0
102
RTVSPost2010PropOp49
 70
     1
102
RTVSPost2010Prop50
 90
       50
102
RTVSPost2010PropOp50
 70
     1
102
RTVSPost2010Prop51ColorIndex
 90
      256
102
RTVSPost2010Prop51ColorRGB
 90
-16777216
102
RTVSPost2010PropOp51
 70
     0
102
RTVSPost2010Prop52
140
1.0
102
RTVSPost2010PropOp52
 70
     0
102
RTVSPost2010Prop53
 90
        2
102
RTVSPost2010PropOp53
 70
     1
102
RTVSPost2010Prop54
  1
strokes_ogs.tif
102
RTVSPost2010PropOp54
 70
     1
102
RTVSPost2010Prop55
280
     0
102
RTVSPost2010PropOp55
 70
     1
102
RTVSPost2010Prop56
140
1.0
102
RTVSPost2010PropOp56
 70
     1
102
RTVSPost2010Prop57
140
1.0
102
RTVSPost2010PropOp57
 70
     1
  0
XRECORD
  5
4EB
102
{ACAD_REACTORS
330
4EA
102
}
330
4EA
100
AcDbXrecord
280
     1
102
RTVSPropertyOp0
 70
     1
102
RTVSPropertyOp1
 70
     1
102
RTVSPropertyOp2
 70
     1
102
RTVSPropertyOp3
 70
     1
102
RTVSPropertyOp4
 70
     1
102
RTVSPropertyOp5
 70
     1
102
RTVSPropertyOp6
 70
     1
102
RTVSPropertyOp7
 70
     1
102
RTVSPropertyOp8
 70
     1
102
RTVSPropertyOp9
 70
     1
102
RTVSPropertyOp10
 70
     1
102
RTVSPropertyOp11
 70
     1
102
RTVSPropertyOp12
 70
     1
102
RTVSPropertyOp13
 70
     1
102
RTVSPropertyOp14
 70
     1
102
RTVSPropertyOp15
 70
     1
102
RTVSPropertyOp16
 70
     1
102
RTVSPropertyOp17
 70
     1
102
RTVSPropertyOp18
 70
     1
102
RTVSPropertyOp19
 70
     1
102
RTVSPropertyOp20
 70
     1
102
RTVSPropertyOp21
 70
     1
102
RTVSPropertyOp22
 70
     1
102
RTVSPropertyOp23
 70
     1
102
RTVSPropertyOp24
 70
     1
102
RTVSPropertyOp25
 70
     1
102
RTVSPropertyOp26
 70
     1
102
RTVSPropertyOp27
 70
     1
102
RTVSPropertyOp28
 70
     1
102
RTVSPropertyOp29
 70
     1
102
RTVSPropertyOp30
 70
     1
102
RTVSPropertyOp31
 70
     1
102
RTVSPropertyOp32
 70
     1
102
RTVSPropertyOp33
 70
     1
102
RTVSPropertyOp34
 70
     1
102
RTVSPropertyOp35
 70
     1
102
RTVSPropertyOp36
 70
     1
102
RTVSPropertyOp37
 70
     1
102
RTVSPropertyOp38
 70
     1
102
RTVSPropertyOp39
 70
     1
102
RTVSPropertyOp40
 70
     1
102
RTVSPropertyOp41
 70
     1
102
RTVSPropertyOp42
 70
     1
102
RTVSPropertyOp43
 70
     1
102
RTVSPropertyOp44
 70
     1
102
RTVSPropertyOp45
 70
     1
102
RTVSPropertyOp46
 70
     1
102
RTVSPropertyOp47
 70
     1
102
RTVSPropertyOp48
 70
     1
102
RTVSPropertyOp49
 70
     1
102
RTVSPropertyOp50
 70
     1
102
RTVSPropertyOp51
 70
     0
102
RTVSPropertyOp52
 70
     0
102
RTVSPropertyOp53
 70
     1
102
RTVSPropertyOp54
 70
     1
102
RTVSPropertyOp55
 70
     1
102
RTVSPropertyOp56
 70
     1
102
RTVSPropertyOp57
 70
     1
102
RTVSPost2010Prop28
280
     0
102
RTVSPost2010PropOp28
 70
     1
102
RTVSPost2010Prop29
280
     1
102
RTVSPost2010PropOp29
 70
     1
102
RTVSPost2010Prop30
280
     1
102
RTVSPost2010PropOp30
 70
     1
102
RTVSPost2010Prop31
280
     0
102
RTVSPost2010PropOp31
 70
     1
102
RTVSPost2010Prop32
280
     0
102
RTVSPost2010PropOp32
 70
     1
102
RTVSPost2010Prop33
280
     0
102
RTVSPost2010PropOp33
 70
     1
102
RTVSPost2010Prop34
280
     0
102
RTVSPost2010PropOp34
 70
     1
102
RTVSPost2010Prop35
280
     0
102
RTVSPost2010PropOp35
 70
     1
102
RTVSPost2010Prop36
280
     0
102
RTVSPost2010PropOp36
 70
     1
102
RTVSPost2010Prop37
 90
       50
102
RTVSPost2010PropOp37
 70
     1
102
RTVSPost2010Prop38
140
0.0
102
RTVSPost2010PropOp38
 70
     1
102
RTVSPost2010Prop39
140
1.0
102
RTVSPost2010PropOp39
 70
     1
102
RTVSPost2010Prop40
 90
        0
102
RTVSPost2010PropOp40
 70
     1
102
RTVSPost2010Prop41ColorIndex
 90
       18
102
RTVSPost2010Prop41ColorRGB
 90
        0
102
RTVSPost2010PropOp41
 70
     1
102
RTVSPost2010Prop42
 90
       50
102
RTVSPost2010PropOp42
 70
     1
102
RTVSPost2010Prop43
 90
        3
102
RTVSPost2010PropOp43
 70
     1
102
RTVSPost2010Prop44ColorIndex
 90
        5
102
RTVSPost2010Prop44ColorRGB
 90
      255
102
RTVSPost2010PropOp44
 70
     1
102
RTVSPost2010Prop45
280
     0
102
RTVSPost2010PropOp45
 70
     1
102
RTVSPost2010Prop46
 90
       50
102
RTVSPost2010PropOp46
 70
     1
102
RTVSPost2010Prop47
 90
       50
102
RTVSPost2010PropOp47
 70
     1
102
RTVSPost2010Prop48
 90
       50
102
RTVSPost2010PropOp48
 70
     1
102
RTVSPost2010Prop49
280
     0
102
RTVSPost2010PropOp49
 70
     1
102
RTVSPost2010Prop50
 90
       50
102
RTVSPost2010PropOp50
 70
     1
102
RTVSPost2010Prop51ColorIndex
 90
      256
102
RTVSPost2010Prop51ColorRGB
 90
-16777216
102
RTVSPost2010PropOp51
 70
     0
102
RTVSPost2010Prop52
140
1.0
102
RTVSPost2010PropOp52
 70
     0
102
RTVSPost2010Prop53
 90
        2
102
RTVSPost2010PropOp53
 70
     1
102
RTVSPost2010Prop54
  1
strokes_ogs.tif
102
RTVSPost2010PropOp54
 70
     1
102
RTVSPost2010Prop55
280
     0
102
RTVSPost2010PropOp55
 70
     1
102
RTVSPost2010Prop56
140
1.0
102
RTVSPost2010PropOp56
 70
     1
102
RTVSPost2010Prop57
140
1.0
102
RTVSPost2010PropOp57
 70
     1
  0
XRECORD
  5
4ED
102
{ACAD_REACTORS
330
4EC
102
}
330
4EC
100
AcDbXrecord
280
     1
102
RTVSPropertyOp0
 70
     1
102
RTVSPropertyOp1
 70
     1
102
RTVSPropertyOp2
 70
     1
102
RTVSPropertyOp3
 70
     1
102
RTVSPropertyOp4
 70
     1
102
RTVSPropertyOp5
 70
     1
102
RTVSPropertyOp6
 70
     1
102
RTVSPropertyOp7
 70
     1
102
RTVSPropertyOp8
 70
     1
102
RTVSPropertyOp9
 70
     1
102
RTVSPropertyOp10
 70
     1
102
RTVSPropertyOp11
 70
     1
102
RTVSPropertyOp12
 70
     1
102
RTVSPropertyOp13
 70
     1
102
RTVSPropertyOp14
 70
     1
102
RTVSPropertyOp15
 70
     1
102
RTVSPropertyOp16
 70
     1
102
RTVSPropertyOp17
 70
     1
102
RTVSPropertyOp18
 70
     1
102
RTVSPropertyOp19
 70
     1
102
RTVSPropertyOp20
 70
     1
102
RTVSPropertyOp21
 70
     1
102
RTVSPropertyOp22
 70
     1
102
RTVSPropertyOp23
 70
     1
102
RTVSPropertyOp24
 70
     1
102
RTVSPropertyOp25
 70
     1
102
RTVSPropertyOp26
 70
     1
102
RTVSPropertyOp27
 70
     1
102
RTVSPropertyOp28
 70
     1
102
RTVSPropertyOp29
 70
     1
102
RTVSPropertyOp30
 70
     1
102
RTVSPropertyOp31
 70
     1
102
RTVSPropertyOp32
 70
     1
102
RTVSPropertyOp33
 70
     1
102
RTVSPropertyOp34
 70
     1
102
RTVSPropertyOp35
 70
     1
102
RTVSPropertyOp36
 70
     1
102
RTVSPropertyOp37
 70
     1
102
RTVSPropertyOp38
 70
     1
102
RTVSPropertyOp39
 70
     1
102
RTVSPropertyOp40
 70
     1
102
RTVSPropertyOp41
 70
     1
102
RTVSPropertyOp42
 70
     1
102
RTVSPropertyOp43
 70
     1
102
RTVSPropertyOp44
 70
     1
102
RTVSPropertyOp45
 70
     1
102
RTVSPropertyOp46
 70
     1
102
RTVSPropertyOp47
 70
     1
102
RTVSPropertyOp48
 70
     1
102
RTVSPropertyOp49
 70
     1
102
RTVSPropertyOp50
 70
     1
102
RTVSPropertyOp51
 70
     0
102
RTVSPropertyOp52
 70
     0
102
RTVSPropertyOp53
 70
     1
102
RTVSPropertyOp54
 70
     1
102
RTVSPropertyOp55
 70
     1
102
RTVSPropertyOp56
 70
     1
102
RTVSPropertyOp57
 70
     1
102
RTVSPost2010Prop28
280
     0
102
RTVSPost2010PropOp28
 70
     1
102
RTVSPost2010Prop29
280
     1
102
RTVSPost2010PropOp29
 70
     1
102
RTVSPost2010Prop30
280
     1
102
RTVSPost2010PropOp30
 70
     1
102
RTVSPost2010Prop31
280
     0
102
RTVSPost2010PropOp31
 70
     1
102
RTVSPost2010Prop32
280
     0
102
RTVSPost2010PropOp32
 70
     1
102
RTVSPost2010Prop33
280
     0
102
RTVSPost2010PropOp33
 70
     1
102
RTVSPost2010Prop34
280
     0
102
RTVSPost2010PropOp34
 70
     1
102
RTVSPost2010Prop35
280
     0
102
RTVSPost2010PropOp35
 70
     1
102
RTVSPost2010Prop36
280
     0
102
RTVSPost2010PropOp36
 70
     1
102
RTVSPost2010Prop37
 90
       50
102
RTVSPost2010PropOp37
 70
     1
102
RTVSPost2010Prop38
140
0.0
102
RTVSPost2010PropOp38
 70
     1
102
RTVSPost2010Prop39
140
1.0
102
RTVSPost2010PropOp39
 70
     1
102
RTVSPost2010Prop40
 90
        0
102
RTVSPost2010PropOp40
 70
     1
102
RTVSPost2010Prop41ColorIndex
 90
       18
102
RTVSPost2010Prop41ColorRGB
 90
        0
102
RTVSPost2010PropOp41
 70
     1
102
RTVSPost2010Prop42
 90
       50
102
RTVSPost2010PropOp42
 70
     1
102
RTVSPost2010Prop43
 90
        3
102
RTVSPost2010PropOp43
 70
     1
102
RTVSPost2010Prop44ColorIndex
 90
        5
102
RTVSPost2010Prop44ColorRGB
 90
      255
102
RTVSPost2010PropOp44
 70
     1
102
RTVSPost2010Prop45
280
     0
102
RTVSPost2010PropOp45
 70
     1
102
RTVSPost2010Prop46
 90
       50
102
RTVSPost2010PropOp46
 70
     1
102
RTVSPost2010Prop47
 90
       50
102
RTVSPost2010PropOp47
 70
     1
102
RTVSPost2010Prop48
 90
       50
102
RTVSPost2010PropOp48
 70
     1
102
RTVSPost2010Prop49
280
     0
102
RTVSPost2010PropOp49
 70
     1
102
RTVSPost2010Prop50
 90
       50
102
RTVSPost2010PropOp50
 70
     1
102
RTVSPost2010Prop51ColorIndex
 90
      256
102
RTVSPost2010Prop51ColorRGB
 90
-16777216
102
RTVSPost2010PropOp51
 70
     0
102
RTVSPost2010Prop52
140
1.0
102
RTVSPost2010PropOp52
 70
     0
102
RTVSPost2010Prop53
 90
        2
102
RTVSPost2010PropOp53
 70
     1
102
RTVSPost2010Prop54
  1
strokes_ogs.tif
102
RTVSPost2010PropOp54
 70
     1
102
RTVSPost2010Prop55
280
     0
102
RTVSPost2010PropOp55
 70
     1
102
RTVSPost2010Prop56
140
1.0
102
RTVSPost2010PropOp56
 70
     1
102
RTVSPost2010Prop57
140
1.0
102
RTVSPost2010PropOp57
 70
     1
  0
XRECORD
  5
4FD
102
{ACAD_REACTORS
330
4FC
102
}
330
4FC
100
AcDbXrecord
280
     1
102
RTVSPropertyOp0
 70
     0
102
RTVSPropertyOp1
 70
     0
102
RTVSPropertyOp2
 70
     0
102
RTVSPropertyOp3
 70
     0
102
RTVSPropertyOp4
 70
     0
102
RTVSPropertyOp5
 70
     0
102
RTVSPropertyOp6
 70
     0
102
RTVSPropertyOp7
 70
     0
102
RTVSPropertyOp8
 70
     0
102
RTVSPropertyOp9
 70
     0
102
RTVSPropertyOp10
 70
     0
102
RTVSPropertyOp11
 70
     0
102
RTVSPropertyOp12
 70
     0
102
RTVSPropertyOp13
 70
     0
102
RTVSPropertyOp14
 70
     2
102
RTVSPropertyOp15
 70
     0
102
RTVSPropertyOp16
 70
     0
102
RTVSPropertyOp17
 70
     0
102
RTVSPropertyOp18
 70
     0
102
RTVSPropertyOp19
 70
     0
102
RTVSPropertyOp20
 70
     0
102
RTVSPropertyOp21
 70
     0
102
RTVSPropertyOp22
 70
     0
102
RTVSPropertyOp23
 70
     0
102
RTVSPropertyOp24
 70
     0
102
RTVSPropertyOp25
 70
     0
102
RTVSPropertyOp26
 70
     0
102
RTVSPropertyOp27
 70
     0
102
RTVSPropertyOp28
 70
     0
102
RTVSPropertyOp29
 70
     0
102
RTVSPropertyOp30
 70
     0
102
RTVSPropertyOp31
 70
     0
102
RTVSPropertyOp32
 70
     0
102
RTVSPropertyOp33
 70
     0
102
RTVSPropertyOp34
 70
     0
102
RTVSPropertyOp35
 70
     0
102
RTVSPropertyOp36
 70
     0
102
RTVSPropertyOp37
 70
     0
102
RTVSPropertyOp38
 70
     0
102
RTVSPropertyOp39
 70
     0
102
RTVSPropertyOp40
 70
     0
102
RTVSPropertyOp41
 70
     0
102
RTVSPropertyOp42
 70
     0
102
RTVSPropertyOp43
 70
     0
102
RTVSPropertyOp44
 70
     0
102
RTVSPropertyOp45
 70
     0
102
RTVSPropertyOp46
 70
     0
102
RTVSPropertyOp47
 70
     0
102
RTVSPropertyOp48
 70
     0
102
RTVSPropertyOp49
 70
     0
102
RTVSPropertyOp50
 70
     0
102
RTVSPropertyOp51
 70
     0
102
RTVSPropertyOp52
 70
     0
102
RTVSPropertyOp53
 70
     0
102
RTVSPropertyOp54
 70
     0
102
RTVSPropertyOp55
 70
     0
102
RTVSPropertyOp56
 70
     0
102
RTVSPropertyOp57
 70
     0
102
RTVSPost2010Prop28
280
     0
102
RTVSPost2010PropOp28
 70
     0
102
RTVSPost2010Prop29
280
     1
102
RTVSPost2010PropOp29
 70
     0
102
RTVSPost2010Prop30
280
     1
102
RTVSPost2010PropOp30
 70
     0
102
RTVSPost2010Prop31
280
     0
102
RTVSPost2010PropOp31
 70
     0
102
RTVSPost2010Prop32
280
     0
102
RTVSPost2010PropOp32
 70
     0
102
RTVSPost2010Prop33
280
     0
102
RTVSPost2010PropOp33
 70
     0
102
RTVSPost2010Prop34
280
     0
102
RTVSPost2010PropOp34
 70
     0
102
RTVSPost2010Prop35
280
     0
102
RTVSPost2010PropOp35
 70
     0
102
RTVSPost2010Prop36
280
     0
102
RTVSPost2010PropOp36
 70
     0
102
RTVSPost2010Prop37
 90
       50
102
RTVSPost2010PropOp37
 70
     0
102
RTVSPost2010Prop38
140
0.0
102
RTVSPost2010PropOp38
 70
     0
102
RTVSPost2010Prop39
140
1.0
102
RTVSPost2010PropOp39
 70
     0
102
RTVSPost2010Prop40
 90
        0
102
RTVSPost2010PropOp40
 70
     0
102
RTVSPost2010Prop41ColorIndex
 90
       18
102
RTVSPost2010Prop41ColorRGB
 90
        0
102
RTVSPost2010PropOp41
 70
     0
102
RTVSPost2010Prop42
 90
       50
102
RTVSPost2010PropOp42
 70
     0
102
RTVSPost2010Prop43
 90
        3
102
RTVSPost2010PropOp43
 70
     0
102
RTVSPost2010Prop44ColorIndex
 90
        5
102
RTVSPost2010Prop44ColorRGB
 90
      255
102
RTVSPost2010PropOp44
 70
     0
102
RTVSPost2010Prop45
280
     0
102
RTVSPost2010PropOp45
 70
     0
102
RTVSPost2010Prop46
 90
       50
102
RTVSPost2010PropOp46
 70
     0
102
RTVSPost2010Prop47
 90
       50
102
RTVSPost2010PropOp47
 70
     0
102
RTVSPost2010Prop48
 90
       50
102
RTVSPost2010PropOp48
 70
     0
102
RTVSPost2010Prop49
280
     0
102
RTVSPost2010PropOp49
 70
     0
102
RTVSPost2010Prop50
 90
       50
102
RTVSPost2010PropOp50
 70
     0
102
RTVSPost2010Prop51ColorIndex
 90
      256
102
RTVSPost2010Prop51ColorRGB
 90
-16777216
102
RTVSPost2010PropOp51
 70
     0
102
RTVSPost2010Prop52
140
1.0
102
RTVSPost2010PropOp52
 70
     0
102
RTVSPost2010Prop53
 90
        2
102
RTVSPost2010PropOp53
 70
     0
102
RTVSPost2010Prop54
  1
strokes_ogs.tif
102
RTVSPost2010PropOp54
 70
     0
102
RTVSPost2010Prop55
280
     0
102
RTVSPost2010PropOp55
 70
     0
102
RTVSPost2010Prop56
140
1.0
102
RTVSPost2010PropOp56
 70
     0
102
RTVSPost2010Prop57
140
1.0
102
RTVSPost2010PropOp57
 70
     0
  0
XRECORD
  5
4F5
102
{ACAD_REACTORS
330
4F4
102
}
330
4F4
100
AcDbXrecord
280
     1
102
RTVSPropertyOp0
 70
     1
102
RTVSPropertyOp1
 70
     1
102
RTVSPropertyOp2
 70
     1
102
RTVSPropertyOp3
 70
     1
102
RTVSPropertyOp4
 70
     1
102
RTVSPropertyOp5
 70
     1
102
RTVSPropertyOp6
 70
     1
102
RTVSPropertyOp7
 70
     1
102
RTVSPropertyOp8
 70
     1
102
RTVSPropertyOp9
 70
     1
102
RTVSPropertyOp10
 70
     1
102
RTVSPropertyOp11
 70
     1
102
RTVSPropertyOp12
 70
     1
102
RTVSPropertyOp13
 70
     1
102
RTVSPropertyOp14
 70
     1
102
RTVSPropertyOp15
 70
     1
102
RTVSPropertyOp16
 70
     1
102
RTVSPropertyOp17
 70
     1
102
RTVSPropertyOp18
 70
     1
102
RTVSPropertyOp19
 70
     1
102
RTVSPropertyOp20
 70
     1
102
RTVSPropertyOp21
 70
     1
102
RTVSPropertyOp22
 70
     1
102
RTVSPropertyOp23
 70
     1
102
RTVSPropertyOp24
 70
     1
102
RTVSPropertyOp25
 70
     1
102
RTVSPropertyOp26
 70
     1
102
RTVSPropertyOp27
 70
     1
102
RTVSPropertyOp28
 70
     1
102
RTVSPropertyOp29
 70
     1
102
RTVSPropertyOp30
 70
     1
102
RTVSPropertyOp31
 70
     1
102
RTVSPropertyOp32
 70
     1
102
RTVSPropertyOp33
 70
     1
102
RTVSPropertyOp34
 70
     1
102
RTVSPropertyOp35
 70
     1
102
RTVSPropertyOp36
 70
     1
102
RTVSPropertyOp37
 70
     1
102
RTVSPropertyOp38
 70
     1
102
RTVSPropertyOp39
 70
     1
102
RTVSPropertyOp40
 70
     1
102
RTVSPropertyOp41
 70
     1
102
RTVSPropertyOp42
 70
     1
102
RTVSPropertyOp43
 70
     1
102
RTVSPropertyOp44
 70
     1
102
RTVSPropertyOp45
 70
     1
102
RTVSPropertyOp46
 70
     1
102
RTVSPropertyOp47
 70
     1
102
RTVSPropertyOp48
 70
     1
102
RTVSPropertyOp49
 70
     1
102
RTVSPropertyOp50
 70
     1
102
RTVSPropertyOp51
 70
     0
102
RTVSPropertyOp52
 70
     0
102
RTVSPropertyOp53
 70
     1
102
RTVSPropertyOp54
 70
     1
102
RTVSPropertyOp55
 70
     1
102
RTVSPropertyOp56
 70
     1
102
RTVSPropertyOp57
 70
     1
102
RTVSPost2010Prop28
280
     0
102
RTVSPost2010PropOp28
 70
     1
102
RTVSPost2010Prop29
280
     1
102
RTVSPost2010PropOp29
 70
     1
102
RTVSPost2010Prop30
280
     1
102
RTVSPost2010PropOp30
 70
     1
102
RTVSPost2010Prop31
280
     0
102
RTVSPost2010PropOp31
 70
     1
102
RTVSPost2010Prop32
280
     0
102
RTVSPost2010PropOp32
 70
     1
102
RTVSPost2010Prop33
280
     0
102
RTVSPost2010PropOp33
 70
     1
102
RTVSPost2010Prop34
280
     0
102
RTVSPost2010PropOp34
 70
     1
102
RTVSPost2010Prop35
280
     0
102
RTVSPost2010PropOp35
 70
     1
102
RTVSPost2010Prop36
280
     0
102
RTVSPost2010PropOp36
 70
     1
102
RTVSPost2010Prop37
 90
       50
102
RTVSPost2010PropOp37
 70
     1
102
RTVSPost2010Prop38
140
0.0
102
RTVSPost2010PropOp38
 70
     1
102
RTVSPost2010Prop39
140
1.0
102
RTVSPost2010PropOp39
 70
     1
102
RTVSPost2010Prop40
 90
        0
102
RTVSPost2010PropOp40
 70
     1
102
RTVSPost2010Prop41ColorIndex
 90
       18
102
RTVSPost2010Prop41ColorRGB
 90
        0
102
RTVSPost2010PropOp41
 70
     1
102
RTVSPost2010Prop42
 90
       50
102
RTVSPost2010PropOp42
 70
     1
102
RTVSPost2010Prop43
 90
        3
102
RTVSPost2010PropOp43
 70
     1
102
RTVSPost2010Prop44ColorIndex
 90
        5
102
RTVSPost2010Prop44ColorRGB
 90
      255
102
RTVSPost2010PropOp44
 70
     1
102
RTVSPost2010Prop45
280
     0
102
RTVSPost2010PropOp45
 70
     1
102
RTVSPost2010Prop46
 90
       50
102
RTVSPost2010PropOp46
 70
     1
102
RTVSPost2010Prop47
 90
       50
102
RTVSPost2010PropOp47
 70
     1
102
RTVSPost2010Prop48
 90
       50
102
RTVSPost2010PropOp48
 70
     1
102
RTVSPost2010Prop49
280
     0
102
RTVSPost2010PropOp49
 70
     1
102
RTVSPost2010Prop50
 90
       50
102
RTVSPost2010PropOp50
 70
     1
102
RTVSPost2010Prop51ColorIndex
 90
      256
102
RTVSPost2010Prop51ColorRGB
 90
-16777216
102
RTVSPost2010PropOp51
 70
     0
102
RTVSPost2010Prop52
140
1.0
102
RTVSPost2010PropOp52
 70
     0
102
RTVSPost2010Prop53
 90
        2
102
RTVSPost2010PropOp53
 70
     1
102
RTVSPost2010Prop54
  1
strokes_ogs.tif
102
RTVSPost2010PropOp54
 70
     1
102
RTVSPost2010Prop55
280
     0
102
RTVSPost2010PropOp55
 70
     1
102
RTVSPost2010Prop56
140
1.0
102
RTVSPost2010PropOp56
 70
     1
102
RTVSPost2010Prop57
140
1.0
102
RTVSPost2010PropOp57
 70
     1
  0
XRECORD
  5
4D9
102
{ACAD_REACTORS
330
4D8
102
}
330
4D8
100
AcDbXrecord
280
     1
102
RTVSPropertyOp0
 70
     1
102
RTVSPropertyOp1
 70
     1
102
RTVSPropertyOp2
 70
     1
102
RTVSPropertyOp3
 70
     1
102
RTVSPropertyOp4
 70
     1
102
RTVSPropertyOp5
 70
     1
102
RTVSPropertyOp6
 70
     1
102
RTVSPropertyOp7
 70
     1
102
RTVSPropertyOp8
 70
     1
102
RTVSPropertyOp9
 70
     1
102
RTVSPropertyOp10
 70
     1
102
RTVSPropertyOp11
 70
     1
102
RTVSPropertyOp12
 70
     1
102
RTVSPropertyOp13
 70
     1
102
RTVSPropertyOp14
 70
     1
102
RTVSPropertyOp15
 70
     1
102
RTVSPropertyOp16
 70
     1
102
RTVSPropertyOp17
 70
     1
102
RTVSPropertyOp18
 70
     1
102
RTVSPropertyOp19
 70
     1
102
RTVSPropertyOp20
 70
     1
102
RTVSPropertyOp21
 70
     1
102
RTVSPropertyOp22
 70
     1
102
RTVSPropertyOp23
 70
     1
102
RTVSPropertyOp24
 70
     1
102
RTVSPropertyOp25
 70
     1
102
RTVSPropertyOp26
 70
     1
102
RTVSPropertyOp27
 70
     1
102
RTVSPropertyOp28
 70
     1
102
RTVSPropertyOp29
 70
     1
102
RTVSPropertyOp30
 70
     1
102
RTVSPropertyOp31
 70
     1
102
RTVSPropertyOp32
 70
     1
102
RTVSPropertyOp33
 70
     1
102
RTVSPropertyOp34
 70
     1
102
RTVSPropertyOp35
 70
     1
102
RTVSPropertyOp36
 70
     1
102
RTVSPropertyOp37
 70
     1
102
RTVSPropertyOp38
 70
     1
102
RTVSPropertyOp39
 70
     1
102
RTVSPropertyOp40
 70
     1
102
RTVSPropertyOp41
 70
     1
102
RTVSPropertyOp42
 70
     1
102
RTVSPropertyOp43
 70
     1
102
RTVSPropertyOp44
 70
     1
102
RTVSPropertyOp45
 70
     1
102
RTVSPropertyOp46
 70
     1
102
RTVSPropertyOp47
 70
     1
102
RTVSPropertyOp48
 70
     1
102
RTVSPropertyOp49
 70
     1
102
RTVSPropertyOp50
 70
     1
102
RTVSPropertyOp51
 70
     0
102
RTVSPropertyOp52
 70
     0
102
RTVSPropertyOp53
 70
     1
102
RTVSPropertyOp54
 70
     1
102
RTVSPropertyOp55
 70
     1
102
RTVSPropertyOp56
 70
     1
102
RTVSPropertyOp57
 70
     1
102
RTVSPost2010Prop28
280
     0
102
RTVSPost2010PropOp28
 70
     1
102
RTVSPost2010Prop29
280
     1
102
RTVSPost2010PropOp29
 70
     1
102
RTVSPost2010Prop30
280
     1
102
RTVSPost2010PropOp30
 70
     1
102
RTVSPost2010Prop31
280
     0
102
RTVSPost2010PropOp31
 70
     1
102
RTVSPost2010Prop32
280
     0
102
RTVSPost2010PropOp32
 70
     1
102
RTVSPost2010Prop33
280
     0
102
RTVSPost2010PropOp33
 70
     1
102
RTVSPost2010Prop34
280
     0
102
RTVSPost2010PropOp34
 70
     1
102
RTVSPost2010Prop35
280
     0
102
RTVSPost2010PropOp35
 70
     1
102
RTVSPost2010Prop36
280
     0
102
RTVSPost2010PropOp36
 70
     1
102
RTVSPost2010Prop37
 90
       50
102
RTVSPost2010PropOp37
 70
     1
102
RTVSPost2010Prop38
140
0.0
102
RTVSPost2010PropOp38
 70
     1
102
RTVSPost2010Prop39
140
1.0
102
RTVSPost2010PropOp39
 70
     1
102
RTVSPost2010Prop40
 90
        0
102
RTVSPost2010PropOp40
 70
     1
102
RTVSPost2010Prop41ColorIndex
 90
       18
102
RTVSPost2010Prop41ColorRGB
 90
        0
102
RTVSPost2010PropOp41
 70
     1
102
RTVSPost2010Prop42
 90
       50
102
RTVSPost2010PropOp42
 70
     1
102
RTVSPost2010Prop43
 90
        3
102
RTVSPost2010PropOp43
 70
     1
102
RTVSPost2010Prop44ColorIndex
 90
        5
102
RTVSPost2010Prop44ColorRGB
 90
      255
102
RTVSPost2010PropOp44
 70
     1
102
RTVSPost2010Prop45
280
     0
102
RTVSPost2010PropOp45
 70
     1
102
RTVSPost2010Prop46
 90
       50
102
RTVSPost2010PropOp46
 70
     1
102
RTVSPost2010Prop47
 90
       50
102
RTVSPost2010PropOp47
 70
     1
102
RTVSPost2010Prop48
 90
       50
102
RTVSPost2010PropOp48
 70
     1
102
RTVSPost2010Prop49
280
     0
102
RTVSPost2010PropOp49
 70
     1
102
RTVSPost2010Prop50
 90
       50
102
RTVSPost2010PropOp50
 70
     1
102
RTVSPost2010Prop51ColorIndex
 90
      256
102
RTVSPost2010Prop51ColorRGB
 90
-16777216
102
RTVSPost2010PropOp51
 70
     0
102
RTVSPost2010Prop52
140
1.0
102
RTVSPost2010PropOp52
 70
     0
102
RTVSPost2010Prop53
 90
        2
102
RTVSPost2010PropOp53
 70
     1
102
RTVSPost2010Prop54
  1
strokes_ogs.tif
102
RTVSPost2010PropOp54
 70
     1
102
RTVSPost2010Prop55
280
     0
102
RTVSPost2010PropOp55
 70
     1
102
RTVSPost2010Prop56
140
1.0
102
RTVSPost2010PropOp56
 70
     1
102
RTVSPost2010Prop57
140
1.0
102
RTVSPost2010PropOp57
 70
     1
  0
XRECORD
  5
4DB
102
{ACAD_REACTORS
330
4DA
102
}
330
4DA
100
AcDbXrecord
280
     1
102
RTVSPropertyOp0
 70
     1
102
RTVSPropertyOp1
 70
     1
102
RTVSPropertyOp2
 70
     1
102
RTVSPropertyOp3
 70
     1
102
RTVSPropertyOp4
 70
     1
102
RTVSPropertyOp5
 70
     1
102
RTVSPropertyOp6
 70
     1
102
RTVSPropertyOp7
 70
     1
102
RTVSPropertyOp8
 70
     1
102
RTVSPropertyOp9
 70
     1
102
RTVSPropertyOp10
 70
     1
102
RTVSPropertyOp11
 70
     1
102
RTVSPropertyOp12
 70
     1
102
RTVSPropertyOp13
 70
     1
102
RTVSPropertyOp14
 70
     1
102
RTVSPropertyOp15
 70
     1
102
RTVSPropertyOp16
 70
     1
102
RTVSPropertyOp17
 70
     1
102
RTVSPropertyOp18
 70
     1
102
RTVSPropertyOp19
 70
     1
102
RTVSPropertyOp20
 70
     1
102
RTVSPropertyOp21
 70
     1
102
RTVSPropertyOp22
 70
     1
102
RTVSPropertyOp23
 70
     1
102
RTVSPropertyOp24
 70
     1
102
RTVSPropertyOp25
 70
     1
102
RTVSPropertyOp26
 70
     1
102
RTVSPropertyOp27
 70
     1
102
RTVSPropertyOp28
 70
     1
102
RTVSPropertyOp29
 70
     1
102
RTVSPropertyOp30
 70
     1
102
RTVSPropertyOp31
 70
     1
102
RTVSPropertyOp32
 70
     1
102
RTVSPropertyOp33
 70
     1
102
RTVSPropertyOp34
 70
     1
102
RTVSPropertyOp35
 70
     1
102
RTVSPropertyOp36
 70
     1
102
RTVSPropertyOp37
 70
     1
102
RTVSPropertyOp38
 70
     1
102
RTVSPropertyOp39
 70
     1
102
RTVSPropertyOp40
 70
     1
102
RTVSPropertyOp41
 70
     1
102
RTVSPropertyOp42
 70
     1
102
RTVSPropertyOp43
 70
     1
102
RTVSPropertyOp44
 70
     1
102
RTVSPropertyOp45
 70
     1
102
RTVSPropertyOp46
 70
     1
102
RTVSPropertyOp47
 70
     1
102
RTVSPropertyOp48
 70
     1
102
RTVSPropertyOp49
 70
     1
102
RTVSPropertyOp50
 70
     1
102
RTVSPropertyOp51
 70
     0
102
RTVSPropertyOp52
 70
     0
102
RTVSPropertyOp53
 70
     1
102
RTVSPropertyOp54
 70
     1
102
RTVSPropertyOp55
 70
     1
102
RTVSPropertyOp56
 70
     1
102
RTVSPropertyOp57
 70
     1
102
RTVSPost2010Prop28
280
     0
102
RTVSPost2010PropOp28
 70
     1
102
RTVSPost2010Prop29
280
     1
102
RTVSPost2010PropOp29
 70
     1
102
RTVSPost2010Prop30
280
     1
102
RTVSPost2010PropOp30
 70
     1
102
RTVSPost2010Prop31
280
     0
102
RTVSPost2010PropOp31
 70
     1
102
RTVSPost2010Prop32
280
     0
102
RTVSPost2010PropOp32
 70
     1
102
RTVSPost2010Prop33
280
     0
102
RTVSPost2010PropOp33
 70
     1
102
RTVSPost2010Prop34
280
     0
102
RTVSPost2010PropOp34
 70
     1
102
RTVSPost2010Prop35
280
     0
102
RTVSPost2010PropOp35
 70
     1
102
RTVSPost2010Prop36
280
     0
102
RTVSPost2010PropOp36
 70
     1
102
RTVSPost2010Prop37
 90
       50
102
RTVSPost2010PropOp37
 70
     1
102
RTVSPost2010Prop38
140
0.0
102
RTVSPost2010PropOp38
 70
     1
102
RTVSPost2010Prop39
140
1.0
102
RTVSPost2010PropOp39
 70
     1
102
RTVSPost2010Prop40
 90
        0
102
RTVSPost2010PropOp40
 70
     1
102
RTVSPost2010Prop41ColorIndex
 90
       18
102
RTVSPost2010Prop41ColorRGB
 90
        0
102
RTVSPost2010PropOp41
 70
     1
102
RTVSPost2010Prop42
 90
       50
102
RTVSPost2010PropOp42
 70
     1
102
RTVSPost2010Prop43
 90
        3
102
RTVSPost2010PropOp43
 70
     1
102
RTVSPost2010Prop44ColorIndex
 90
        5
102
RTVSPost2010Prop44ColorRGB
 90
      255
102
RTVSPost2010PropOp44
 70
     1
102
RTVSPost2010Prop45
280
     0
102
RTVSPost2010PropOp45
 70
     1
102
RTVSPost2010Prop46
 90
       50
102
RTVSPost2010PropOp46
 70
     1
102
RTVSPost2010Prop47
 90
       50
102
RTVSPost2010PropOp47
 70
     1
102
RTVSPost2010Prop48
 90
       50
102
RTVSPost2010PropOp48
 70
     1
102
RTVSPost2010Prop49
280
     0
102
RTVSPost2010PropOp49
 70
     1
102
RTVSPost2010Prop50
 90
       50
102
RTVSPost2010PropOp50
 70
     1
102
RTVSPost2010Prop51ColorIndex
 90
      256
102
RTVSPost2010Prop51ColorRGB
 90
-16777216
102
RTVSPost2010PropOp51
 70
     0
102
RTVSPost2010Prop52
140
1.0
102
RTVSPost2010PropOp52
 70
     0
102
RTVSPost2010Prop53
 90
        2
102
RTVSPost2010PropOp53
 70
     1
102
RTVSPost2010Prop54
  1
strokes_ogs.tif
102
RTVSPost2010PropOp54
 70
     1
102
RTVSPost2010Prop55
280
     0
102
RTVSPost2010PropOp55
 70
     1
102
RTVSPost2010Prop56
140
1.0
102
RTVSPost2010PropOp56
 70
     1
102
RTVSPost2010Prop57
140
1.0
102
RTVSPost2010PropOp57
 70
     1
  0
XRECORD
  5
4DD
102
{ACAD_REACTORS
330
4DC
102
}
330
4DC
100
AcDbXrecord
280
     1
102
RTVSPropertyOp0
 70
     1
102
RTVSPropertyOp1
 70
     1
102
RTVSPropertyOp2
 70
     1
102
RTVSPropertyOp3
 70
     1
102
RTVSPropertyOp4
 70
     1
102
RTVSPropertyOp5
 70
     1
102
RTVSPropertyOp6
 70
     1
102
RTVSPropertyOp7
 70
     1
102
RTVSPropertyOp8
 70
     1
102
RTVSPropertyOp9
 70
     1
102
RTVSPropertyOp10
 70
     1
102
RTVSPropertyOp11
 70
     1
102
RTVSPropertyOp12
 70
     1
102
RTVSPropertyOp13
 70
     1
102
RTVSPropertyOp14
 70
     1
102
RTVSPropertyOp15
 70
     1
102
RTVSPropertyOp16
 70
     1
102
RTVSPropertyOp17
 70
     1
102
RTVSPropertyOp18
 70
     1
102
RTVSPropertyOp19
 70
     1
102
RTVSPropertyOp20
 70
     1
102
RTVSPropertyOp21
 70
     1
102
RTVSPropertyOp22
 70
     1
102
RTVSPropertyOp23
 70
     1
102
RTVSPropertyOp24
 70
     1
102
RTVSPropertyOp25
 70
     1
102
RTVSPropertyOp26
 70
     1
102
RTVSPropertyOp27
 70
     1
102
RTVSPropertyOp28
 70
     1
102
RTVSPropertyOp29
 70
     1
102
RTVSPropertyOp30
 70
     1
102
RTVSPropertyOp31
 70
     1
102
RTVSPropertyOp32
 70
     1
102
RTVSPropertyOp33
 70
     1
102
RTVSPropertyOp34
 70
     1
102
RTVSPropertyOp35
 70
     1
102
RTVSPropertyOp36
 70
     1
102
RTVSPropertyOp37
 70
     1
102
RTVSPropertyOp38
 70
     1
102
RTVSPropertyOp39
 70
     1
102
RTVSPropertyOp40
 70
     1
102
RTVSPropertyOp41
 70
     1
102
RTVSPropertyOp42
 70
     1
102
RTVSPropertyOp43
 70
     1
102
RTVSPropertyOp44
 70
     1
102
RTVSPropertyOp45
 70
     1
102
RTVSPropertyOp46
 70
     1
102
RTVSPropertyOp47
 70
     1
102
RTVSPropertyOp48
 70
     1
102
RTVSPropertyOp49
 70
     1
102
RTVSPropertyOp50
 70
     1
102
RTVSPropertyOp51
 70
     0
102
RTVSPropertyOp52
 70
     0
102
RTVSPropertyOp53
 70
     1
102
RTVSPropertyOp54
 70
     1
102
RTVSPropertyOp55
 70
     1
102
RTVSPropertyOp56
 70
     1
102
RTVSPropertyOp57
 70
     1
102
RTVSPost2010Prop28
280
     0
102
RTVSPost2010PropOp28
 70
     1
102
RTVSPost2010Prop29
280
     1
102
RTVSPost2010PropOp29
 70
     1
102
RTVSPost2010Prop30
280
     1
102
RTVSPost2010PropOp30
 70
     1
102
RTVSPost2010Prop31
280
     0
102
RTVSPost2010PropOp31
 70
     1
102
RTVSPost2010Prop32
280
     0
102
RTVSPost2010PropOp32
 70
     1
102
RTVSPost2010Prop33
280
     0
102
RTVSPost2010PropOp33
 70
     1
102
RTVSPost2010Prop34
280
     0
102
RTVSPost2010PropOp34
 70
     1
102
RTVSPost2010Prop35
280
     0
102
RTVSPost2010PropOp35
 70
     1
102
RTVSPost2010Prop36
280
     0
102
RTVSPost2010PropOp36
 70
     1
102
RTVSPost2010Prop37
 90
       50
102
RTVSPost2010PropOp37
 70
     1
102
RTVSPost2010Prop38
140
0.0
102
RTVSPost2010PropOp38
 70
     1
102
RTVSPost2010Prop39
140
1.0
102
RTVSPost2010PropOp39
 70
     1
102
RTVSPost2010Prop40
 90
        0
102
RTVSPost2010PropOp40
 70
     1
102
RTVSPost2010Prop41ColorIndex
 90
       18
102
RTVSPost2010Prop41ColorRGB
 90
        0
102
RTVSPost2010PropOp41
 70
     1
102
RTVSPost2010Prop42
 90
       50
102
RTVSPost2010PropOp42
 70
     1
102
RTVSPost2010Prop43
 90
        3
102
RTVSPost2010PropOp43
 70
     1
102
RTVSPost2010Prop44ColorIndex
 90
        5
102
RTVSPost2010Prop44ColorRGB
 90
      255
102
RTVSPost2010PropOp44
 70
     1
102
RTVSPost2010Prop45
280
     0
102
RTVSPost2010PropOp45
 70
     1
102
RTVSPost2010Prop46
 90
       50
102
RTVSPost2010PropOp46
 70
     1
102
RTVSPost2010Prop47
 90
       50
102
RTVSPost2010PropOp47
 70
     1
102
RTVSPost2010Prop48
 90
       50
102
RTVSPost2010PropOp48
 70
     1
102
RTVSPost2010Prop49
280
     0
102
RTVSPost2010PropOp49
 70
     1
102
RTVSPost2010Prop50
 90
       50
102
RTVSPost2010PropOp50
 70
     1
102
RTVSPost2010Prop51ColorIndex
 90
      256
102
RTVSPost2010Prop51ColorRGB
 90
-16777216
102
RTVSPost2010PropOp51
 70
     0
102
RTVSPost2010Prop52
140
1.0
102
RTVSPost2010PropOp52
 70
     0
102
RTVSPost2010Prop53
 90
        2
102
RTVSPost2010PropOp53
 70
     1
102
RTVSPost2010Prop54
  1
strokes_ogs.tif
102
RTVSPost2010PropOp54
 70
     1
102
RTVSPost2010Prop55
280
     0
102
RTVSPost2010PropOp55
 70
     1
102
RTVSPost2010Prop56
140
1.0
102
RTVSPost2010PropOp56
 70
     1
102
RTVSPost2010Prop57
140
1.0
102
RTVSPost2010PropOp57
 70
     1
  0
XRECORD
  5
4DF
102
{ACAD_REACTORS
330
4DE
102
}
330
4DE
100
AcDbXrecord
280
     1
102
RTVSPropertyOp0
 70
     1
102
RTVSPropertyOp1
 70
     1
102
RTVSPropertyOp2
 70
     1
102
RTVSPropertyOp3
 70
     1
102
RTVSPropertyOp4
 70
     1
102
RTVSPropertyOp5
 70
     1
102
RTVSPropertyOp6
 70
     1
102
RTVSPropertyOp7
 70
     1
102
RTVSPropertyOp8
 70
     1
102
RTVSPropertyOp9
 70
     1
102
RTVSPropertyOp10
 70
     1
102
RTVSPropertyOp11
 70
     1
102
RTVSPropertyOp12
 70
     1
102
RTVSPropertyOp13
 70
     1
102
RTVSPropertyOp14
 70
     1
102
RTVSPropertyOp15
 70
     1
102
RTVSPropertyOp16
 70
     1
102
RTVSPropertyOp17
 70
     1
102
RTVSPropertyOp18
 70
     1
102
RTVSPropertyOp19
 70
     1
102
RTVSPropertyOp20
 70
     1
102
RTVSPropertyOp21
 70
     1
102
RTVSPropertyOp22
 70
     1
102
RTVSPropertyOp23
 70
     1
102
RTVSPropertyOp24
 70
     1
102
RTVSPropertyOp25
 70
     1
102
RTVSPropertyOp26
 70
     1
102
RTVSPropertyOp27
 70
     1
102
RTVSPropertyOp28
 70
     1
102
RTVSPropertyOp29
 70
     1
102
RTVSPropertyOp30
 70
     1
102
RTVSPropertyOp31
 70
     1
102
RTVSPropertyOp32
 70
     1
102
RTVSPropertyOp33
 70
     1
102
RTVSPropertyOp34
 70
     1
102
RTVSPropertyOp35
 70
     1
102
RTVSPropertyOp36
 70
     1
102
RTVSPropertyOp37
 70
     1
102
RTVSPropertyOp38
 70
     1
102
RTVSPropertyOp39
 70
     1
102
RTVSPropertyOp40
 70
     1
102
RTVSPropertyOp41
 70
     1
102
RTVSPropertyOp42
 70
     1
102
RTVSPropertyOp43
 70
     1
102
RTVSPropertyOp44
 70
     1
102
RTVSPropertyOp45
 70
     1
102
RTVSPropertyOp46
 70
     1
102
RTVSPropertyOp47
 70
     1
102
RTVSPropertyOp48
 70
     1
102
RTVSPropertyOp49
 70
     1
102
RTVSPropertyOp50
 70
     1
102
RTVSPropertyOp51
 70
     0
102
RTVSPropertyOp52
 70
     0
102
RTVSPropertyOp53
 70
     1
102
RTVSPropertyOp54
 70
     1
102
RTVSPropertyOp55
 70
     1
102
RTVSPropertyOp56
 70
     1
102
RTVSPropertyOp57
 70
     1
102
RTVSPost2010Prop28
280
     0
102
RTVSPost2010PropOp28
 70
     1
102
RTVSPost2010Prop29
280
     1
102
RTVSPost2010PropOp29
 70
     1
102
RTVSPost2010Prop30
280
     1
102
RTVSPost2010PropOp30
 70
     1
102
RTVSPost2010Prop31
280
     0
102
RTVSPost2010PropOp31
 70
     1
102
RTVSPost2010Prop32
280
     0
102
RTVSPost2010PropOp32
 70
     1
102
RTVSPost2010Prop33
280
     0
102
RTVSPost2010PropOp33
 70
     1
102
RTVSPost2010Prop34
280
     0
102
RTVSPost2010PropOp34
 70
     1
102
RTVSPost2010Prop35
280
     0
102
RTVSPost2010PropOp35
 70
     1
102
RTVSPost2010Prop36
280
     0
102
RTVSPost2010PropOp36
 70
     1
102
RTVSPost2010Prop37
 90
       50
102
RTVSPost2010PropOp37
 70
     1
102
RTVSPost2010Prop38
140
0.0
102
RTVSPost2010PropOp38
 70
     1
102
RTVSPost2010Prop39
140
1.0
102
RTVSPost2010PropOp39
 70
     1
102
RTVSPost2010Prop40
 90
        0
102
RTVSPost2010PropOp40
 70
     1
102
RTVSPost2010Prop41ColorIndex
 90
       18
102
RTVSPost2010Prop41ColorRGB
 90
        0
102
RTVSPost2010PropOp41
 70
     1
102
RTVSPost2010Prop42
 90
       50
102
RTVSPost2010PropOp42
 70
     1
102
RTVSPost2010Prop43
 90
        3
102
RTVSPost2010PropOp43
 70
     1
102
RTVSPost2010Prop44ColorIndex
 90
        5
102
RTVSPost2010Prop44ColorRGB
 90
      255
102
RTVSPost2010PropOp44
 70
     1
102
RTVSPost2010Prop45
280
     0
102
RTVSPost2010PropOp45
 70
     1
102
RTVSPost2010Prop46
 90
       50
102
RTVSPost2010PropOp46
 70
     1
102
RTVSPost2010Prop47
 90
       50
102
RTVSPost2010PropOp47
 70
     1
102
RTVSPost2010Prop48
 90
       50
102
RTVSPost2010PropOp48
 70
     1
102
RTVSPost2010Prop49
280
     0
102
RTVSPost2010PropOp49
 70
     1
102
RTVSPost2010Prop50
 90
       50
102
RTVSPost2010PropOp50
 70
     1
102
RTVSPost2010Prop51ColorIndex
 90
      256
102
RTVSPost2010Prop51ColorRGB
 90
-16777216
102
RTVSPost2010PropOp51
 70
     0
102
RTVSPost2010Prop52
140
1.0
102
RTVSPost2010PropOp52
 70
     0
102
RTVSPost2010Prop53
 90
        2
102
RTVSPost2010PropOp53
 70
     1
102
RTVSPost2010Prop54
  1
strokes_ogs.tif
102
RTVSPost2010PropOp54
 70
     1
102
RTVSPost2010Prop55
280
     0
102
RTVSPost2010PropOp55
 70
     1
102
RTVSPost2010Prop56
140
1.0
102
RTVSPost2010PropOp56
 70
     1
102
RTVSPost2010Prop57
140
1.0
102
RTVSPost2010PropOp57
 70
     1
  0
XRECORD
  5
4E5
102
{ACAD_REACTORS
330
4E4
102
}
330
4E4
100
AcDbXrecord
280
     1
102
RTVSPropertyOp0
 70
     1
102
RTVSPropertyOp1
 70
     1
102
RTVSPropertyOp2
 70
     1
102
RTVSPropertyOp3
 70
     1
102
RTVSPropertyOp4
 70
     1
102
RTVSPropertyOp5
 70
     1
102
RTVSPropertyOp6
 70
     1
102
RTVSPropertyOp7
 70
     1
102
RTVSPropertyOp8
 70
     1
102
RTVSPropertyOp9
 70
     1
102
RTVSPropertyOp10
 70
     1
102
RTVSPropertyOp11
 70
     1
102
RTVSPropertyOp12
 70
     1
102
RTVSPropertyOp13
 70
     1
102
RTVSPropertyOp14
 70
     1
102
RTVSPropertyOp15
 70
     1
102
RTVSPropertyOp16
 70
     1
102
RTVSPropertyOp17
 70
     1
102
RTVSPropertyOp18
 70
     1
102
RTVSPropertyOp19
 70
     1
102
RTVSPropertyOp20
 70
     1
102
RTVSPropertyOp21
 70
     1
102
RTVSPropertyOp22
 70
     1
102
RTVSPropertyOp23
 70
     1
102
RTVSPropertyOp24
 70
     1
102
RTVSPropertyOp25
 70
     1
102
RTVSPropertyOp26
 70
     1
102
RTVSPropertyOp27
 70
     1
102
RTVSPropertyOp28
 70
     1
102
RTVSPropertyOp29
 70
     1
102
RTVSPropertyOp30
 70
     1
102
RTVSPropertyOp31
 70
     1
102
RTVSPropertyOp32
 70
     1
102
RTVSPropertyOp33
 70
     1
102
RTVSPropertyOp34
 70
     1
102
RTVSPropertyOp35
 70
     1
102
RTVSPropertyOp36
 70
     1
102
RTVSPropertyOp37
 70
     1
102
RTVSPropertyOp38
 70
     1
102
RTVSPropertyOp39
 70
     1
102
RTVSPropertyOp40
 70
     1
102
RTVSPropertyOp41
 70
     1
102
RTVSPropertyOp42
 70
     1
102
RTVSPropertyOp43
 70
     1
102
RTVSPropertyOp44
 70
     1
102
RTVSPropertyOp45
 70
     1
102
RTVSPropertyOp46
 70
     1
102
RTVSPropertyOp47
 70
     1
102
RTVSPropertyOp48
 70
     1
102
RTVSPropertyOp49
 70
     1
102
RTVSPropertyOp50
 70
     1
102
RTVSPropertyOp51
 70
     0
102
RTVSPropertyOp52
 70
     0
102
RTVSPropertyOp53
 70
     1
102
RTVSPropertyOp54
 70
     1
102
RTVSPropertyOp55
 70
     1
102
RTVSPropertyOp56
 70
     1
102
RTVSPropertyOp57
 70
     1
102
RTVSPost2010Prop28
280
     0
102
RTVSPost2010PropOp28
 70
     1
102
RTVSPost2010Prop29
280
     1
102
RTVSPost2010PropOp29
 70
     1
102
RTVSPost2010Prop30
280
     1
102
RTVSPost2010PropOp30
 70
     1
102
RTVSPost2010Prop31
280
     0
102
RTVSPost2010PropOp31
 70
     1
102
RTVSPost2010Prop32
280
     0
102
RTVSPost2010PropOp32
 70
     1
102
RTVSPost2010Prop33
280
     0
102
RTVSPost2010PropOp33
 70
     1
102
RTVSPost2010Prop34
280
     0
102
RTVSPost2010PropOp34
 70
     1
102
RTVSPost2010Prop35
280
     0
102
RTVSPost2010PropOp35
 70
     1
102
RTVSPost2010Prop36
280
     0
102
RTVSPost2010PropOp36
 70
     1
102
RTVSPost2010Prop37
 90
       50
102
RTVSPost2010PropOp37
 70
     1
102
RTVSPost2010Prop38
140
0.0
102
RTVSPost2010PropOp38
 70
     1
102
RTVSPost2010Prop39
140
1.0
102
RTVSPost2010PropOp39
 70
     1
102
RTVSPost2010Prop40
 90
        0
102
RTVSPost2010PropOp40
 70
     1
102
RTVSPost2010Prop41ColorIndex
 90
       18
102
RTVSPost2010Prop41ColorRGB
 90
        0
102
RTVSPost2010PropOp41
 70
     1
102
RTVSPost2010Prop42
 90
       50
102
RTVSPost2010PropOp42
 70
     1
102
RTVSPost2010Prop43
 90
        3
102
RTVSPost2010PropOp43
 70
     1
102
RTVSPost2010Prop44ColorIndex
 90
        5
102
RTVSPost2010Prop44ColorRGB
 90
      255
102
RTVSPost2010PropOp44
 70
     1
102
RTVSPost2010Prop45
280
     0
102
RTVSPost2010PropOp45
 70
     1
102
RTVSPost2010Prop46
 90
       50
102
RTVSPost2010PropOp46
 70
     1
102
RTVSPost2010Prop47
 90
       50
102
RTVSPost2010PropOp47
 70
     1
102
RTVSPost2010Prop48
 90
       50
102
RTVSPost2010PropOp48
 70
     1
102
RTVSPost2010Prop49
280
     0
102
RTVSPost2010PropOp49
 70
     1
102
RTVSPost2010Prop50
 90
       50
102
RTVSPost2010PropOp50
 70
     1
102
RTVSPost2010Prop51ColorIndex
 90
      256
102
RTVSPost2010Prop51ColorRGB
 90
-16777216
102
RTVSPost2010PropOp51
 70
     0
102
RTVSPost2010Prop52
140
1.0
102
RTVSPost2010PropOp52
 70
     0
102
RTVSPost2010Prop53
 90
        2
102
RTVSPost2010PropOp53
 70
     1
102
RTVSPost2010Prop54
  1
strokes_ogs.tif
102
RTVSPost2010PropOp54
 70
     1
102
RTVSPost2010Prop55
280
     0
102
RTVSPost2010PropOp55
 70
     1
102
RTVSPost2010Prop56
140
1.0
102
RTVSPost2010PropOp56
 70
     1
102
RTVSPost2010Prop57
140
1.0
102
RTVSPost2010PropOp57
 70
     1
  0
XRECORD
  5
4F9
102
{ACAD_REACTORS
330
4F8
102
}
330
4F8
100
AcDbXrecord
280
     1
102
RTVSPropertyOp0
 70
     0
102
RTVSPropertyOp1
 70
     0
102
RTVSPropertyOp2
 70
     0
102
RTVSPropertyOp3
 70
     0
102
RTVSPropertyOp4
 70
     0
102
RTVSPropertyOp5
 70
     0
102
RTVSPropertyOp6
 70
     0
102
RTVSPropertyOp7
 70
     0
102
RTVSPropertyOp8
 70
     0
102
RTVSPropertyOp9
 70
     0
102
RTVSPropertyOp10
 70
     0
102
RTVSPropertyOp11
 70
     0
102
RTVSPropertyOp12
 70
     0
102
RTVSPropertyOp13
 70
     0
102
RTVSPropertyOp14
 70
     2
102
RTVSPropertyOp15
 70
     0
102
RTVSPropertyOp16
 70
     0
102
RTVSPropertyOp17
 70
     0
102
RTVSPropertyOp18
 70
     0
102
RTVSPropertyOp19
 70
     0
102
RTVSPropertyOp20
 70
     0
102
RTVSPropertyOp21
 70
     0
102
RTVSPropertyOp22
 70
     0
102
RTVSPropertyOp23
 70
     0
102
RTVSPropertyOp24
 70
     0
102
RTVSPropertyOp25
 70
     0
102
RTVSPropertyOp26
 70
     0
102
RTVSPropertyOp27
 70
     0
102
RTVSPropertyOp28
 70
     0
102
RTVSPropertyOp29
 70
     0
102
RTVSPropertyOp30
 70
     0
102
RTVSPropertyOp31
 70
     0
102
RTVSPropertyOp32
 70
     0
102
RTVSPropertyOp33
 70
     0
102
RTVSPropertyOp34
 70
     0
102
RTVSPropertyOp35
 70
     0
102
RTVSPropertyOp36
 70
     0
102
RTVSPropertyOp37
 70
     0
102
RTVSPropertyOp38
 70
     0
102
RTVSPropertyOp39
 70
     0
102
RTVSPropertyOp40
 70
     0
102
RTVSPropertyOp41
 70
     0
102
RTVSPropertyOp42
 70
     0
102
RTVSPropertyOp43
 70
     0
102
RTVSPropertyOp44
 70
     0
102
RTVSPropertyOp45
 70
     0
102
RTVSPropertyOp46
 70
     0
102
RTVSPropertyOp47
 70
     0
102
RTVSPropertyOp48
 70
     0
102
RTVSPropertyOp49
 70
     0
102
RTVSPropertyOp50
 70
     0
102
RTVSPropertyOp51
 70
     0
102
RTVSPropertyOp52
 70
     0
102
RTVSPropertyOp53
 70
     0
102
RTVSPropertyOp54
 70
     0
102
RTVSPropertyOp55
 70
     0
102
RTVSPropertyOp56
 70
     0
102
RTVSPropertyOp57
 70
     0
102
RTVSPost2010Prop28
280
     0
102
RTVSPost2010PropOp28
 70
     0
102
RTVSPost2010Prop29
280
     1
102
RTVSPost2010PropOp29
 70
     0
102
RTVSPost2010Prop30
280
     1
102
RTVSPost2010PropOp30
 70
     0
102
RTVSPost2010Prop31
280
     0
102
RTVSPost2010PropOp31
 70
     0
102
RTVSPost2010Prop32
280
     0
102
RTVSPost2010PropOp32
 70
     0
102
RTVSPost2010Prop33
280
     0
102
RTVSPost2010PropOp33
 70
     0
102
RTVSPost2010Prop34
280
     0
102
RTVSPost2010PropOp34
 70
     0
102
RTVSPost2010Prop35
280
     0
102
RTVSPost2010PropOp35
 70
     0
102
RTVSPost2010Prop36
280
     0
102
RTVSPost2010PropOp36
 70
     0
102
RTVSPost2010Prop37
 90
       50
102
RTVSPost2010PropOp37
 70
     0
102
RTVSPost2010Prop38
140
0.0
102
RTVSPost2010PropOp38
 70
     0
102
RTVSPost2010Prop39
140
1.0
102
RTVSPost2010PropOp39
 70
     0
102
RTVSPost2010Prop40
 90
        0
102
RTVSPost2010PropOp40
 70
     0
102
RTVSPost2010Prop41ColorIndex
 90
       18
102
RTVSPost2010Prop41ColorRGB
 90
        0
102
RTVSPost2010PropOp41
 70
     0
102
RTVSPost2010Prop42
 90
       50
102
RTVSPost2010PropOp42
 70
     0
102
RTVSPost2010Prop43
 90
        3
102
RTVSPost2010PropOp43
 70
     0
102
RTVSPost2010Prop44ColorIndex
 90
        5
102
RTVSPost2010Prop44ColorRGB
 90
      255
102
RTVSPost2010PropOp44
 70
     0
102
RTVSPost2010Prop45
280
     0
102
RTVSPost2010PropOp45
 70
     0
102
RTVSPost2010Prop46
 90
       50
102
RTVSPost2010PropOp46
 70
     0
102
RTVSPost2010Prop47
 90
       50
102
RTVSPost2010PropOp47
 70
     0
102
RTVSPost2010Prop48
 90
       50
102
RTVSPost2010PropOp48
 70
     0
102
RTVSPost2010Prop49
280
     0
102
RTVSPost2010PropOp49
 70
     0
102
RTVSPost2010Prop50
 90
       50
102
RTVSPost2010PropOp50
 70
     0
102
RTVSPost2010Prop51ColorIndex
 90
      256
102
RTVSPost2010Prop51ColorRGB
 90
-16777216
102
RTVSPost2010PropOp51
 70
     0
102
RTVSPost2010Prop52
140
1.0
102
RTVSPost2010PropOp52
 70
     0
102
RTVSPost2010Prop53
 90
        2
102
RTVSPost2010PropOp53
 70
     0
102
RTVSPost2010Prop54
  1
strokes_ogs.tif
102
RTVSPost2010PropOp54
 70
     0
102
RTVSPost2010Prop55
280
     0
102
RTVSPost2010PropOp55
 70
     0
102
RTVSPost2010Prop56
140
1.0
102
RTVSPost2010PropOp56
 70
     0
102
RTVSPost2010Prop57
140
1.0
102
RTVSPost2010PropOp57
 70
     0
  0
XRECORD
  5
4F3
102
{ACAD_REACTORS
330
4F2
102
}
330
4F2
100
AcDbXrecord
280
     1
102
RTVSPropertyOp0
 70
     1
102
RTVSPropertyOp1
 70
     1
102
RTVSPropertyOp2
 70
     1
102
RTVSPropertyOp3
 70
     1
102
RTVSPropertyOp4
 70
     1
102
RTVSPropertyOp5
 70
     1
102
RTVSPropertyOp6
 70
     1
102
RTVSPropertyOp7
 70
     1
102
RTVSPropertyOp8
 70
     1
102
RTVSPropertyOp9
 70
     1
102
RTVSPropertyOp10
 70
     1
102
RTVSPropertyOp11
 70
     1
102
RTVSPropertyOp12
 70
     1
102
RTVSPropertyOp13
 70
     1
102
RTVSPropertyOp14
 70
     1
102
RTVSPropertyOp15
 70
     1
102
RTVSPropertyOp16
 70
     1
102
RTVSPropertyOp17
 70
     1
102
RTVSPropertyOp18
 70
     1
102
RTVSPropertyOp19
 70
     1
102
RTVSPropertyOp20
 70
     1
102
RTVSPropertyOp21
 70
     1
102
RTVSPropertyOp22
 70
     1
102
RTVSPropertyOp23
 70
     1
102
RTVSPropertyOp24
 70
     1
102
RTVSPropertyOp25
 70
     1
102
RTVSPropertyOp26
 70
     1
102
RTVSPropertyOp27
 70
     1
102
RTVSPropertyOp28
 70
     1
102
RTVSPropertyOp29
 70
     1
102
RTVSPropertyOp30
 70
     1
102
RTVSPropertyOp31
 70
     1
102
RTVSPropertyOp32
 70
     1
102
RTVSPropertyOp33
 70
     1
102
RTVSPropertyOp34
 70
     1
102
RTVSPropertyOp35
 70
     1
102
RTVSPropertyOp36
 70
     1
102
RTVSPropertyOp37
 70
     1
102
RTVSPropertyOp38
 70
     1
102
RTVSPropertyOp39
 70
     1
102
RTVSPropertyOp40
 70
     1
102
RTVSPropertyOp41
 70
     1
102
RTVSPropertyOp42
 70
     1
102
RTVSPropertyOp43
 70
     1
102
RTVSPropertyOp44
 70
     1
102
RTVSPropertyOp45
 70
     1
102
RTVSPropertyOp46
 70
     1
102
RTVSPropertyOp47
 70
     1
102
RTVSPropertyOp48
 70
     1
102
RTVSPropertyOp49
 70
     1
102
RTVSPropertyOp50
 70
     1
102
RTVSPropertyOp51
 70
     0
102
RTVSPropertyOp52
 70
     0
102
RTVSPropertyOp53
 70
     1
102
RTVSPropertyOp54
 70
     1
102
RTVSPropertyOp55
 70
     1
102
RTVSPropertyOp56
 70
     1
102
RTVSPropertyOp57
 70
     1
102
RTVSPost2010Prop28
280
     0
102
RTVSPost2010PropOp28
 70
     1
102
RTVSPost2010Prop29
280
     1
102
RTVSPost2010PropOp29
 70
     1
102
RTVSPost2010Prop30
280
     1
102
RTVSPost2010PropOp30
 70
     1
102
RTVSPost2010Prop31
280
     0
102
RTVSPost2010PropOp31
 70
     1
102
RTVSPost2010Prop32
280
     0
102
RTVSPost2010PropOp32
 70
     1
102
RTVSPost2010Prop33
280
     0
102
RTVSPost2010PropOp33
 70
     1
102
RTVSPost2010Prop34
280
     0
102
RTVSPost2010PropOp34
 70
     1
102
RTVSPost2010Prop35
280
     0
102
RTVSPost2010PropOp35
 70
     1
102
RTVSPost2010Prop36
280
     0
102
RTVSPost2010PropOp36
 70
     1
102
RTVSPost2010Prop37
 90
       50
102
RTVSPost2010PropOp37
 70
     1
102
RTVSPost2010Prop38
140
0.0
102
RTVSPost2010PropOp38
 70
     1
102
RTVSPost2010Prop39
140
1.0
102
RTVSPost2010PropOp39
 70
     1
102
RTVSPost2010Prop40
 90
        0
102
RTVSPost2010PropOp40
 70
     1
102
RTVSPost2010Prop41ColorIndex
 90
       18
102
RTVSPost2010Prop41ColorRGB
 90
        0
102
RTVSPost2010PropOp41
 70
     1
102
RTVSPost2010Prop42
 90
       50
102
RTVSPost2010PropOp42
 70
     1
102
RTVSPost2010Prop43
 90
        3
102
RTVSPost2010PropOp43
 70
     1
102
RTVSPost2010Prop44ColorIndex
 90
        5
102
RTVSPost2010Prop44ColorRGB
 90
      255
102
RTVSPost2010PropOp44
 70
     1
102
RTVSPost2010Prop45
280
     0
102
RTVSPost2010PropOp45
 70
     1
102
RTVSPost2010Prop46
 90
       50
102
RTVSPost2010PropOp46
 70
     1
102
RTVSPost2010Prop47
 90
       50
102
RTVSPost2010PropOp47
 70
     1
102
RTVSPost2010Prop48
 90
       50
102
RTVSPost2010PropOp48
 70
     1
102
RTVSPost2010Prop49
280
     0
102
RTVSPost2010PropOp49
 70
     1
102
RTVSPost2010Prop50
 90
       50
102
RTVSPost2010PropOp50
 70
     1
102
RTVSPost2010Prop51ColorIndex
 90
      256
102
RTVSPost2010Prop51ColorRGB
 90
-16777216
102
RTVSPost2010PropOp51
 70
     0
102
RTVSPost2010Prop52
140
1.0
102
RTVSPost2010PropOp52
 70
     0
102
RTVSPost2010Prop53
 90
        2
102
RTVSPost2010PropOp53
 70
     1
102
RTVSPost2010Prop54
  1
strokes_ogs.tif
102
RTVSPost2010PropOp54
 70
     1
102
RTVSPost2010Prop55
280
     0
102
RTVSPost2010PropOp55
 70
     1
102
RTVSPost2010Prop56
140
1.0
102
RTVSPost2010PropOp56
 70
     1
102
RTVSPost2010Prop57
140
1.0
102
RTVSPost2010PropOp57
 70
     1
  0
XRECORD
  5
4FB
102
{ACAD_REACTORS
330
4FA
102
}
330
4FA
100
AcDbXrecord
280
     1
102
RTVSPropertyOp0
 70
     0
102
RTVSPropertyOp1
 70
     0
102
RTVSPropertyOp2
 70
     0
102
RTVSPropertyOp3
 70
     0
102
RTVSPropertyOp4
 70
     0
102
RTVSPropertyOp5
 70
     0
102
RTVSPropertyOp6
 70
     0
102
RTVSPropertyOp7
 70
     0
102
RTVSPropertyOp8
 70
     0
102
RTVSPropertyOp9
 70
     0
102
RTVSPropertyOp10
 70
     0
102
RTVSPropertyOp11
 70
     0
102
RTVSPropertyOp12
 70
     0
102
RTVSPropertyOp13
 70
     0
102
RTVSPropertyOp14
 70
     2
102
RTVSPropertyOp15
 70
     0
102
RTVSPropertyOp16
 70
     0
102
RTVSPropertyOp17
 70
     0
102
RTVSPropertyOp18
 70
     0
102
RTVSPropertyOp19
 70
     0
102
RTVSPropertyOp20
 70
     0
102
RTVSPropertyOp21
 70
     0
102
RTVSPropertyOp22
 70
     0
102
RTVSPropertyOp23
 70
     0
102
RTVSPropertyOp24
 70
     0
102
RTVSPropertyOp25
 70
     0
102
RTVSPropertyOp26
 70
     0
102
RTVSPropertyOp27
 70
     0
102
RTVSPropertyOp28
 70
     0
102
RTVSPropertyOp29
 70
     0
102
RTVSPropertyOp30
 70
     0
102
RTVSPropertyOp31
 70
     0
102
RTVSPropertyOp32
 70
     0
102
RTVSPropertyOp33
 70
     0
102
RTVSPropertyOp34
 70
     0
102
RTVSPropertyOp35
 70
     0
102
RTVSPropertyOp36
 70
     0
102
RTVSPropertyOp37
 70
     0
102
RTVSPropertyOp38
 70
     0
102
RTVSPropertyOp39
 70
     0
102
RTVSPropertyOp40
 70
     0
102
RTVSPropertyOp41
 70
     0
102
RTVSPropertyOp42
 70
     0
102
RTVSPropertyOp43
 70
     0
102
RTVSPropertyOp44
 70
     0
102
RTVSPropertyOp45
 70
     0
102
RTVSPropertyOp46
 70
     0
102
RTVSPropertyOp47
 70
     0
102
RTVSPropertyOp48
 70
     0
102
RTVSPropertyOp49
 70
     0
102
RTVSPropertyOp50
 70
     0
102
RTVSPropertyOp51
 70
     0
102
RTVSPropertyOp52
 70
     0
102
RTVSPropertyOp53
 70
     0
102
RTVSPropertyOp54
 70
     0
102
RTVSPropertyOp55
 70
     0
102
RTVSPropertyOp56
 70
     0
102
RTVSPropertyOp57
 70
     0
102
RTVSPost2010Prop28
280
     0
102
RTVSPost2010PropOp28
 70
     0
102
RTVSPost2010Prop29
280
     1
102
RTVSPost2010PropOp29
 70
     0
102
RTVSPost2010Prop30
280
     1
102
RTVSPost2010PropOp30
 70
     0
102
RTVSPost2010Prop31
280
     0
102
RTVSPost2010PropOp31
 70
     0
102
RTVSPost2010Prop32
280
     0
102
RTVSPost2010PropOp32
 70
     0
102
RTVSPost2010Prop33
280
     0
102
RTVSPost2010PropOp33
 70
     0
102
RTVSPost2010Prop34
280
     0
102
RTVSPost2010PropOp34
 70
     0
102
RTVSPost2010Prop35
280
     0
102
RTVSPost2010PropOp35
 70
     0
102
RTVSPost2010Prop36
280
     0
102
RTVSPost2010PropOp36
 70
     0
102
RTVSPost2010Prop37
 90
       50
102
RTVSPost2010PropOp37
 70
     0
102
RTVSPost2010Prop38
140
0.0
102
RTVSPost2010PropOp38
 70
     0
102
RTVSPost2010Prop39
140
1.0
102
RTVSPost2010PropOp39
 70
     0
102
RTVSPost2010Prop40
 90
        0
102
RTVSPost2010PropOp40
 70
     0
102
RTVSPost2010Prop41ColorIndex
 90
       18
102
RTVSPost2010Prop41ColorRGB
 90
        0
102
RTVSPost2010PropOp41
 70
     0
102
RTVSPost2010Prop42
 90
       50
102
RTVSPost2010PropOp42
 70
     0
102
RTVSPost2010Prop43
 90
        3
102
RTVSPost2010PropOp43
 70
     0
102
RTVSPost2010Prop44ColorIndex
 90
        5
102
RTVSPost2010Prop44ColorRGB
 90
      255
102
RTVSPost2010PropOp44
 70
     0
102
RTVSPost2010Prop45
280
     0
102
RTVSPost2010PropOp45
 70
     0
102
RTVSPost2010Prop46
 90
       50
102
RTVSPost2010PropOp46
 70
     0
102
RTVSPost2010Prop47
 90
       50
102
RTVSPost2010PropOp47
 70
     0
102
RTVSPost2010Prop48
 90
       50
102
RTVSPost2010PropOp48
 70
     0
102
RTVSPost2010Prop49
280
     0
102
RTVSPost2010PropOp49
 70
     0
102
RTVSPost2010Prop50
 90
       50
102
RTVSPost2010PropOp50
 70
     0
102
RTVSPost2010Prop51ColorIndex
 90
      256
102
RTVSPost2010Prop51ColorRGB
 90
-16777216
102
RTVSPost2010PropOp51
 70
     0
102
RTVSPost2010Prop52
140
1.0
102
RTVSPost2010PropOp52
 70
     0
102
RTVSPost2010Prop53
 90
        2
102
RTVSPost2010PropOp53
 70
     0
102
RTVSPost2010Prop54
  1
strokes_ogs.tif
102
RTVSPost2010PropOp54
 70
     0
102
RTVSPost2010Prop55
280
     0
102
RTVSPost2010PropOp55
 70
     0
102
RTVSPost2010Prop56
140
1.0
102
RTVSPost2010PropOp56
 70
     0
102
RTVSPost2010Prop57
140
1.0
102
RTVSPost2010PropOp57
 70
     0
  0
XRECORD
  5
4E9
102
{ACAD_REACTORS
330
4E8
102
}
330
4E8
100
AcDbXrecord
280
     1
102
RTVSPropertyOp0
 70
     1
102
RTVSPropertyOp1
 70
     1
102
RTVSPropertyOp2
 70
     1
102
RTVSPropertyOp3
 70
     1
102
RTVSPropertyOp4
 70
     1
102
RTVSPropertyOp5
 70
     1
102
RTVSPropertyOp6
 70
     1
102
RTVSPropertyOp7
 70
     1
102
RTVSPropertyOp8
 70
     1
102
RTVSPropertyOp9
 70
     1
102
RTVSPropertyOp10
 70
     1
102
RTVSPropertyOp11
 70
     1
102
RTVSPropertyOp12
 70
     1
102
RTVSPropertyOp13
 70
     1
102
RTVSPropertyOp14
 70
     1
102
RTVSPropertyOp15
 70
     1
102
RTVSPropertyOp16
 70
     1
102
RTVSPropertyOp17
 70
     1
102
RTVSPropertyOp18
 70
     1
102
RTVSPropertyOp19
 70
     1
102
RTVSPropertyOp20
 70
     1
102
RTVSPropertyOp21
 70
     1
102
RTVSPropertyOp22
 70
     1
102
RTVSPropertyOp23
 70
     1
102
RTVSPropertyOp24
 70
     1
102
RTVSPropertyOp25
 70
     1
102
RTVSPropertyOp26
 70
     1
102
RTVSPropertyOp27
 70
     1
102
RTVSPropertyOp28
 70
     1
102
RTVSPropertyOp29
 70
     1
102
RTVSPropertyOp30
 70
     1
102
RTVSPropertyOp31
 70
     1
102
RTVSPropertyOp32
 70
     1
102
RTVSPropertyOp33
 70
     1
102
RTVSPropertyOp34
 70
     1
102
RTVSPropertyOp35
 70
     1
102
RTVSPropertyOp36
 70
     1
102
RTVSPropertyOp37
 70
     1
102
RTVSPropertyOp38
 70
     1
102
RTVSPropertyOp39
 70
     1
102
RTVSPropertyOp40
 70
     1
102
RTVSPropertyOp41
 70
     1
102
RTVSPropertyOp42
 70
     1
102
RTVSPropertyOp43
 70
     1
102
RTVSPropertyOp44
 70
     1
102
RTVSPropertyOp45
 70
     1
102
RTVSPropertyOp46
 70
     1
102
RTVSPropertyOp47
 70
     1
102
RTVSPropertyOp48
 70
     1
102
RTVSPropertyOp49
 70
     1
102
RTVSPropertyOp50
 70
     1
102
RTVSPropertyOp51
 70
     0
102
RTVSPropertyOp52
 70
     0
102
RTVSPropertyOp53
 70
     1
102
RTVSPropertyOp54
 70
     1
102
RTVSPropertyOp55
 70
     1
102
RTVSPropertyOp56
 70
     1
102
RTVSPropertyOp57
 70
     1
102
RTVSPost2010Prop28
280
     0
102
RTVSPost2010PropOp28
 70
     1
102
RTVSPost2010Prop29
280
     1
102
RTVSPost2010PropOp29
 70
     1
102
RTVSPost2010Prop30
280
     1
102
RTVSPost2010PropOp30
 70
     1
102
RTVSPost2010Prop31
280
     0
102
RTVSPost2010PropOp31
 70
     1
102
RTVSPost2010Prop32
280
     0
102
RTVSPost2010PropOp32
 70
     1
102
RTVSPost2010Prop33
280
     0
102
RTVSPost2010PropOp33
 70
     1
102
RTVSPost2010Prop34
280
     0
102
RTVSPost2010PropOp34
 70
     1
102
RTVSPost2010Prop35
280
     0
102
RTVSPost2010PropOp35
 70
     1
102
RTVSPost2010Prop36
280
     0
102
RTVSPost2010PropOp36
 70
     1
102
RTVSPost2010Prop37
 90
       50
102
RTVSPost2010PropOp37
 70
     1
102
RTVSPost2010Prop38
140
0.0
102
RTVSPost2010PropOp38
 70
     1
102
RTVSPost2010Prop39
140
1.0
102
RTVSPost2010PropOp39
 70
     1
102
RTVSPost2010Prop40
 90
        0
102
RTVSPost2010PropOp40
 70
     1
102
RTVSPost2010Prop41ColorIndex
 90
       18
102
RTVSPost2010Prop41ColorRGB
 90
        0
102
RTVSPost2010PropOp41
 70
     1
102
RTVSPost2010Prop42
 90
       50
102
RTVSPost2010PropOp42
 70
     1
102
RTVSPost2010Prop43
 90
        3
102
RTVSPost2010PropOp43
 70
     1
102
RTVSPost2010Prop44ColorIndex
 90
        5
102
RTVSPost2010Prop44ColorRGB
 90
      255
102
RTVSPost2010PropOp44
 70
     1
102
RTVSPost2010Prop45
280
     0
102
RTVSPost2010PropOp45
 70
     1
102
RTVSPost2010Prop46
 90
       50
102
RTVSPost2010PropOp46
 70
     1
102
RTVSPost2010Prop47
 90
       50
102
RTVSPost2010PropOp47
 70
     1
102
RTVSPost2010Prop48
 90
       50
102
RTVSPost2010PropOp48
 70
     1
102
RTVSPost2010Prop49
280
     0
102
RTVSPost2010PropOp49
 70
     1
102
RTVSPost2010Prop50
 90
       50
102
RTVSPost2010PropOp50
 70
     1
102
RTVSPost2010Prop51ColorIndex
 90
      256
102
RTVSPost2010Prop51ColorRGB
 90
-16777216
102
RTVSPost2010PropOp51
 70
     0
102
RTVSPost2010Prop52
140
1.0
102
RTVSPost2010PropOp52
 70
     0
102
RTVSPost2010Prop53
 90
        2
102
RTVSPost2010PropOp53
 70
     1
102
RTVSPost2010Prop54
  1
strokes_ogs.tif
102
RTVSPost2010PropOp54
 70
     1
102
RTVSPost2010Prop55
280
     0
102
RTVSPost2010PropOp55
 70
     1
102
RTVSPost2010Prop56
140
1.0
102
RTVSPost2010PropOp56
 70
     1
102
RTVSPost2010Prop57
140
1.0
102
RTVSPost2010PropOp57
 70
     1
  0
XRECORD
  5
507
102
{ACAD_REACTORS
330
506
102
}
330
506
100
AcDbXrecord
280
     1
102
RTVSPropertyOp0
 70
     1
102
RTVSPropertyOp1
 70
     1
102
RTVSPropertyOp2
 70
     1
102
RTVSPropertyOp3
 70
     1
102
RTVSPropertyOp4
 70
     1
102
RTVSPropertyOp5
 70
     1
102
RTVSPropertyOp6
 70
     1
102
RTVSPropertyOp7
 70
     1
102
RTVSPropertyOp8
 70
     1
102
RTVSPropertyOp9
 70
     1
102
RTVSPropertyOp10
 70
     1
102
RTVSPropertyOp11
 70
     1
102
RTVSPropertyOp12
 70
     1
102
RTVSPropertyOp13
 70
     1
102
RTVSPropertyOp14
 70
     1
102
RTVSPropertyOp15
 70
     1
102
RTVSPropertyOp16
 70
     1
102
RTVSPropertyOp17
 70
     1
102
RTVSPropertyOp18
 70
     1
102
RTVSPropertyOp19
 70
     1
102
RTVSPropertyOp20
 70
     1
102
RTVSPropertyOp21
 70
     1
102
RTVSPropertyOp22
 70
     1
102
RTVSPropertyOp23
 70
     1
102
RTVSPropertyOp24
 70
     1
102
RTVSPropertyOp25
 70
     1
102
RTVSPropertyOp26
 70
     1
102
RTVSPropertyOp27
 70
     1
102
RTVSPropertyOp28
 70
     1
102
RTVSPropertyOp29
 70
     1
102
RTVSPropertyOp30
 70
     1
102
RTVSPropertyOp31
 70
     1
102
RTVSPropertyOp32
 70
     1
102
RTVSPropertyOp33
 70
     1
102
RTVSPropertyOp34
 70
     1
102
RTVSPropertyOp35
 70
     1
102
RTVSPropertyOp36
 70
     1
102
RTVSPropertyOp37
 70
     1
102
RTVSPropertyOp38
 70
     1
102
RTVSPropertyOp39
 70
     1
102
RTVSPropertyOp40
 70
     1
102
RTVSPropertyOp41
 70
     1
102
RTVSPropertyOp42
 70
     1
102
RTVSPropertyOp43
 70
     1
102
RTVSPropertyOp44
 70
     1
102
RTVSPropertyOp45
 70
     1
102
RTVSPropertyOp46
 70
     1
102
RTVSPropertyOp47
 70
     1
102
RTVSPropertyOp48
 70
     1
102
RTVSPropertyOp49
 70
     1
102
RTVSPropertyOp50
 70
     1
102
RTVSPropertyOp51
 70
     0
102
RTVSPropertyOp52
 70
     0
102
RTVSPropertyOp53
 70
     1
102
RTVSPropertyOp54
 70
     1
102
RTVSPropertyOp55
 70
     1
102
RTVSPropertyOp56
 70
     1
102
RTVSPropertyOp57
 70
     1
102
RTVSPost2010Prop28
280
     0
102
RTVSPost2010PropOp28
 70
     1
102
RTVSPost2010Prop29
280
     1
102
RTVSPost2010PropOp29
 70
     1
102
RTVSPost2010Prop30
280
     1
102
RTVSPost2010PropOp30
 70
     1
102
RTVSPost2010Prop31
280
     0
102
RTVSPost2010PropOp31
 70
     1
102
RTVSPost2010Prop32
280
     0
102
RTVSPost2010PropOp32
 70
     1
102
RTVSPost2010Prop33
280
     0
102
RTVSPost2010PropOp33
 70
     1
102
RTVSPost2010Prop34
280
     0
102
RTVSPost2010PropOp34
 70
     1
102
RTVSPost2010Prop35
280
     0
102
RTVSPost2010PropOp35
 70
     1
102
RTVSPost2010Prop36
280
     0
102
RTVSPost2010PropOp36
 70
     1
102
RTVSPost2010Prop37
 90
       50
102
RTVSPost2010PropOp37
 70
     1
102
RTVSPost2010Prop38
140
0.0
102
RTVSPost2010PropOp38
 70
     1
102
RTVSPost2010Prop39
140
1.0
102
RTVSPost2010PropOp39
 70
     1
102
RTVSPost2010Prop40
 90
        0
102
RTVSPost2010PropOp40
 70
     1
102
RTVSPost2010Prop41ColorIndex
 90
       18
102
RTVSPost2010Prop41ColorRGB
 90
        0
102
RTVSPost2010PropOp41
 70
     1
102
RTVSPost2010Prop42
 90
       50
102
RTVSPost2010PropOp42
 70
     1
102
RTVSPost2010Prop43
 90
        3
102
RTVSPost2010PropOp43
 70
     1
102
RTVSPost2010Prop44ColorIndex
 90
        5
102
RTVSPost2010Prop44ColorRGB
 90
      255
102
RTVSPost2010PropOp44
 70
     1
102
RTVSPost2010Prop45
280
     0
102
RTVSPost2010PropOp45
 70
     1
102
RTVSPost2010Prop46
 90
       50
102
RTVSPost2010PropOp46
 70
     1
102
RTVSPost2010Prop47
 90
       50
102
RTVSPost2010PropOp47
 70
     1
102
RTVSPost2010Prop48
 90
       50
102
RTVSPost2010PropOp48
 70
     1
102
RTVSPost2010Prop49
280
     0
102
RTVSPost2010PropOp49
 70
     1
102
RTVSPost2010Prop50
 90
       50
102
RTVSPost2010PropOp50
 70
     1
102
RTVSPost2010Prop51ColorIndex
 90
      256
102
RTVSPost2010Prop51ColorRGB
 90
-16777216
102
RTVSPost2010PropOp51
 70
     0
102
RTVSPost2010Prop52
140
1.0
102
RTVSPost2010PropOp52
 70
     0
102
RTVSPost2010Prop53
 90
        2
102
RTVSPost2010PropOp53
 70
     1
102
RTVSPost2010Prop54
  1
strokes_ogs.tif
102
RTVSPost2010PropOp54
 70
     1
102
RTVSPost2010Prop55
280
     0
102
RTVSPost2010PropOp55
 70
     1
102
RTVSPost2010Prop56
140
1.0
102
RTVSPost2010PropOp56
 70
     1
102
RTVSPost2010Prop57
140
1.0
102
RTVSPost2010PropOp57
 70
     1
  0
XRECORD
  5
505
102
{ACAD_REACTORS
330
504
102
}
330
504
100
AcDbXrecord
280
     1
102
RTVSPropertyOp0
 70
     1
102
RTVSPropertyOp1
 70
     1
102
RTVSPropertyOp2
 70
     1
102
RTVSPropertyOp3
 70
     1
102
RTVSPropertyOp4
 70
     1
102
RTVSPropertyOp5
 70
     1
102
RTVSPropertyOp6
 70
     1
102
RTVSPropertyOp7
 70
     1
102
RTVSPropertyOp8
 70
     1
102
RTVSPropertyOp9
 70
     1
102
RTVSPropertyOp10
 70
     1
102
RTVSPropertyOp11
 70
     1
102
RTVSPropertyOp12
 70
     1
102
RTVSPropertyOp13
 70
     1
102
RTVSPropertyOp14
 70
     1
102
RTVSPropertyOp15
 70
     1
102
RTVSPropertyOp16
 70
     1
102
RTVSPropertyOp17
 70
     1
102
RTVSPropertyOp18
 70
     1
102
RTVSPropertyOp19
 70
     1
102
RTVSPropertyOp20
 70
     1
102
RTVSPropertyOp21
 70
     1
102
RTVSPropertyOp22
 70
     1
102
RTVSPropertyOp23
 70
     1
102
RTVSPropertyOp24
 70
     1
102
RTVSPropertyOp25
 70
     1
102
RTVSPropertyOp26
 70
     1
102
RTVSPropertyOp27
 70
     1
102
RTVSPropertyOp28
 70
     1
102
RTVSPropertyOp29
 70
     1
102
RTVSPropertyOp30
 70
     1
102
RTVSPropertyOp31
 70
     1
102
RTVSPropertyOp32
 70
     1
102
RTVSPropertyOp33
 70
     1
102
RTVSPropertyOp34
 70
     1
102
RTVSPropertyOp35
 70
     1
102
RTVSPropertyOp36
 70
     1
102
RTVSPropertyOp37
 70
     1
102
RTVSPropertyOp38
 70
     1
102
RTVSPropertyOp39
 70
     1
102
RTVSPropertyOp40
 70
     1
102
RTVSPropertyOp41
 70
     1
102
RTVSPropertyOp42
 70
     1
102
RTVSPropertyOp43
 70
     1
102
RTVSPropertyOp44
 70
     1
102
RTVSPropertyOp45
 70
     1
102
RTVSPropertyOp46
 70
     1
102
RTVSPropertyOp47
 70
     1
102
RTVSPropertyOp48
 70
     1
102
RTVSPropertyOp49
 70
     1
102
RTVSPropertyOp50
 70
     1
102
RTVSPropertyOp51
 70
     0
102
RTVSPropertyOp52
 70
     0
102
RTVSPropertyOp53
 70
     1
102
RTVSPropertyOp54
 70
     1
102
RTVSPropertyOp55
 70
     1
102
RTVSPropertyOp56
 70
     1
102
RTVSPropertyOp57
 70
     1
102
RTVSPost2010Prop28
280
     0
102
RTVSPost2010PropOp28
 70
     1
102
RTVSPost2010Prop29
280
     1
102
RTVSPost2010PropOp29
 70
     1
102
RTVSPost2010Prop30
280
     1
102
RTVSPost2010PropOp30
 70
     1
102
RTVSPost2010Prop31
280
     0
102
RTVSPost2010PropOp31
 70
     1
102
RTVSPost2010Prop32
280
     0
102
RTVSPost2010PropOp32
 70
     1
102
RTVSPost2010Prop33
280
     0
102
RTVSPost2010PropOp33
 70
     1
102
RTVSPost2010Prop34
280
     0
102
RTVSPost2010PropOp34
 70
     1
102
RTVSPost2010Prop35
280
     0
102
RTVSPost2010PropOp35
 70
     1
102
RTVSPost2010Prop36
280
     0
102
RTVSPost2010PropOp36
 70
     1
102
RTVSPost2010Prop37
 90
       50
102
RTVSPost2010PropOp37
 70
     1
102
RTVSPost2010Prop38
140
0.0
102
RTVSPost2010PropOp38
 70
     1
102
RTVSPost2010Prop39
140
1.0
102
RTVSPost2010PropOp39
 70
     1
102
RTVSPost2010Prop40
 90
        0
102
RTVSPost2010PropOp40
 70
     1
102
RTVSPost2010Prop41ColorIndex
 90
       18
102
RTVSPost2010Prop41ColorRGB
 90
        0
102
RTVSPost2010PropOp41
 70
     1
102
RTVSPost2010Prop42
 90
       50
102
RTVSPost2010PropOp42
 70
     1
102
RTVSPost2010Prop43
 90
        3
102
RTVSPost2010PropOp43
 70
     1
102
RTVSPost2010Prop44ColorIndex
 90
        5
102
RTVSPost2010Prop44ColorRGB
 90
      255
102
RTVSPost2010PropOp44
 70
     1
102
RTVSPost2010Prop45
280
     0
102
RTVSPost2010PropOp45
 70
     1
102
RTVSPost2010Prop46
 90
       50
102
RTVSPost2010PropOp46
 70
     1
102
RTVSPost2010Prop47
 90
       50
102
RTVSPost2010PropOp47
 70
     1
102
RTVSPost2010Prop48
 90
       50
102
RTVSPost2010PropOp48
 70
     1
102
RTVSPost2010Prop49
280
     0
102
RTVSPost2010PropOp49
 70
     1
102
RTVSPost2010Prop50
 90
       50
102
RTVSPost2010PropOp50
 70
     1
102
RTVSPost2010Prop51ColorIndex
 90
      256
102
RTVSPost2010Prop51ColorRGB
 90
-16777216
102
RTVSPost2010PropOp51
 70
     0
102
RTVSPost2010Prop52
140
1.0
102
RTVSPost2010PropOp52
 70
     0
102
RTVSPost2010Prop53
 90
        2
102
RTVSPost2010PropOp53
 70
     1
102
RTVSPost2010Prop54
  1
strokes_ogs.tif
102
RTVSPost2010PropOp54
 70
     1
102
RTVSPost2010Prop55
280
     0
102
RTVSPost2010PropOp55
 70
     1
102
RTVSPost2010Prop56
140
1.0
102
RTVSPost2010PropOp56
 70
     1
102
RTVSPost2010Prop57
140
1.0
102
RTVSPost2010PropOp57
 70
     1
  0
XRECORD
  5
4FF
102
{ACAD_REACTORS
330
4FE
102
}
330
4FE
100
AcDbXrecord
280
     1
102
RTVSPropertyOp0
 70
     1
102
RTVSPropertyOp1
 70
     1
102
RTVSPropertyOp2
 70
     1
102
RTVSPropertyOp3
 70
     1
102
RTVSPropertyOp4
 70
     1
102
RTVSPropertyOp5
 70
     1
102
RTVSPropertyOp6
 70
     1
102
RTVSPropertyOp7
 70
     1
102
RTVSPropertyOp8
 70
     1
102
RTVSPropertyOp9
 70
     1
102
RTVSPropertyOp10
 70
     1
102
RTVSPropertyOp11
 70
     1
102
RTVSPropertyOp12
 70
     1
102
RTVSPropertyOp13
 70
     1
102
RTVSPropertyOp14
 70
     1
102
RTVSPropertyOp15
 70
     1
102
RTVSPropertyOp16
 70
     1
102
RTVSPropertyOp17
 70
     1
102
RTVSPropertyOp18
 70
     1
102
RTVSPropertyOp19
 70
     1
102
RTVSPropertyOp20
 70
     1
102
RTVSPropertyOp21
 70
     1
102
RTVSPropertyOp22
 70
     1
102
RTVSPropertyOp23
 70
     1
102
RTVSPropertyOp24
 70
     1
102
RTVSPropertyOp25
 70
     1
102
RTVSPropertyOp26
 70
     1
102
RTVSPropertyOp27
 70
     1
102
RTVSPropertyOp28
 70
     1
102
RTVSPropertyOp29
 70
     1
102
RTVSPropertyOp30
 70
     1
102
RTVSPropertyOp31
 70
     1
102
RTVSPropertyOp32
 70
     1
102
RTVSPropertyOp33
 70
     1
102
RTVSPropertyOp34
 70
     1
102
RTVSPropertyOp35
 70
     1
102
RTVSPropertyOp36
 70
     1
102
RTVSPropertyOp37
 70
     1
102
RTVSPropertyOp38
 70
     1
102
RTVSPropertyOp39
 70
     1
102
RTVSPropertyOp40
 70
     1
102
RTVSPropertyOp41
 70
     1
102
RTVSPropertyOp42
 70
     1
102
RTVSPropertyOp43
 70
     1
102
RTVSPropertyOp44
 70
     1
102
RTVSPropertyOp45
 70
     1
102
RTVSPropertyOp46
 70
     1
102
RTVSPropertyOp47
 70
     1
102
RTVSPropertyOp48
 70
     1
102
RTVSPropertyOp49
 70
     1
102
RTVSPropertyOp50
 70
     1
102
RTVSPropertyOp51
 70
     0
102
RTVSPropertyOp52
 70
     0
102
RTVSPropertyOp53
 70
     1
102
RTVSPropertyOp54
 70
     1
102
RTVSPropertyOp55
 70
     1
102
RTVSPropertyOp56
 70
     1
102
RTVSPropertyOp57
 70
     1
102
RTVSPost2010Prop28
280
     0
102
RTVSPost2010PropOp28
 70
     1
102
RTVSPost2010Prop29
280
     1
102
RTVSPost2010PropOp29
 70
     1
102
RTVSPost2010Prop30
280
     1
102
RTVSPost2010PropOp30
 70
     1
102
RTVSPost2010Prop31
280
     0
102
RTVSPost2010PropOp31
 70
     1
102
RTVSPost2010Prop32
280
     0
102
RTVSPost2010PropOp32
 70
     1
102
RTVSPost2010Prop33
280
     0
102
RTVSPost2010PropOp33
 70
     1
102
RTVSPost2010Prop34
280
     0
102
RTVSPost2010PropOp34
 70
     1
102
RTVSPost2010Prop35
280
     0
102
RTVSPost2010PropOp35
 70
     1
102
RTVSPost2010Prop36
280
     0
102
RTVSPost2010PropOp36
 70
     1
102
RTVSPost2010Prop37
 90
       50
102
RTVSPost2010PropOp37
 70
     1
102
RTVSPost2010Prop38
140
0.0
102
RTVSPost2010PropOp38
 70
     1
102
RTVSPost2010Prop39
140
1.0
102
RTVSPost2010PropOp39
 70
     1
102
RTVSPost2010Prop40
 90
        0
102
RTVSPost2010PropOp40
 70
     1
102
RTVSPost2010Prop41ColorIndex
 90
       18
102
RTVSPost2010Prop41ColorRGB
 90
        0
102
RTVSPost2010PropOp41
 70
     1
102
RTVSPost2010Prop42
 90
       50
102
RTVSPost2010PropOp42
 70
     1
102
RTVSPost2010Prop43
 90
        3
102
RTVSPost2010PropOp43
 70
     1
102
RTVSPost2010Prop44ColorIndex
 90
        5
102
RTVSPost2010Prop44ColorRGB
 90
      255
102
RTVSPost2010PropOp44
 70
     1
102
RTVSPost2010Prop45
280
     0
102
RTVSPost2010PropOp45
 70
     1
102
RTVSPost2010Prop46
 90
       50
102
RTVSPost2010PropOp46
 70
     1
102
RTVSPost2010Prop47
 90
       50
102
RTVSPost2010PropOp47
 70
     1
102
RTVSPost2010Prop48
 90
       50
102
RTVSPost2010PropOp48
 70
     1
102
RTVSPost2010Prop49
280
     0
102
RTVSPost2010PropOp49
 70
     1
102
RTVSPost2010Prop50
 90
       50
102
RTVSPost2010PropOp50
 70
     1
102
RTVSPost2010Prop51ColorIndex
 90
      256
102
RTVSPost2010Prop51ColorRGB
 90
-16777216
102
RTVSPost2010PropOp51
 70
     0
102
RTVSPost2010Prop52
140
1.0
102
RTVSPost2010PropOp52
 70
     0
102
RTVSPost2010Prop53
 90
        2
102
RTVSPost2010PropOp53
 70
     1
102
RTVSPost2010Prop54
  1
strokes_ogs.tif
102
RTVSPost2010PropOp54
 70
     1
102
RTVSPost2010Prop55
280
     0
102
RTVSPost2010PropOp55
 70
     1
102
RTVSPost2010Prop56
140
1.0
102
RTVSPost2010PropOp56
 70
     1
102
RTVSPost2010Prop57
140
1.0
102
RTVSPost2010PropOp57
 70
     1
  0
XRECORD
  5
501
102
{ACAD_REACTORS
330
500
102
}
330
500
100
AcDbXrecord
280
     1
102
RTVSPropertyOp0
 70
     1
102
RTVSPropertyOp1
 70
     1
102
RTVSPropertyOp2
 70
     1
102
RTVSPropertyOp3
 70
     1
102
RTVSPropertyOp4
 70
     1
102
RTVSPropertyOp5
 70
     1
102
RTVSPropertyOp6
 70
     1
102
RTVSPropertyOp7
 70
     1
102
RTVSPropertyOp8
 70
     1
102
RTVSPropertyOp9
 70
     1
102
RTVSPropertyOp10
 70
     1
102
RTVSPropertyOp11
 70
     1
102
RTVSPropertyOp12
 70
     1
102
RTVSPropertyOp13
 70
     1
102
RTVSPropertyOp14
 70
     1
102
RTVSPropertyOp15
 70
     1
102
RTVSPropertyOp16
 70
     1
102
RTVSPropertyOp17
 70
     1
102
RTVSPropertyOp18
 70
     1
102
RTVSPropertyOp19
 70
     1
102
RTVSPropertyOp20
 70
     1
102
RTVSPropertyOp21
 70
     1
102
RTVSPropertyOp22
 70
     1
102
RTVSPropertyOp23
 70
     1
102
RTVSPropertyOp24
 70
     1
102
RTVSPropertyOp25
 70
     1
102
RTVSPropertyOp26
 70
     1
102
RTVSPropertyOp27
 70
     1
102
RTVSPropertyOp28
 70
     1
102
RTVSPropertyOp29
 70
     1
102
RTVSPropertyOp30
 70
     1
102
RTVSPropertyOp31
 70
     1
102
RTVSPropertyOp32
 70
     1
102
RTVSPropertyOp33
 70
     1
102
RTVSPropertyOp34
 70
     1
102
RTVSPropertyOp35
 70
     1
102
RTVSPropertyOp36
 70
     1
102
RTVSPropertyOp37
 70
     1
102
RTVSPropertyOp38
 70
     1
102
RTVSPropertyOp39
 70
     1
102
RTVSPropertyOp40
 70
     1
102
RTVSPropertyOp41
 70
     1
102
RTVSPropertyOp42
 70
     1
102
RTVSPropertyOp43
 70
     1
102
RTVSPropertyOp44
 70
     1
102
RTVSPropertyOp45
 70
     1
102
RTVSPropertyOp46
 70
     1
102
RTVSPropertyOp47
 70
     1
102
RTVSPropertyOp48
 70
     1
102
RTVSPropertyOp49
 70
     1
102
RTVSPropertyOp50
 70
     1
102
RTVSPropertyOp51
 70
     0
102
RTVSPropertyOp52
 70
     0
102
RTVSPropertyOp53
 70
     1
102
RTVSPropertyOp54
 70
     1
102
RTVSPropertyOp55
 70
     1
102
RTVSPropertyOp56
 70
     1
102
RTVSPropertyOp57
 70
     1
102
RTVSPost2010Prop28
280
     0
102
RTVSPost2010PropOp28
 70
     1
102
RTVSPost2010Prop29
280
     1
102
RTVSPost2010PropOp29
 70
     1
102
RTVSPost2010Prop30
280
     1
102
RTVSPost2010PropOp30
 70
     1
102
RTVSPost2010Prop31
280
     0
102
RTVSPost2010PropOp31
 70
     1
102
RTVSPost2010Prop32
280
     0
102
RTVSPost2010PropOp32
 70
     1
102
RTVSPost2010Prop33
280
     0
102
RTVSPost2010PropOp33
 70
     1
102
RTVSPost2010Prop34
280
     0
102
RTVSPost2010PropOp34
 70
     1
102
RTVSPost2010Prop35
280
     0
102
RTVSPost2010PropOp35
 70
     1
102
RTVSPost2010Prop36
280
     0
102
RTVSPost2010PropOp36
 70
     1
102
RTVSPost2010Prop37
 90
       50
102
RTVSPost2010PropOp37
 70
     1
102
RTVSPost2010Prop38
140
0.0
102
RTVSPost2010PropOp38
 70
     1
102
RTVSPost2010Prop39
140
1.0
102
RTVSPost2010PropOp39
 70
     1
102
RTVSPost2010Prop40
 90
        0
102
RTVSPost2010PropOp40
 70
     1
102
RTVSPost2010Prop41ColorIndex
 90
       18
102
RTVSPost2010Prop41ColorRGB
 90
        0
102
RTVSPost2010PropOp41
 70
     1
102
RTVSPost2010Prop42
 90
       50
102
RTVSPost2010PropOp42
 70
     1
102
RTVSPost2010Prop43
 90
        3
102
RTVSPost2010PropOp43
 70
     1
102
RTVSPost2010Prop44ColorIndex
 90
        5
102
RTVSPost2010Prop44ColorRGB
 90
      255
102
RTVSPost2010PropOp44
 70
     1
102
RTVSPost2010Prop45
280
     0
102
RTVSPost2010PropOp45
 70
     1
102
RTVSPost2010Prop46
 90
       50
102
RTVSPost2010PropOp46
 70
     1
102
RTVSPost2010Prop47
 90
       50
102
RTVSPost2010PropOp47
 70
     1
102
RTVSPost2010Prop48
 90
       50
102
RTVSPost2010PropOp48
 70
     1
102
RTVSPost2010Prop49
280
     0
102
RTVSPost2010PropOp49
 70
     1
102
RTVSPost2010Prop50
 90
       50
102
RTVSPost2010PropOp50
 70
     1
102
RTVSPost2010Prop51ColorIndex
 90
      256
102
RTVSPost2010Prop51ColorRGB
 90
-16777216
102
RTVSPost2010PropOp51
 70
     0
102
RTVSPost2010Prop52
140
1.0
102
RTVSPost2010PropOp52
 70
     0
102
RTVSPost2010Prop53
 90
        2
102
RTVSPost2010PropOp53
 70
     1
102
RTVSPost2010Prop54
  1
strokes_ogs.tif
102
RTVSPost2010PropOp54
 70
     1
102
RTVSPost2010Prop55
280
     0
102
RTVSPost2010PropOp55
 70
     1
102
RTVSPost2010Prop56
140
1.0
102
RTVSPost2010PropOp56
 70
     1
102
RTVSPost2010Prop57
140
1.0
102
RTVSPost2010PropOp57
 70
     1
  0
XRECORD
  5
4F1
102
{ACAD_REACTORS
330
4F0
102
}
330
4F0
100
AcDbXrecord
280
     1
102
RTVSPropertyOp0
 70
     1
102
RTVSPropertyOp1
 70
     1
102
RTVSPropertyOp2
 70
     1
102
RTVSPropertyOp3
 70
     1
102
RTVSPropertyOp4
 70
     1
102
RTVSPropertyOp5
 70
     1
102
RTVSPropertyOp6
 70
     1
102
RTVSPropertyOp7
 70
     1
102
RTVSPropertyOp8
 70
     1
102
RTVSPropertyOp9
 70
     1
102
RTVSPropertyOp10
 70
     1
102
RTVSPropertyOp11
 70
     1
102
RTVSPropertyOp12
 70
     1
102
RTVSPropertyOp13
 70
     1
102
RTVSPropertyOp14
 70
     1
102
RTVSPropertyOp15
 70
     1
102
RTVSPropertyOp16
 70
     1
102
RTVSPropertyOp17
 70
     1
102
RTVSPropertyOp18
 70
     1
102
RTVSPropertyOp19
 70
     1
102
RTVSPropertyOp20
 70
     1
102
RTVSPropertyOp21
 70
     1
102
RTVSPropertyOp22
 70
     1
102
RTVSPropertyOp23
 70
     1
102
RTVSPropertyOp24
 70
     1
102
RTVSPropertyOp25
 70
     1
102
RTVSPropertyOp26
 70
     1
102
RTVSPropertyOp27
 70
     1
102
RTVSPropertyOp28
 70
     1
102
RTVSPropertyOp29
 70
     1
102
RTVSPropertyOp30
 70
     1
102
RTVSPropertyOp31
 70
     1
102
RTVSPropertyOp32
 70
     1
102
RTVSPropertyOp33
 70
     1
102
RTVSPropertyOp34
 70
     1
102
RTVSPropertyOp35
 70
     1
102
RTVSPropertyOp36
 70
     1
102
RTVSPropertyOp37
 70
     1
102
RTVSPropertyOp38
 70
     1
102
RTVSPropertyOp39
 70
     1
102
RTVSPropertyOp40
 70
     1
102
RTVSPropertyOp41
 70
     1
102
RTVSPropertyOp42
 70
     1
102
RTVSPropertyOp43
 70
     1
102
RTVSPropertyOp44
 70
     1
102
RTVSPropertyOp45
 70
     1
102
RTVSPropertyOp46
 70
     1
102
RTVSPropertyOp47
 70
     1
102
RTVSPropertyOp48
 70
     1
102
RTVSPropertyOp49
 70
     1
102
RTVSPropertyOp50
 70
     1
102
RTVSPropertyOp51
 70
     0
102
RTVSPropertyOp52
 70
     0
102
RTVSPropertyOp53
 70
     1
102
RTVSPropertyOp54
 70
     1
102
RTVSPropertyOp55
 70
     1
102
RTVSPropertyOp56
 70
     1
102
RTVSPropertyOp57
 70
     1
102
RTVSPost2010Prop28
280
     0
102
RTVSPost2010PropOp28
 70
     1
102
RTVSPost2010Prop29
280
     1
102
RTVSPost2010PropOp29
 70
     1
102
RTVSPost2010Prop30
280
     1
102
RTVSPost2010PropOp30
 70
     1
102
RTVSPost2010Prop31
280
     0
102
RTVSPost2010PropOp31
 70
     1
102
RTVSPost2010Prop32
280
     0
102
RTVSPost2010PropOp32
 70
     1
102
RTVSPost2010Prop33
280
     0
102
RTVSPost2010PropOp33
 70
     1
102
RTVSPost2010Prop34
280
     0
102
RTVSPost2010PropOp34
 70
     1
102
RTVSPost2010Prop35
280
     0
102
RTVSPost2010PropOp35
 70
     1
102
RTVSPost2010Prop36
280
     0
102
RTVSPost2010PropOp36
 70
     1
102
RTVSPost2010Prop37
 90
       50
102
RTVSPost2010PropOp37
 70
     1
102
RTVSPost2010Prop38
140
0.0
102
RTVSPost2010PropOp38
 70
     1
102
RTVSPost2010Prop39
140
1.0
102
RTVSPost2010PropOp39
 70
     1
102
RTVSPost2010Prop40
 90
        0
102
RTVSPost2010PropOp40
 70
     1
102
RTVSPost2010Prop41ColorIndex
 90
       18
102
RTVSPost2010Prop41ColorRGB
 90
        0
102
RTVSPost2010PropOp41
 70
     1
102
RTVSPost2010Prop42
 90
       50
102
RTVSPost2010PropOp42
 70
     1
102
RTVSPost2010Prop43
 90
        3
102
RTVSPost2010PropOp43
 70
     1
102
RTVSPost2010Prop44ColorIndex
 90
        5
102
RTVSPost2010Prop44ColorRGB
 90
      255
102
RTVSPost2010PropOp44
 70
     1
102
RTVSPost2010Prop45
280
     0
102
RTVSPost2010PropOp45
 70
     1
102
RTVSPost2010Prop46
 90
       50
102
RTVSPost2010PropOp46
 70
     1
102
RTVSPost2010Prop47
 90
       50
102
RTVSPost2010PropOp47
 70
     1
102
RTVSPost2010Prop48
 90
       50
102
RTVSPost2010PropOp48
 70
     1
102
RTVSPost2010Prop49
280
     0
102
RTVSPost2010PropOp49
 70
     1
102
RTVSPost2010Prop50
 90
       50
102
RTVSPost2010PropOp50
 70
     1
102
RTVSPost2010Prop51ColorIndex
 90
      256
102
RTVSPost2010Prop51ColorRGB
 90
-16777216
102
RTVSPost2010PropOp51
 70
     0
102
RTVSPost2010Prop52
140
1.0
102
RTVSPost2010PropOp52
 70
     0
102
RTVSPost2010Prop53
 90
        2
102
RTVSPost2010PropOp53
 70
     1
102
RTVSPost2010Prop54
  1
strokes_ogs.tif
102
RTVSPost2010PropOp54
 70
     1
102
RTVSPost2010Prop55
280
     0
102
RTVSPost2010PropOp55
 70
     1
102
RTVSPost2010Prop56
140
1.0
102
RTVSPost2010PropOp56
 70
     1
102
RTVSPost2010Prop57
140
1.0
102
RTVSPost2010PropOp57
 70
     1
  0
XRECORD
  5
4E3
102
{ACAD_REACTORS
330
4E2
102
}
330
4E2
100
AcDbXrecord
280
     1
102
RTVSPropertyOp0
 70
     1
102
RTVSPropertyOp1
 70
     1
102
RTVSPropertyOp2
 70
     1
102
RTVSPropertyOp3
 70
     1
102
RTVSPropertyOp4
 70
     1
102
RTVSPropertyOp5
 70
     1
102
RTVSPropertyOp6
 70
     1
102
RTVSPropertyOp7
 70
     1
102
RTVSPropertyOp8
 70
     1
102
RTVSPropertyOp9
 70
     1
102
RTVSPropertyOp10
 70
     1
102
RTVSPropertyOp11
 70
     1
102
RTVSPropertyOp12
 70
     1
102
RTVSPropertyOp13
 70
     1
102
RTVSPropertyOp14
 70
     1
102
RTVSPropertyOp15
 70
     1
102
RTVSPropertyOp16
 70
     1
102
RTVSPropertyOp17
 70
     1
102
RTVSPropertyOp18
 70
     1
102
RTVSPropertyOp19
 70
     1
102
RTVSPropertyOp20
 70
     1
102
RTVSPropertyOp21
 70
     1
102
RTVSPropertyOp22
 70
     1
102
RTVSPropertyOp23
 70
     1
102
RTVSPropertyOp24
 70
     1
102
RTVSPropertyOp25
 70
     1
102
RTVSPropertyOp26
 70
     1
102
RTVSPropertyOp27
 70
     1
102
RTVSPropertyOp28
 70
     1
102
RTVSPropertyOp29
 70
     1
102
RTVSPropertyOp30
 70
     1
102
RTVSPropertyOp31
 70
     1
102
RTVSPropertyOp32
 70
     1
102
RTVSPropertyOp33
 70
     1
102
RTVSPropertyOp34
 70
     1
102
RTVSPropertyOp35
 70
     1
102
RTVSPropertyOp36
 70
     1
102
RTVSPropertyOp37
 70
     1
102
RTVSPropertyOp38
 70
     1
102
RTVSPropertyOp39
 70
     1
102
RTVSPropertyOp40
 70
     1
102
RTVSPropertyOp41
 70
     1
102
RTVSPropertyOp42
 70
     1
102
RTVSPropertyOp43
 70
     1
102
RTVSPropertyOp44
 70
     1
102
RTVSPropertyOp45
 70
     1
102
RTVSPropertyOp46
 70
     1
102
RTVSPropertyOp47
 70
     1
102
RTVSPropertyOp48
 70
     1
102
RTVSPropertyOp49
 70
     1
102
RTVSPropertyOp50
 70
     1
102
RTVSPropertyOp51
 70
     0
102
RTVSPropertyOp52
 70
     0
102
RTVSPropertyOp53
 70
     1
102
RTVSPropertyOp54
 70
     1
102
RTVSPropertyOp55
 70
     1
102
RTVSPropertyOp56
 70
     1
102
RTVSPropertyOp57
 70
     1
102
RTVSPost2010Prop28
280
     0
102
RTVSPost2010PropOp28
 70
     1
102
RTVSPost2010Prop29
280
     1
102
RTVSPost2010PropOp29
 70
     1
102
RTVSPost2010Prop30
280
     1
102
RTVSPost2010PropOp30
 70
     1
102
RTVSPost2010Prop31
280
     0
102
RTVSPost2010PropOp31
 70
     1
102
RTVSPost2010Prop32
280
     0
102
RTVSPost2010PropOp32
 70
     1
102
RTVSPost2010Prop33
280
     0
102
RTVSPost2010PropOp33
 70
     1
102
RTVSPost2010Prop34
280
     0
102
RTVSPost2010PropOp34
 70
     1
102
RTVSPost2010Prop35
280
     0
102
RTVSPost2010PropOp35
 70
     1
102
RTVSPost2010Prop36
280
     0
102
RTVSPost2010PropOp36
 70
     1
102
RTVSPost2010Prop37
 90
       50
102
RTVSPost2010PropOp37
 70
     1
102
RTVSPost2010Prop38
140
0.0
102
RTVSPost2010PropOp38
 70
     1
102
RTVSPost2010Prop39
140
1.0
102
RTVSPost2010PropOp39
 70
     1
102
RTVSPost2010Prop40
 90
        0
102
RTVSPost2010PropOp40
 70
     1
102
RTVSPost2010Prop41ColorIndex
 90
       18
102
RTVSPost2010Prop41ColorRGB
 90
        0
102
RTVSPost2010PropOp41
 70
     1
102
RTVSPost2010Prop42
 90
       50
102
RTVSPost2010PropOp42
 70
     1
102
RTVSPost2010Prop43
 90
        3
102
RTVSPost2010PropOp43
 70
     1
102
RTVSPost2010Prop44ColorIndex
 90
        5
102
RTVSPost2010Prop44ColorRGB
 90
      255
102
RTVSPost2010PropOp44
 70
     1
102
RTVSPost2010Prop45
280
     0
102
RTVSPost2010PropOp45
 70
     1
102
RTVSPost2010Prop46
 90
       50
102
RTVSPost2010PropOp46
 70
     1
102
RTVSPost2010Prop47
 90
       50
102
RTVSPost2010PropOp47
 70
     1
102
RTVSPost2010Prop48
 90
       50
102
RTVSPost2010PropOp48
 70
     1
102
RTVSPost2010Prop49
280
     0
102
RTVSPost2010PropOp49
 70
     1
102
RTVSPost2010Prop50
 90
       50
102
RTVSPost2010PropOp50
 70
     1
102
RTVSPost2010Prop51ColorIndex
 90
      256
102
RTVSPost2010Prop51ColorRGB
 90
-16777216
102
RTVSPost2010PropOp51
 70
     0
102
RTVSPost2010Prop52
140
1.0
102
RTVSPost2010PropOp52
 70
     0
102
RTVSPost2010Prop53
 90
        2
102
RTVSPost2010PropOp53
 70
     1
102
RTVSPost2010Prop54
  1
strokes_ogs.tif
102
RTVSPost2010PropOp54
 70
     1
102
RTVSPost2010Prop55
280
     0
102
RTVSPost2010PropOp55
 70
     1
102
RTVSPost2010Prop56
140
1.0
102
RTVSPost2010PropOp56
 70
     1
102
RTVSPost2010Prop57
140
1.0
102
RTVSPost2010PropOp57
 70
     1
  0
XRECORD
  5
503
102
{ACAD_REACTORS
330
502
102
}
330
502
100
AcDbXrecord
280
     1
102
RTVSPropertyOp0
 70
     1
102
RTVSPropertyOp1
 70
     1
102
RTVSPropertyOp2
 70
     1
102
RTVSPropertyOp3
 70
     1
102
RTVSPropertyOp4
 70
     1
102
RTVSPropertyOp5
 70
     1
102
RTVSPropertyOp6
 70
     1
102
RTVSPropertyOp7
 70
     1
102
RTVSPropertyOp8
 70
     1
102
RTVSPropertyOp9
 70
     1
102
RTVSPropertyOp10
 70
     1
102
RTVSPropertyOp11
 70
     1
102
RTVSPropertyOp12
 70
     1
102
RTVSPropertyOp13
 70
     1
102
RTVSPropertyOp14
 70
     1
102
RTVSPropertyOp15
 70
     1
102
RTVSPropertyOp16
 70
     1
102
RTVSPropertyOp17
 70
     1
102
RTVSPropertyOp18
 70
     1
102
RTVSPropertyOp19
 70
     1
102
RTVSPropertyOp20
 70
     1
102
RTVSPropertyOp21
 70
     1
102
RTVSPropertyOp22
 70
     1
102
RTVSPropertyOp23
 70
     1
102
RTVSPropertyOp24
 70
     1
102
RTVSPropertyOp25
 70
     1
102
RTVSPropertyOp26
 70
     1
102
RTVSPropertyOp27
 70
     1
102
RTVSPropertyOp28
 70
     1
102
RTVSPropertyOp29
 70
     1
102
RTVSPropertyOp30
 70
     1
102
RTVSPropertyOp31
 70
     1
102
RTVSPropertyOp32
 70
     1
102
RTVSPropertyOp33
 70
     1
102
RTVSPropertyOp34
 70
     1
102
RTVSPropertyOp35
 70
     1
102
RTVSPropertyOp36
 70
     1
102
RTVSPropertyOp37
 70
     1
102
RTVSPropertyOp38
 70
     1
102
RTVSPropertyOp39
 70
     1
102
RTVSPropertyOp40
 70
     1
102
RTVSPropertyOp41
 70
     1
102
RTVSPropertyOp42
 70
     1
102
RTVSPropertyOp43
 70
     1
102
RTVSPropertyOp44
 70
     1
102
RTVSPropertyOp45
 70
     1
102
RTVSPropertyOp46
 70
     1
102
RTVSPropertyOp47
 70
     1
102
RTVSPropertyOp48
 70
     1
102
RTVSPropertyOp49
 70
     1
102
RTVSPropertyOp50
 70
     1
102
RTVSPropertyOp51
 70
     0
102
RTVSPropertyOp52
 70
     0
102
RTVSPropertyOp53
 70
     1
102
RTVSPropertyOp54
 70
     1
102
RTVSPropertyOp55
 70
     1
102
RTVSPropertyOp56
 70
     1
102
RTVSPropertyOp57
 70
     1
102
RTVSPost2010Prop28
280
     0
102
RTVSPost2010PropOp28
 70
     1
102
RTVSPost2010Prop29
280
     1
102
RTVSPost2010PropOp29
 70
     1
102
RTVSPost2010Prop30
280
     1
102
RTVSPost2010PropOp30
 70
     1
102
RTVSPost2010Prop31
280
     0
102
RTVSPost2010PropOp31
 70
     1
102
RTVSPost2010Prop32
280
     0
102
RTVSPost2010PropOp32
 70
     1
102
RTVSPost2010Prop33
280
     0
102
RTVSPost2010PropOp33
 70
     1
102
RTVSPost2010Prop34
280
     0
102
RTVSPost2010PropOp34
 70
     1
102
RTVSPost2010Prop35
280
     0
102
RTVSPost2010PropOp35
 70
     1
102
RTVSPost2010Prop36
280
     0
102
RTVSPost2010PropOp36
 70
     1
102
RTVSPost2010Prop37
 90
       50
102
RTVSPost2010PropOp37
 70
     1
102
RTVSPost2010Prop38
140
0.0
102
RTVSPost2010PropOp38
 70
     1
102
RTVSPost2010Prop39
140
1.0
102
RTVSPost2010PropOp39
 70
     1
102
RTVSPost2010Prop40
 90
        0
102
RTVSPost2010PropOp40
 70
     1
102
RTVSPost2010Prop41ColorIndex
 90
       18
102
RTVSPost2010Prop41ColorRGB
 90
        0
102
RTVSPost2010PropOp41
 70
     1
102
RTVSPost2010Prop42
 90
       50
102
RTVSPost2010PropOp42
 70
     1
102
RTVSPost2010Prop43
 90
        3
102
RTVSPost2010PropOp43
 70
     1
102
RTVSPost2010Prop44ColorIndex
 90
        5
102
RTVSPost2010Prop44ColorRGB
 90
      255
102
RTVSPost2010PropOp44
 70
     1
102
RTVSPost2010Prop45
280
     0
102
RTVSPost2010PropOp45
 70
     1
102
RTVSPost2010Prop46
 90
       50
102
RTVSPost2010PropOp46
 70
     1
102
RTVSPost2010Prop47
 90
       50
102
RTVSPost2010PropOp47
 70
     1
102
RTVSPost2010Prop48
 90
       50
102
RTVSPost2010PropOp48
 70
     1
102
RTVSPost2010Prop49
280
     0
102
RTVSPost2010PropOp49
 70
     1
102
RTVSPost2010Prop50
 90
       50
102
RTVSPost2010PropOp50
 70
     1
102
RTVSPost2010Prop51ColorIndex
 90
      256
102
RTVSPost2010Prop51ColorRGB
 90
-16777216
102
RTVSPost2010PropOp51
 70
     0
102
RTVSPost2010Prop52
140
1.0
102
RTVSPost2010PropOp52
 70
     0
102
RTVSPost2010Prop53
 90
        2
102
RTVSPost2010PropOp53
 70
     1
102
RTVSPost2010Prop54
  1
strokes_ogs.tif
102
RTVSPost2010PropOp54
 70
     1
102
RTVSPost2010Prop55
280
     0
102
RTVSPost2010PropOp55
 70
     1
102
RTVSPost2010Prop56
140
1.0
102
RTVSPost2010PropOp56
 70
     1
102
RTVSPost2010Prop57
140
1.0
102
RTVSPost2010PropOp57
 70
     1
  0
ENDSEC
  0
EOF
