  0
SECTION
  2
HEADER
  9
$ACADVER
  1
AC1015
  9
$ACADMAINTVER
 70
     6
  9
$DWGCODEPAGE
  3
ANSI_1252
  9
$INSBASE
 10
0.0
 20
0.0
 30
0.0
  9
$EXTMIN
 10
1.000000E+20
 20
1.000000E+20
 30
1.000000E+20
  9
$EXTMAX
 10
-1.000000E+20
 20
-1.000000E+20
 30
-1.000000E+20
  9
$LIMMIN
 10
0.0
 20
0.0
  9
$LIMMAX
 10
279.4
 20
215.9
  9
$ORTHOMODE
 70
     0
  9
$REGENMODE
 70
     1
  9
$FILLMODE
 70
     1
  9
$QTEXTMODE
 70
     0
  9
$MIRRTEXT
 70
     0
  9
$LTSCALE
 40
1.0
  9
$ATTMODE
 70
     1
  9
$TEXTSIZE
 40
2.5
  9
$TRACEWID
 40
1.0
  9
$TEXTSTYLE
  7
Standard
  9
$CLAYER
  8
0
  9
$CELTYPE
  6
ByLayer
  9
$CECOLOR
 62
   256
  9
$CELTSCALE
 40
1.0
  9
$DISPSILH
 70
     0
  9
$DIMSCALE
 40
1.0
  9
$DIMASZ
 40
2.5
  9
$DIMEXO
 40
0.625
  9
$DIMDLI
 40
3.75
  9
$DIMRND
 40
0.0
  9
$DIMDLE
 40
0.0
  9
$DIMEXE
 40
1.25
  9
$DIMTP
 40
0.0
  9
$DIMTM
 40
0.0
  9
$DIMTXT
 40
2.5
  9
$DIMCEN
 40
2.5
  9
$DIMTSZ
 40
0.0
  9
$DIMTOL
 70
     0
  9
$DIMLIM
 70
     0
  9
$DIMTIH
 70
     0
  9
$DIMTOH
 70
     0
  9
$DIMSE1
 70
     0
  9
$DIMSE2
 70
     0
  9
$DIMTAD
 70
     1
  9
$DIMZIN
 70
     8
  9
$DIMBLK
  1

  9
$DIMASO
 70
     1
  9
$DIMSHO
 70
     1
  9
$DIMPOST
  1

  9
$DIMAPOST
  1

  9
$DIMALT
 70
     0
  9
$DIMALTD
 70
     3
  9
$DIMALTF
 40
0.03937
  9
$DIMLFAC
 40
1.0
  9
$DIMTOFL
 70
     1
  9
$DIMTVP
 40
0.0
  9
$DIMTIX
 70
     0
  9
$DIMSOXD
 70
     0
  9
$DIMSAH
 70
     0
  9
$DIMBLK1
  1

  9
$DIMBLK2
  1

  9
$DIMSTYLE
  2
ISO-25
  9
$DIMCLRD
 70
     0
  9
$DIMCLRE
 70
     0
  9
$DIMCLRT
 70
     0
  9
$DIMTFAC
 40
1.0
  9
$DIMGAP
 40
0.625
  9
$DIMJUST
 70
     0
  9
$DIMSD1
 70
     0
  9
$DIMSD2
 70
     0
  9
$DIMTOLJ
 70
     0
  9
$DIMTZIN
 70
     8
  9
$DIMALTZ
 70
     0
  9
$DIMALTTZ
 70
     0
  9
$DIMUPT
 70
     0
  9
$DIMDEC
 70
     2
  9
$DIMTDEC
 70
     2
  9
$DIMALTU
 70
     2
  9
$DIMALTTD
 70
     3
  9
$DIMTXSTY
  7
Standard
  9
$DIMAUNIT
 70
     0
  9
$DIMADEC
 70
     0
  9
$DIMALTRND
 40
0.0
  9
$DIMAZIN
 70
     0
  9
$DIMDSEP
 70
    44
  9
$DIMATFIT
 70
     3
  9
$DIMFRAC
 70
     0
  9
$DIMLDRBLK
  1

  9
$DIMLUNIT
 70
     2
  9
$DIMLWD
 70
    -2
  9
$DIMLWE
 70
    -2
  9
$DIMTMOVE
 70
     0
  9
$LUNITS
 70
     2
  9
$LUPREC
 70
     4
  9
$SKETCHINC
 40
1.0
  9
$FILLETRAD
 40
0.0
  9
$AUNITS
 70
     0
  9
$AUPREC
 70
     0
  9
$MENU
  1
.
  9
$ELEVATION
 40
0.0
  9
$PELEVATION
 40
0.0
  9
$THICKNESS
 40
0.0
  9
$LIMCHECK
 70
     0
  9
$CHAMFERA
 40
0.0
  9
$CHAMFERB
 40
0.0
  9
$CHAMFERC
 40
0.0
  9
$CHAMFERD
 40
0.0
  9
$SKPOLY
 70
     0
  9
$TDCREATE
 40
2453189.686266377
  9
$TDUCREATE
 40
2453189.894599711
  9
$TDUPDATE
 40
2458074.716622951
  9
$TDUUPDATE
 40
2458074.924956285
  9
$TDINDWG
 40
0.0012909606
  9
$TDUSRTIMER
 40
0.0012834259
  9
$USRTIMER
 70
     1
  9
$ANGBASE
 50
0.0
  9
$ANGDIR
 70
     0
  9
$PDMODE
 70
     0
  9
$PDSIZE
 40
0.0
  9
$PLINEWID
 40
0.0
  9
$SPLFRAME
 70
     0
  9
$SPLINETYPE
 70
     6
  9
$SPLINESEGS
 70
     8
  9
$HANDSEED
  5
3C9
  9
$SURFTAB1
 70
     6
  9
$SURFTAB2
 70
     6
  9
$SURFTYPE
 70
     6
  9
$SURFU
 70
     6
  9
$SURFV
 70
     6
  9
$UCSBASE
  2

  9
$UCSNAME
  2

  9
$UCSORG
 10
0.0
 20
0.0
 30
0.0
  9
$UCSXDIR
 10
1.0
 20
0.0
 30
0.0
  9
$UCSYDIR
 10
0.0
 20
1.0
 30
0.0
  9
$UCSORTHOREF
  2

  9
$UCSORTHOVIEW
 70
     0
  9
$UCSORGTOP
 10
0.0
 20
0.0
 30
0.0
  9
$UCSORGBOTTOM
 10
0.0
 20
0.0
 30
0.0
  9
$UCSORGLEFT
 10
0.0
 20
0.0
 30
0.0
  9
$UCSORGRIGHT
 10
0.0
 20
0.0
 30
0.0
  9
$UCSORGFRONT
 10
0.0
 20
0.0
 30
0.0
  9
$UCSORGBACK
 10
0.0
 20
0.0
 30
0.0
  9
$PUCSBASE
  2

  9
$PUCSNAME
  2

  9
$PUCSORG
 10
0.0
 20
0.0
 30
0.0
  9
$PUCSXDIR
 10
1.0
 20
0.0
 30
0.0
  9
$PUCSYDIR
 10
0.0
 20
1.0
 30
0.0
  9
$PUCSORTHOREF
  2

  9
$PUCSORTHOVIEW
 70
     0
  9
$PUCSORGTOP
 10
0.0
 20
0.0
 30
0.0
  9
$PUCSORGBOTTOM
 10
0.0
 20
0.0
 30
0.0
  9
$PUCSORGLEFT
 10
0.0
 20
0.0
 30
0.0
  9
$PUCSORGRIGHT
 10
0.0
 20
0.0
 30
0.0
  9
$PUCSORGFRONT
 10
0.0
 20
0.0
 30
0.0
  9
$PUCSORGBACK
 10
0.0
 20
0.0
 30
0.0
  9
$USERI1
 70
     0
  9
$USERI2
 70
     0
  9
$USERI3
 70
     0
  9
$USERI4
 70
     0
  9
$USERI5
 70
     0
  9
$USERR1
 40
0.0
  9
$USERR2
 40
0.0
  9
$USERR3
 40
0.0
  9
$USERR4
 40
0.0
  9
$USERR5
 40
0.0
  9
$WORLDVIEW
 70
     1
  9
$SHADEDGE
 70
     3
  9
$SHADEDIF
 70
    70
  9
$TILEMODE
 70
     1
  9
$MAXACTVP
 70
    64
  9
$PINSBASE
 10
0.0
 20
0.0
 30
0.0
  9
$PLIMCHECK
 70
     0
  9
$PEXTMIN
 10
0.0
 20
0.0
 30
0.0
  9
$PEXTMAX
 10
0.0
 20
0.0
 30
0.0
  9
$PLIMMIN
 10
0.0
 20
0.0
  9
$PLIMMAX
 10
12.0
 20
9.0
  9
$UNITMODE
 70
     0
  9
$VISRETAIN
 70
     1
  9
$PLINEGEN
 70
     0
  9
$PSLTSCALE
 70
     1
  9
$TREEDEPTH
 70
  3020
  9
$CMLSTYLE
  2
Standard
  9
$CMLJUST
 70
     0
  9
$CMLSCALE
 40
20.0
  9
$PROXYGRAPHICS
 70
     1
  9
$MEASUREMENT
 70
     1
  9
$CELWEIGHT
370
    -1
  9
$ENDCAPS
280
     0
  9
$JOINSTYLE
280
     0
  9
$LWDISPLAY
290
     0
  9
$INSUNITS
 70
     4
  9
$HYPERLINKBASE
  1

  9
$STYLESHEET
  1

  9
$XEDIT
290
     1
  9
$CEPSNTYPE
380
     0
  9
$PSTYLEMODE
290
     1
  9
$FINGERPRINTGUID
  2
{FDEAD578-A652-11D2-9A35-0060089B3A3F}
  9
$VERSIONGUID
  2
{A006E3F6-DACB-489E-8CBB-9F3E3708800C}
  9
$EXTNAMES
290
     1
  9
$PSVPSCALE
 40
0.0
  9
$OLESTARTUP
290
     0
  0
ENDSEC
  0
SECTION
  2
CLASSES
  0
CLASS
  1
ACDBDICTIONARYWDFLT
  2
AcDbDictionaryWithDefault
  3
ObjectDBX Classes
 90
        0
280
     0
281
     0
  0
CLASS
  1
ACDBPLACEHOLDER
  2
AcDbPlaceHolder
  3
ObjectDBX Classes
 90
        0
280
     0
281
     0
  0
CLASS
  1
LAYOUT
  2
AcDbLayout
  3
ObjectDBX Classes
 90
        0
280
     0
281
     0
  0
CLASS
  1
DICTIONARYVAR
  2
AcDbDictionaryVar
  3
ObjectDBX Classes
 90
        0
280
     0
281
     0
  0
CLASS
  1
RASTERVARIABLES
  2
AcDbRasterVariables
  3
ISM
 90
        0
280
     0
281
     0
  0
CLASS
  1
SCALE
  2
AcDbScale
  3
ObjectDBX Classes
 90
     1153
280
     0
281
     0
  0
CLASS
  1
MATERIAL
  2
AcDbMaterial
  3
ObjectDBX Classes
 90
     1153
280
     0
281
     0
  0
CLASS
  1
VISUALSTYLE
  2
AcDbVisualStyle
  3
ObjectDBX Classes
 90
     4095
280
     0
281
     0
  0
CLASS
  1
TABLESTYLE
  2
AcDbTableStyle
  3
ObjectDBX Classes
 90
     4095
280
     0
281
     0
  0
CLASS
  1
MLEADERSTYLE
  2
AcDbMLeaderStyle
  3
ACDB_MLEADERSTYLE_CLASS
 90
     4095
280
     0
281
     0
  0
CLASS
  1
SUN
  2
AcDbSun
  3
SCENEOE
 90
     1153
280
     0
281
     0
  0
ENDSEC
  0
SECTION
  2
TABLES
  0
TABLE
  2
VPORT
  5
8
102
{ACAD_XDICTIONARY
360
38D
102
}
330
0
100
AcDbSymbolTable
 70
     2
  0
VPORT
  5
8E
330
8
100
AcDbSymbolTableRecord
100
AcDbViewportTableRecord
  2
*Active
 70
     0
 10
0.0
 20
0.0
 11
1.0
 21
1.0
 12
139.7
 22
107.95
 13
0.0
 23
0.0
 14
10.0
 24
10.0
 15
10.0
 25
10.0
 16
0.0
 26
0.0
 36
1.0
 17
0.0
 27
0.0
 37
0.0
 40
215.9
 41
1.294118
 42
50.0
 43
0.0
 44
0.0
 50
0.0
 51
0.0
 71
     0
 72
  1000
 73
     1
 74
     3
 75
     0
 76
     0
 77
     0
 78
     0
281
     0
 65
     1
110
0.0
120
0.0
130
0.0
111
1.0
121
0.0
131
0.0
112
0.0
122
1.0
132
0.0
 79
     0
146
0.0
  0
ENDTAB
  0
TABLE
  2
LTYPE
  5
5
330
0
100
AcDbSymbolTable
 70
     5
  0
LTYPE
  5
14
330
5
100
AcDbSymbolTableRecord
100
AcDbLinetypeTableRecord
  2
ByBlock
 70
     0
  3

 72
    65
 73
     0
 40
0.0
  0
LTYPE
  5
15
330
5
100
AcDbSymbolTableRecord
100
AcDbLinetypeTableRecord
  2
ByLayer
 70
     0
  3

 72
    65
 73
     0
 40
0.0
  0
LTYPE
  5
16
330
5
100
AcDbSymbolTableRecord
100
AcDbLinetypeTableRecord
  2
Continuous
 70
     0
  3
Solid line
 72
    65
 73
     0
 40
0.0
  0
LTYPE
  5
DB
330
5
100
AcDbSymbolTableRecord
100
AcDbLinetypeTableRecord
  2
CENTRE
 70
     0
  3
Centre ____ _ ____ _ ____ _ ____ _ ____ _ ____
 72
    65
 73
     4
 40
2.0
 49
1.25
 74
     0
 49
-0.25
 74
     0
 49
0.25
 74
     0
 49
-0.25
 74
     0
  0
LTYPE
  5
DC
330
5
100
AcDbSymbolTableRecord
100
AcDbLinetypeTableRecord
  2
DASHED
 70
     0
  3
Dashed __ __ __ __ __ __ __ __ __ __ __ __ __ _
 72
    65
 73
     2
 40
0.75
 49
0.5
 74
     0
 49
-0.25
 74
     0
  0
LTYPE
  5
DD
330
5
100
AcDbSymbolTableRecord
100
AcDbLinetypeTableRecord
  2
HIDDEN
 70
     0
  3
Hidden __ __ __ __ __ __ __ __ __ __ __ __ __ _
 72
    65
 73
     2
 40
0.375
 49
0.25
 74
     0
 49
-0.125
 74
     0
  0
LTYPE
  5
DE
330
5
100
AcDbSymbolTableRecord
100
AcDbLinetypeTableRecord
  2
PHANTOM
 70
     0
  3
Phantom ______  __  __  ______  __  __  ______ 
 72
    65
 73
     6
 40
2.5
 49
1.25
 74
     0
 49
-0.25
 74
     0
 49
0.25
 74
     0
 49
-0.25
 74
     0
 49
0.25
 74
     0
 49
-0.25
 74
     0
  0
ENDTAB
  0
TABLE
  2
LAYER
  5
2
330
0
100
AcDbSymbolTable
 70
     2
  0
LAYER
  5
10
330
2
100
AcDbSymbolTableRecord
100
AcDbLayerTableRecord
  2
0
 70
     0
 62
     7
  6
Continuous
370
    -3
390
F
  0
LAYER
  5
DF
330
2
100
AcDbSymbolTableRecord
100
AcDbLayerTableRecord
  2
Untitled
 70
     0
 62
     7
  6
Continuous
370
    -3
390
F
  0
ENDTAB
  0
TABLE
  2
STYLE
  5
3
330
0
100
AcDbSymbolTable
 70
     2
  0
STYLE
  5
11
330
3
100
AcDbSymbolTableRecord
100
AcDbTextStyleTableRecord
  2
Standard
 70
     0
 40
0.0
 41
1.0
 50
0.0
 71
     0
 42
2.5
  3
txt
  4

  0
STYLE
  5
E5
330
3
100
AcDbSymbolTableRecord
100
AcDbTextStyleTableRecord
  2
ARIAL_400_0
 70
     0
 40
0.75
 41
1.0
 50
0.0
 71
     0
 42
2.5
  3

  4

1001
ACAD
1000
Arial
1071
        0
  0
ENDTAB
  0
TABLE
  2
VIEW
  5
6
330
0
100
AcDbSymbolTable
 70
     0
  0
ENDTAB
  0
TABLE
  2
UCS
  5
7
330
0
100
AcDbSymbolTable
 70
     0
  0
ENDTAB
  0
TABLE
  2
APPID
  5
9
330
0
100
AcDbSymbolTable
 70
     2
  0
APPID
  5
12
330
9
100
AcDbSymbolTableRecord
100
AcDbRegAppTableRecord
  2
ACAD
 70
     0
  0
APPID
  5
3C6
330
9
100
AcDbSymbolTableRecord
100
AcDbRegAppTableRecord
  2
ACAD_MLEADERVER
 70
     0
  0
ENDTAB
  0
TABLE
  2
DIMSTYLE
  5
A
330
0
100
AcDbSymbolTable
 70
     1
100
AcDbDimStyleTable
  0
DIMSTYLE
105
27
330
A
100
AcDbSymbolTableRecord
100
AcDbDimStyleTableRecord
  2
ISO-25
 70
     0
 41
2.5
 42
0.625
 43
3.75
 44
1.25
 73
     0
 74
     0
 77
     1
 78
     8
140
2.5
141
2.5
143
0.03937
147
0.625
171
     3
172
     1
178
     0
271
     2
272
     2
274
     3
278
    44
283
     0
284
     8
340
11
  0
ENDTAB
  0
TABLE
  2
BLOCK_RECORD
  5
1
330
0
100
AcDbSymbolTable
 70
    12
  0
BLOCK_RECORD
  5
1F
330
1
100
AcDbSymbolTableRecord
100
AcDbBlockTableRecord
  2
*Model_Space
340
22
  0
BLOCK_RECORD
  5
50
330
1
100
AcDbSymbolTableRecord
100
AcDbBlockTableRecord
  2
*Paper_Space
340
51
  0
BLOCK_RECORD
  5
55
330
1
100
AcDbSymbolTableRecord
100
AcDbBlockTableRecord
  2
*Paper_Space0
340
56
  0
BLOCK_RECORD
  5
E0
330
1
100
AcDbSymbolTableRecord
100
AcDbBlockTableRecord
  2
Block1
340
0
102
{BLKREFS
331
E1
102
}
  0
BLOCK_RECORD
  5
E7
330
1
100
AcDbSymbolTableRecord
100
AcDbBlockTableRecord
  2
Block2
340
0
102
{BLKREFS
331
E8
102
}
  0
BLOCK_RECORD
  5
32E
330
1
100
AcDbSymbolTableRecord
100
AcDbBlockTableRecord
  2
Block578
340
0
102
{BLKREFS
331
32F
102
}
  0
BLOCK_RECORD
  5
335
330
1
100
AcDbSymbolTableRecord
100
AcDbBlockTableRecord
  2
Block579
340
0
102
{BLKREFS
331
336
102
}
  0
BLOCK_RECORD
  5
33C
330
1
100
AcDbSymbolTableRecord
100
AcDbBlockTableRecord
  2
Block580
340
0
102
{BLKREFS
331
33D
102
}
  0
BLOCK_RECORD
  5
343
330
1
100
AcDbSymbolTableRecord
100
AcDbBlockTableRecord
  2
Block581
340
0
102
{BLKREFS
331
344
102
}
  0
BLOCK_RECORD
  5
34B
330
1
100
AcDbSymbolTableRecord
100
AcDbBlockTableRecord
  2
Block582
340
0
102
{BLKREFS
331
34C
102
}
  0
BLOCK_RECORD
  5
353
330
1
100
AcDbSymbolTableRecord
100
AcDbBlockTableRecord
  2
Block583
340
0
102
{BLKREFS
331
354
102
}
  0
BLOCK_RECORD
  5
35A
330
1
100
AcDbSymbolTableRecord
100
AcDbBlockTableRecord
  2
Block584
340
0
102
{BLKREFS
331
35B
102
}
  0
BLOCK_RECORD
  5
35F
330
1
100
AcDbSymbolTableRecord
100
AcDbBlockTableRecord
  2
Block586
340
0
102
{BLKREFS
331
360
102
}
  0
BLOCK_RECORD
  5
367
330
1
100
AcDbSymbolTableRecord
100
AcDbBlockTableRecord
  2
Block590
340
0
102
{BLKREFS
331
368
102
}
  0
ENDTAB
  0
ENDSEC
  0
SECTION
  2
BLOCKS
  0
BLOCK
  5
20
330
1F
100
AcDbEntity
  8
0
100
AcDbBlockBegin
  2
*Model_Space
 70
     0
 10
0.0
 20
0.0
 30
0.0
  3
*Model_Space
  1

  0
ENDBLK
  5
21
330
1F
100
AcDbEntity
  8
0
100
AcDbBlockEnd
  0
BLOCK
  5
52
330
50
100
AcDbEntity
 67
     1
  8
0
100
AcDbBlockBegin
  2
*Paper_Space
 70
     0
 10
0.0
 20
0.0
 30
0.0
  3
*Paper_Space
  1

  0
ENDBLK
  5
53
330
50
100
AcDbEntity
 67
     1
  8
0
100
AcDbBlockEnd
  0
BLOCK
  5
57
330
55
100
AcDbEntity
  8
0
100
AcDbBlockBegin
  2
*Paper_Space0
 70
     0
 10
0.0
 20
0.0
 30
0.0
  3
*Paper_Space0
  1

  0
ENDBLK
  5
58
330
55
100
AcDbEntity
  8
0
100
AcDbBlockEnd
  0
BLOCK
  5
36F
330
E0
100
AcDbEntity
  8
0
100
AcDbBlockBegin
  2
Block1
 70
     0
 10
0.0
 20
0.0
 30
0.0
  3
Block1
  1

  0
LINE
  5
E2
330
E0
100
AcDbEntity
  8
Untitled
 62
     7
370
     5
100
AcDbLine
 10
0.0
 20
0.0
 30
0.0
 11
-32.0
 21
0.0
 31
0.0
  0
LINE
  5
E3
330
E0
100
AcDbEntity
  8
Untitled
 62
     7
370
     5
100
AcDbLine
 10
-0.375
 20
-0.375
 30
0.0
 11
0.375
 21
0.375
 31
0.0
  0
LINE
  5
E4
330
E0
100
AcDbEntity
  8
Untitled
 62
     7
370
     5
100
AcDbLine
 10
-32.375
 20
-0.375
 30
0.0
 11
-31.625
 21
0.375
 31
0.0
  0
TEXT
  5
E6
330
E0
100
AcDbEntity
  8
Untitled
 62
     7
100
AcDbText
 10
-16.768
 20
0.6
 30
0.0
 40
0.75
  1
32"
  7
ARIAL_400_0
 72
     1
 11
-16.0
 21
0.6
 31
0.0
100
AcDbText
  0
ENDBLK
  5
370
330
E0
100
AcDbEntity
  8
0
100
AcDbBlockEnd
  0
BLOCK
  5
371
330
E7
100
AcDbEntity
  8
0
100
AcDbBlockBegin
  2
Block2
 70
     0
 10
0.0
 20
0.0
 30
0.0
  3
Block2
  1

  0
LINE
  5
E9
330
E7
100
AcDbEntity
  8
Untitled
 62
     7
370
     5
100
AcDbLine
 10
0.0
 20
0.0
 30
0.0
 11
0.0
 21
-32.0
 31
0.0
  0
LINE
  5
EA
330
E7
100
AcDbEntity
  8
Untitled
 62
     7
370
     5
100
AcDbLine
 10
2.9825
 20
0.0
 30
0.0
 11
-0.75
 21
0.0
 31
0.0
  0
LINE
  5
EB
330
E7
100
AcDbEntity
  8
Untitled
 62
     7
370
     5
100
AcDbLine
 10
3.114
 20
-32.0
 30
0.0
 11
-0.75
 21
-32.0
 31
0.0
  0
LINE
  5
EC
330
E7
100
AcDbEntity
  8
Untitled
 62
     7
370
     5
100
AcDbLine
 10
0.375
 20
-0.375
 30
0.0
 11
-0.375
 21
0.375
 31
0.0
  0
LINE
  5
ED
330
E7
100
AcDbEntity
  8
Untitled
 62
     7
370
     5
100
AcDbLine
 10
0.375
 20
-32.375
 30
0.0
 11
-0.375
 21
-31.625
 31
0.0
  0
TEXT
  5
EE
330
E7
100
AcDbEntity
  8
Untitled
 62
     7
100
AcDbText
 10
-0.6
 20
-16.768
 30
0.0
 40
0.75
  1
32"
 50
90.0
  7
ARIAL_400_0
 72
     1
 11
-0.6
 21
-16.0
 31
0.0
100
AcDbText
  0
ENDBLK
  5
372
330
E7
100
AcDbEntity
  8
0
100
AcDbBlockEnd
  0
BLOCK
  5
373
330
32E
100
AcDbEntity
  8
0
100
AcDbBlockBegin
  2
Block578
 70
     0
 10
0.0
 20
0.0
 30
0.0
  3
Block578
  1

  0
LINE
  5
330
330
32E
100
AcDbEntity
  8
Untitled
 62
     7
370
     5
100
AcDbLine
 10
0.0
 20
0.0
 30
0.0
 11
0.0
 21
1.5
 31
0.0
  0
LINE
  5
331
330
32E
100
AcDbEntity
  8
Untitled
 62
     7
370
     5
100
AcDbLine
 10
0.0
 20
-0.625
 30
0.0
 11
0.0
 21
-2.125
 31
0.0
  0
LINE
  5
332
330
32E
100
AcDbEntity
  8
Untitled
 62
     7
370
     5
100
AcDbLine
 10
0.375
 20
-0.375
 30
0.0
 11
-0.375
 21
0.375
 31
0.0
  0
LINE
  5
333
330
32E
100
AcDbEntity
  8
Untitled
 62
     7
370
     5
100
AcDbLine
 10
0.375
 20
-1.0
 30
0.0
 11
-0.375
 21
-0.25
 31
0.0
  0
TEXT
  5
334
330
32E
100
AcDbEntity
  8
Untitled
 62
     7
100
AcDbText
 10
-0.3
 20
1.5
 30
0.0
 40
0.75
  1
5/8"
 50
90.0
  7
ARIAL_400_0
100
AcDbText
  0
ENDBLK
  5
374
330
32E
100
AcDbEntity
  8
0
100
AcDbBlockEnd
  0
BLOCK
  5
375
330
335
100
AcDbEntity
  8
0
100
AcDbBlockBegin
  2
Block579
 70
     0
 10
0.0
 20
0.0
 30
0.0
  3
Block579
  1

  0
LINE
  5
337
330
335
100
AcDbEntity
  8
Untitled
 62
     7
370
     5
100
AcDbLine
 10
0.0
 20
0.0
 30
0.0
 11
-1.5
 21
0.0
 31
0.0
  0
LINE
  5
338
330
335
100
AcDbEntity
  8
Untitled
 62
     7
370
     5
100
AcDbLine
 10
1.0
 20
0.0
 30
0.0
 11
2.5
 21
0.0
 31
0.0
  0
LINE
  5
339
330
335
100
AcDbEntity
  8
Untitled
 62
     7
370
     5
100
AcDbLine
 10
0.375
 20
0.375
 30
0.0
 11
-0.375
 21
-0.375
 31
0.0
  0
LINE
  5
33A
330
335
100
AcDbEntity
  8
Untitled
 62
     7
370
     5
100
AcDbLine
 10
1.375
 20
0.375
 30
0.0
 11
0.625
 21
-0.375
 31
0.0
  0
TEXT
  5
33B
330
335
100
AcDbEntity
  8
Untitled
 62
     7
100
AcDbText
 10
-2.454
 20
0.3
 30
0.0
 40
0.75
  1
1"
  7
ARIAL_400_0
 72
     2
 11
-1.5
 21
0.3
 31
0.0
100
AcDbText
  0
ENDBLK
  5
376
330
335
100
AcDbEntity
  8
0
100
AcDbBlockEnd
  0
BLOCK
  5
377
330
33C
100
AcDbEntity
  8
0
100
AcDbBlockBegin
  2
Block580
 70
     0
 10
0.0
 20
0.0
 30
0.0
  3
Block580
  1

  0
LINE
  5
33E
330
33C
100
AcDbEntity
  8
Untitled
 62
     7
370
     5
100
AcDbLine
 10
0.0
 20
0.0
 30
0.0
 11
1.5
 21
0.0
 31
0.0
  0
LINE
  5
33F
330
33C
100
AcDbEntity
  8
Untitled
 62
     7
370
     5
100
AcDbLine
 10
-2.0
 20
0.0
 30
0.0
 11
-3.5
 21
0.0
 31
0.0
  0
LINE
  5
340
330
33C
100
AcDbEntity
  8
Untitled
 62
     7
370
     5
100
AcDbLine
 10
-0.375
 20
-0.375
 30
0.0
 11
0.375
 21
0.375
 31
0.0
  0
LINE
  5
341
330
33C
100
AcDbEntity
  8
Untitled
 62
     7
370
     5
100
AcDbLine
 10
-2.375
 20
-0.375
 30
0.0
 11
-1.625
 21
0.375
 31
0.0
  0
TEXT
  5
342
330
33C
100
AcDbEntity
  8
Untitled
 62
     7
100
AcDbText
 10
-4.454
 20
0.3
 30
0.0
 40
0.75
  1
2"
  7
ARIAL_400_0
 72
     2
 11
-3.5
 21
0.3
 31
0.0
100
AcDbText
  0
ENDBLK
  5
378
330
33C
100
AcDbEntity
  8
0
100
AcDbBlockEnd
  0
BLOCK
  5
379
330
343
100
AcDbEntity
  8
0
100
AcDbBlockBegin
  2
Block581
 70
     0
 10
0.0
 20
0.0
 30
0.0
  3
Block581
  1

  0
LINE
  5
345
330
343
100
AcDbEntity
  8
Untitled
 62
     7
370
     5
100
AcDbLine
 10
0.0
 20
0.0
 30
0.0
 11
-22.0
 21
0.0
 31
0.0
  0
LINE
  5
346
330
343
100
AcDbEntity
  8
Untitled
 62
     7
370
     5
100
AcDbLine
 10
0.0
 20
10.098179
 30
0.0
 11
0.0
 21
-0.75
 31
0.0
  0
LINE
  5
347
330
343
100
AcDbEntity
  8
Untitled
 62
     7
370
     5
100
AcDbLine
 10
-22.0
 20
4.943726
 30
0.0
 11
-22.0
 21
-0.75
 31
0.0
  0
LINE
  5
348
330
343
100
AcDbEntity
  8
Untitled
 62
     7
370
     5
100
AcDbLine
 10
-0.375
 20
-0.375
 30
0.0
 11
0.375
 21
0.375
 31
0.0
  0
LINE
  5
349
330
343
100
AcDbEntity
  8
Untitled
 62
     7
370
     5
100
AcDbLine
 10
-22.375
 20
-0.375
 30
0.0
 11
-21.625
 21
0.375
 31
0.0
  0
TEXT
  5
34A
330
343
100
AcDbEntity
  8
Untitled
 62
     7
100
AcDbText
 10
-11.768
 20
0.6
 30
0.0
 40
0.75
  1
22"
  7
ARIAL_400_0
 72
     1
 11
-11.0
 21
0.6
 31
0.0
100
AcDbText
  0
ENDBLK
  5
37A
330
343
100
AcDbEntity
  8
0
100
AcDbBlockEnd
  0
BLOCK
  5
37B
330
34B
100
AcDbEntity
  8
0
100
AcDbBlockBegin
  2
Block582
 70
     0
 10
0.0
 20
0.0
 30
0.0
  3
Block582
  1

  0
LINE
  5
34D
330
34B
100
AcDbEntity
  8
Untitled
 62
     7
370
     5
100
AcDbLine
 10
0.0
 20
0.0
 30
0.0
 11
0.0
 21
10.375
 31
0.0
  0
LINE
  5
34E
330
34B
100
AcDbEntity
  8
Untitled
 62
     7
370
     5
100
AcDbLine
 10
-2.114
 20
0.0
 30
0.0
 11
0.75
 21
0.0
 31
0.0
  0
LINE
  5
34F
330
34B
100
AcDbEntity
  8
Untitled
 62
     7
370
     5
100
AcDbLine
 10
-4.25
 20
10.375
 30
0.0
 11
0.75
 21
10.375
 31
0.0
  0
LINE
  5
350
330
34B
100
AcDbEntity
  8
Untitled
 62
     7
370
     5
100
AcDbLine
 10
-0.375
 20
0.375
 30
0.0
 11
0.375
 21
-0.375
 31
0.0
  0
LINE
  5
351
330
34B
100
AcDbEntity
  8
Untitled
 62
     7
370
     5
100
AcDbLine
 10
-0.375
 20
10.75
 30
0.0
 11
0.375
 21
10.0
 31
0.0
  0
TEXT
  5
352
330
34B
100
AcDbEntity
  8
Untitled
 62
     7
100
AcDbText
 10
-0.597656
 20
3.5465
 30
0.0
 40
0.75
  1
10 3/8"
 50
90.0
  7
ARIAL_400_0
 72
     1
 11
-0.597656
 21
5.1875
 31
0.0
100
AcDbText
  0
ENDBLK
  5
37C
330
34B
100
AcDbEntity
  8
0
100
AcDbBlockEnd
  0
BLOCK
  5
37D
330
353
100
AcDbEntity
  8
0
100
AcDbBlockBegin
  2
Block583
 70
     0
 10
0.0
 20
0.0
 30
0.0
  3
Block583
  1

  0
LINE
  5
355
330
353
100
AcDbEntity
  8
Untitled
 62
     7
370
     5
100
AcDbLine
 10
0.0
 20
0.0
 30
0.0
 11
0.0
 21
-4.75
 31
0.0
  0
LINE
  5
356
330
353
100
AcDbEntity
  8
Untitled
 62
     7
370
     5
100
AcDbLine
 10
-2.2325
 20
0.0
 30
0.0
 11
0.75
 21
0.0
 31
0.0
  0
LINE
  5
357
330
353
100
AcDbEntity
  8
Untitled
 62
     7
370
     5
100
AcDbLine
 10
0.375
 20
-0.375
 30
0.0
 11
-0.375
 21
0.375
 31
0.0
  0
LINE
  5
358
330
353
100
AcDbEntity
  8
Untitled
 62
     7
370
     5
100
AcDbLine
 10
0.375
 20
-5.125
 30
0.0
 11
-0.375
 21
-4.375
 31
0.0
  0
TEXT
  5
359
330
353
100
AcDbEntity
  8
Untitled
 62
     7
100
AcDbText
 10
-0.6
 20
-3.725
 30
0.0
 40
0.75
  1
4 3/4"
 50
90.0
  7
ARIAL_400_0
 72
     1
 11
-0.6
 21
-2.375
 31
0.0
100
AcDbText
  0
ENDBLK
  5
37E
330
353
100
AcDbEntity
  8
0
100
AcDbBlockEnd
  0
BLOCK
  5
37F
330
35A
100
AcDbEntity
  8
0
100
AcDbBlockBegin
  2
Block584
 70
     0
 10
0.0
 20
0.0
 30
0.0
  3
Block584
  1

  0
TEXT
  5
35C
330
35A
100
AcDbEntity
  8
Untitled
 62
     1
100
AcDbText
 10
0.0
 20
0.0
 30
0.0
 40
0.5625
  1
Specifications shown below represent standard sizes only.
  7
ARIAL_400_0
100
AcDbText
  0
TEXT
  5
35D
330
35A
100
AcDbEntity
  8
Untitled
 62
     1
100
AcDbText
 10
0.0
 20
-0.84375
 30
0.0
 40
0.5625
  1
Palmer Leg Systems are custom built to ANY dimensions.
  7
ARIAL_400_0
100
AcDbText
  0
ENDBLK
  5
380
330
35A
100
AcDbEntity
  8
0
100
AcDbBlockEnd
  0
BLOCK
  5
381
330
35F
100
AcDbEntity
  8
0
100
AcDbBlockBegin
  2
Block586
 70
     0
 10
0.0
 20
0.0
 30
0.0
  3
Block586
  1

  0
TEXT
  5
361
330
35F
100
AcDbEntity
  8
Untitled
 62
     7
100
AcDbText
 10
0.0
 20
0.0
 30
0.0
 40
0.45
  1
These designs and drawings are confidential, and the exclusive property of Palmer Industries.
  7
ARIAL_400_0
100
AcDbText
  0
TEXT
  5
362
330
35F
100
AcDbEntity
  8
Untitled
 62
     7
100
AcDbText
 10
0.0
 20
-0.675
 30
0.0
 40
0.45
  1
They may not be disclosed or duplicated without the expressed, written consent of Palmer Industries.
  7
ARIAL_400_0
100
AcDbText
  0
TEXT
  5
363
330
35F
100
AcDbEntity
  8
Untitled
 62
     7
100
AcDbText
 10
0.0
 20
-1.35
 30
0.0
 40
0.45
  1
Copyright circa 2018 Palmer Industries.  All rights reserved.
  7
ARIAL_400_0
100
AcDbText
  0
ENDBLK
  5
382
330
35F
100
AcDbEntity
  8
0
100
AcDbBlockEnd
  0
BLOCK
  5
383
330
367
100
AcDbEntity
  8
0
100
AcDbBlockBegin
  2
Block590
 70
     0
 10
0.0
 20
0.0
 30
0.0
  3
Block590
  1

  0
LINE
  5
369
330
367
100
AcDbEntity
  8
Untitled
 62
     7
370
     5
100
AcDbLine
 10
0.0
 20
0.0
 30
0.0
 11
-1.5
 21
0.0
 31
0.0
  0
LINE
  5
36A
330
367
100
AcDbEntity
  8
Untitled
 62
     7
370
     5
100
AcDbLine
 10
3.241033
 20
0.0
 30
0.0
 11
4.741033
 21
0.0
 31
0.0
  0
LINE
  5
36B
330
367
100
AcDbEntity
  8
Untitled
 62
     7
370
     5
100
AcDbLine
 10
3.241033
 20
-1.670977
 30
0.0
 11
3.241033
 21
0.75
 31
0.0
  0
LINE
  5
36C
330
367
100
AcDbEntity
  8
Untitled
 62
     7
370
     5
100
AcDbLine
 10
0.375
 20
0.375
 30
0.0
 11
-0.375
 21
-0.375
 31
0.0
  0
LINE
  5
36D
330
367
100
AcDbEntity
  8
Untitled
 62
     7
370
     5
100
AcDbLine
 10
3.616033
 20
0.375
 30
0.0
 11
2.866033
 21
-0.375
 31
0.0
  0
TEXT
  5
36E
330
367
100
AcDbEntity
  8
Untitled
 62
     7
100
AcDbText
 10
-4.2
 20
0.3
 30
0.0
 40
0.75
  1
3 1/4"
  7
ARIAL_400_0
 72
     2
 11
-1.5
 21
0.3
 31
0.0
100
AcDbText
  0
ENDBLK
  5
384
330
367
100
AcDbEntity
  8
0
100
AcDbBlockEnd
  0
ENDSEC
  0
SECTION
  2
ENTITIES
  0
INSERT
  5
E1
330
1F
100
AcDbEntity
  8
0
100
AcDbBlockReference
  2
Block1
 10
29.777883
 20
13.802075
 30
0.0
  0
INSERT
  5
E8
330
1F
100
AcDbEntity
  8
0
100
AcDbBlockReference
  2
Block2
 10
-6.222117
 20
25.900255
 30
0.0
  0
LINE
  5
EF
330
1F
100
AcDbEntity
  8
Untitled
 62
     7
370
     5
100
AcDbLine
 10
4.777883
 20
25.900255
 30
0.0
 11
22.777883
 21
25.900255
 31
0.0
  0
LINE
  5
F0
330
1F
100
AcDbEntity
  8
Untitled
 62
     7
370
     5
100
AcDbLine
 10
22.777883
 20
25.900255
 30
0.0
 11
22.777883
 21
24.650255
 31
0.0
  0
LINE
  5
F1
330
1F
100
AcDbEntity
  8
Untitled
 62
     7
370
     5
100
AcDbLine
 10
22.777883
 20
24.650255
 30
0.0
 11
4.777883
 21
24.650255
 31
0.0
  0
LINE
  5
F2
330
1F
100
AcDbEntity
  8
Untitled
 62
     7
370
     5
100
AcDbLine
 10
4.777883
 20
24.650255
 30
0.0
 11
4.777883
 21
25.900255
 31
0.0
  0
LINE
  5
F3
330
1F
100
AcDbEntity
  8
Untitled
 62
     7
370
     5
100
AcDbLine
 10
4.777883
 20
25.775255
 30
0.0
 11
22.777883
 21
25.775255
 31
0.0
  0
LINE
  5
F4
330
1F
100
AcDbEntity
  8
Untitled
 62
     7
370
     5
100
AcDbLine
 10
61.777883
 20
24.650255
 30
0.0
 11
61.777883
 21
25.900255
 31
0.0
  0
LINE
  5
F5
330
1F
100
AcDbEntity
  8
Untitled
 62
     7
370
     5
100
AcDbLine
 10
61.777883
 20
25.900255
 30
0.0
 11
60.527883
 21
25.900255
 31
0.0
  0
LINE
  5
F6
330
1F
100
AcDbEntity
  8
Untitled
 62
     7
370
     5
100
AcDbLine
 10
60.527883
 20
25.900255
 30
0.0
 11
60.527883
 21
25.775255
 31
0.0
  0
LINE
  5
F7
330
1F
100
AcDbEntity
  8
Untitled
 62
     7
370
     5
100
AcDbLine
 10
60.527883
 20
25.775255
 30
0.0
 11
61.652883
 21
25.775255
 31
0.0
  0
LINE
  5
F8
330
1F
100
AcDbEntity
  8
Untitled
 62
     7
370
     5
100
AcDbLine
 10
61.652883
 20
25.775255
 30
0.0
 11
61.652883
 21
24.650255
 31
0.0
  0
LINE
  5
F9
330
1F
100
AcDbEntity
  8
Untitled
 62
     7
370
     5
100
AcDbLine
 10
61.652883
 20
24.650255
 30
0.0
 11
61.777883
 21
24.650255
 31
0.0
  0
ELLIPSE
  5
FA
330
1F
100
AcDbEntity
  8
Untitled
 62
     7
370
     5
100
AcDbEllipse
 10
13.777883
 20
25.275255
 30
0.0
 11
0.2499999999999944
 21
0.0
 31
0.0
210
0.0
220
0.0
230
1.0
 40
1.0
 41
0.0
 42
6.283185307179586
  0
ELLIPSE
  5
FB
330
1F
100
AcDbEntity
  8
Untitled
 62
     7
370
     5
100
AcDbEllipse
 10
5.777883
 20
25.275255
 30
0.0
 11
0.2499999999999953
 21
0.0
 31
0.0
210
0.0
220
0.0
230
1.0
 40
1.0
 41
0.0
 42
6.283185307179586
  0
ELLIPSE
  5
FC
330
1F
100
AcDbEntity
  8
Untitled
 62
     7
370
     5
100
AcDbEllipse
 10
21.777883
 20
25.275255
 30
0.0
 11
0.2500000000000303
 21
0.0
 31
0.0
210
0.0
220
0.0
230
1.0
 40
1.0
 41
0.0
 42
6.283185307179586
  0
ELLIPSE
  5
FD
330
1F
100
AcDbEntity
  8
Untitled
 62
     7
370
     5
100
AcDbEllipse
 10
61.652883
 20
25.212755
 30
0.0
 11
0.25
 21
0.0
 31
0.0
210
0.0
220
0.0
230
1.0
 40
1.0
 41
1.570796326794897
 42
4.71238898038469
  0
LINE
  5
FE
330
1F
100
AcDbEntity
  8
Untitled
 62
     7
370
     5
100
AcDbLine
 10
62.777883
 20
25.212755
 30
0.0
 11
62.652883
 21
25.337755
 31
0.0
  0
LINE
  5
FF
330
1F
100
AcDbEntity
  8
Untitled
 62
     7
370
     5
100
AcDbLine
 10
62.777883
 20
25.212755
 30
0.0
 11
62.652883
 21
25.087755
 31
0.0
  0
LINE
  5
100
330
1F
100
AcDbEntity
  8
Untitled
 62
     7
370
     5
100
AcDbLine
 10
61.777883
 20
25.337755
 30
0.0
 11
62.652883
 21
25.337755
 31
0.0
  0
LINE
  5
101
330
1F
100
AcDbEntity
  8
Untitled
 62
     7
370
     5
100
AcDbLine
 10
61.777883
 20
25.087755
 30
0.0
 11
62.652883
 21
25.087755
 31
0.0
  0
LINE
  5
102
330
1F
100
AcDbEntity
  8
Untitled
 62
     7
370
     5
100
AcDbLine
 10
-2.222117
 20
5.169755
 30
0.0
 11
-2.222117
 21
19.495801
 31
0.0
  0
LINE
  5
103
330
1F
100
AcDbEntity
  8
Untitled
 62
     7
370
     5
100
AcDbLine
 10
-1.222117
 20
5.170255
 30
0.0
 11
-1.222117
 21
19.495801
 31
0.0
  0
LINE
  5
104
330
1F
100
AcDbEntity
  8
Untitled
 62
     7
370
     5
100
AcDbLine
 10
28.777883
 20
5.170255
 30
0.0
 11
28.777883
 21
19.495801
 31
0.0
  0
LINE
  5
105
330
1F
100
AcDbEntity
  8
Untitled
 62
     7
370
     5
100
AcDbLine
 10
29.777883
 20
5.169755
 30
0.0
 11
29.777883
 21
19.495801
 31
0.0
  0
LINE
  5
106
330
1F
100
AcDbEntity
  8
Untitled
 62
     7
370
     5
100
AcDbLine
 10
-3.159617
 20
4.650255
 30
0.0
 11
30.715383
 21
4.650255
 31
0.0
  0
LINE
  5
107
330
1F
100
AcDbEntity
  8
Untitled
 62
     7
370
     5
100
AcDbLine
 10
30.715383
 20
3.900255
 30
0.0
 11
-3.159617
 21
3.900255
 31
0.0
  0
LINE
  5
108
330
1F
100
AcDbEntity
  8
Untitled
 62
     7
370
     5
100
AcDbLine
 10
-3.222117
 20
4.587755
 30
0.0
 11
30.777883
 21
4.587755
 31
0.0
  0
LINE
  5
109
330
1F
100
AcDbEntity
  8
Untitled
 62
     7
370
     5
100
AcDbLine
 10
-3.222117
 20
3.962755
 30
0.0
 11
30.777883
 21
3.962755
 31
0.0
  0
LINE
  5
10A
330
1F
100
AcDbEntity
  8
Untitled
 62
     7
370
     5
100
AcDbLine
 10
-1.222117
 20
-4.140134
 30
0.0
 11
-1.222117
 21
3.380254
 31
0.0
  0
LINE
  5
10B
330
1F
100
AcDbEntity
  8
Untitled
 62
     7
370
     5
100
AcDbLine
 10
-2.222117
 20
-4.140134
 30
0.0
 11
-2.222117
 21
3.380755
 31
0.0
  0
ELLIPSE
  5
10C
330
1F
100
AcDbEntity
  8
Untitled
 62
     7
370
     5
100
AcDbEllipse
 10
-1.63486
 20
-5.25547
 30
0.0
 11
0.937500000000009
 21
0.0
 31
0.0
210
0.0
220
0.0
230
1.0
 40
1.0
 41
2.532167597643552
 42
3.797740940515791
  0
ELLIPSE
  5
10D
330
1F
100
AcDbEntity
  8
Untitled
 62
     7
370
     5
100
AcDbEllipse
 10
-1.809375
 20
-5.25547
 30
0.0
 11
0.9375000000000214
 21
0.0
 31
0.0
210
0.0
220
0.0
230
1.0
 40
1.0
 41
5.627037020253598
 42
6.892610363125818
  0
ELLIPSE
  5
10E
330
1F
100
AcDbEntity
  8
Untitled
 62
     7
370
     5
100
AcDbEllipse
 10
-2.358117
 20
-6.007245
 30
0.0
 11
0.09249999999999434
 21
0.0
 31
0.0
210
0.0
220
0.0
230
1.0
 40
1.0
 41
1.989592703010125
 42
4.71238898038469
  0
ELLIPSE
  5
10F
330
1F
100
AcDbEntity
  8
Untitled
 62
     7
370
     5
100
AcDbEllipse
 10
-2.425429
 20
-5.867745
 30
0.0
 11
0.06250000000000693
 21
0.0
 31
0.0
210
0.0
220
0.0
230
1.0
 40
1.0
 41
5.207498220945117
 42
6.98466859513659
  0
LINE
  5
110
330
1F
100
AcDbEntity
  8
Untitled
 62
     7
370
     5
100
AcDbLine
 10
-2.358117
 20
-6.099745
 30
0.0
 11
-1.086117
 21
-6.099745
 31
0.0
  0
ELLIPSE
  5
111
330
1F
100
AcDbEntity
  8
Untitled
 62
     7
370
     5
100
AcDbEllipse
 10
-1.086117
 20
-6.007245
 30
0.0
 11
0.09249999999999847
 21
0.0
 31
0.0
210
0.0
220
0.0
230
1.0
 40
1.0
 41
4.71238898038469
 42
7.435185257759209
  0
ELLIPSE
  5
112
330
1F
100
AcDbEntity
  8
Untitled
 62
     7
370
     5
100
AcDbEllipse
 10
-1.018806
 20
-5.867745
 30
0.0
 11
0.06249999999998226
 21
0.0
 31
0.0
210
0.0
220
0.0
230
1.0
 40
1.0
 41
2.440109365632457
 42
4.217279739823754
  0
LINE
  5
113
330
1F
100
AcDbEntity
  8
Untitled
 62
     7
370
     5
100
AcDbLine
 10
-2.395734
 20
-5.922739
 30
0.0
 11
-1.048501
 21
-5.922739
 31
0.0
  0
LINE
  5
114
330
1F
100
AcDbEntity
  8
Untitled
 62
     7
370
     5
100
AcDbLine
 10
-2.377686
 20
-5.82741
 30
0.0
 11
-1.066549
 21
-5.82741
 31
0.0
  0
ELLIPSE
  5
115
330
1F
100
AcDbEntity
  8
Untitled
 62
     7
370
     5
100
AcDbEllipse
 10
-2.726031
 20
-4.537241
 30
0.0
 11
0.3700674578493687
 21
0.0
 31
0.0
210
0.0
220
0.0
230
1.0
 40
1.0
 41
5.770244533803231
 42
6.307653324765344
  0
ELLIPSE
  5
116
330
1F
100
AcDbEntity
  8
Untitled
 62
     7
370
     5
100
AcDbEllipse
 10
-2.319175
 20
-4.407634
 30
0.0
 11
0.09249999999999724
 21
0.0
 31
0.0
210
0.0
220
0.0
230
1.0
 40
1.0
 41
1.570795443803708
 42
4.088833541484688
  0
ELLIPSE
  5
117
330
1F
100
AcDbEntity
  8
Untitled
 62
     7
370
     5
100
AcDbEllipse
 10
-2.415978
 20
-4.524786
 30
0.0
 11
0.05999999999999287
 21
0.0
 31
0.0
210
0.0
220
0.0
230
1.0
 40
1.0
 41
6.226476039778488
 42
7.05998738927099
  0
LINE
  5
118
330
1F
100
AcDbEntity
  8
Untitled
 62
     7
370
     5
100
AcDbLine
 10
-2.319175
 20
-4.315134
 30
0.0
 11
-2.319175
 21
-4.190134
 31
0.0
  0
LINE
  5
119
330
1F
100
AcDbEntity
  8
Untitled
 62
     7
370
     5
100
AcDbLine
 10
-2.269175
 20
-4.140134
 30
0.0
 11
-2.319175
 21
-4.190134
 31
0.0
  0
ELLIPSE
  5
11A
330
1F
100
AcDbEntity
  8
Untitled
 62
     7
370
     5
100
AcDbEllipse
 10
-0.718204
 20
-4.537241
 30
0.0
 11
0.3700674578493576
 21
0.0
 31
0.0
210
0.0
220
0.0
230
1.0
 40
1.0
 41
3.117124636004035
 42
3.654533426966046
  0
ELLIPSE
  5
11B
330
1F
100
AcDbEntity
  8
Untitled
 62
     7
370
     5
100
AcDbEllipse
 10
-1.12506
 20
-4.407634
 30
0.0
 11
0.09250000000000352
 21
0.0
 31
0.0
210
0.0
220
0.0
230
1.0
 40
1.0
 41
5.33594441928483
 42
7.853982516965544
  0
ELLIPSE
  5
11C
330
1F
100
AcDbEntity
  8
Untitled
 62
     7
370
     5
100
AcDbEllipse
 10
-1.028257
 20
-4.524786
 30
0.0
 11
0.06000000000000268
 21
0.0
 31
0.0
210
0.0
220
0.0
230
1.0
 40
1.0
 41
2.364790571498527
 42
3.198301920990882
  0
LINE
  5
11D
330
1F
100
AcDbEntity
  8
Untitled
 62
     7
370
     5
100
AcDbLine
 10
-1.12506
 20
-4.315134
 30
0.0
 11
-1.12506
 21
-4.190134
 31
0.0
  0
LINE
  5
11E
330
1F
100
AcDbEntity
  8
Untitled
 62
     7
370
     5
100
AcDbLine
 10
-1.17506
 20
-4.140134
 30
0.0
 11
-1.12506
 21
-4.190134
 31
0.0
  0
LINE
  5
11F
330
1F
100
AcDbEntity
  8
Untitled
 62
     7
370
     5
100
AcDbLine
 10
-2.269175
 20
-4.140134
 30
0.0
 11
-1.17506
 21
-4.140134
 31
0.0
  0
LINE
  5
120
330
1F
100
AcDbEntity
  8
Untitled
 62
     7
370
     5
100
AcDbLine
 10
-2.319175
 20
-4.190134
 30
0.0
 11
-1.12506
 21
-4.190134
 31
0.0
  0
LINE
  5
121
330
1F
100
AcDbEntity
  8
Untitled
 62
     7
370
     5
100
AcDbLine
 10
-2.319175
 20
-4.315134
 30
0.0
 11
-1.12506
 21
-4.315134
 31
0.0
  0
LINE
  5
122
330
1F
100
AcDbEntity
  8
Untitled
 62
     7
370
     5
100
AcDbLine
 10
-2.373188
 20
-4.482726
 30
0.0
 11
-1.071047
 21
-4.482726
 31
0.0
  0
LINE
  5
123
330
1F
100
AcDbEntity
  8
Untitled
 62
     7
370
     5
100
AcDbLine
 10
-1.040646
 20
-4.718848
 30
0.0
 11
-2.403589
 21
-4.718849
 31
0.0
  0
LINE
  5
124
330
1F
100
AcDbEntity
  8
Untitled
 62
     7
370
     5
100
AcDbLine
 10
-2.289617
 20
5.169755
 30
0.0
 11
-2.450317
 21
5.041417
 31
0.0
  0
LINE
  5
125
330
1F
100
AcDbEntity
  8
Untitled
 62
     7
370
     5
100
AcDbLine
 10
-1.154617
 20
5.169755
 30
0.0
 11
-0.993918
 21
5.041417
 31
0.0
  0
LINE
  5
126
330
1F
100
AcDbEntity
  8
Untitled
 62
     7
370
     5
100
AcDbLine
 10
-2.644617
 20
3.837755
 30
0.0
 11
-0.799617
 21
3.837755
 31
0.0
  0
LINE
  5
127
330
1F
100
AcDbEntity
  8
Untitled
 62
     7
370
     5
100
AcDbLine
 10
-2.659617
 20
3.585255
 30
0.0
 11
-0.784617
 21
3.585255
 31
0.0
  0
LINE
  5
128
330
1F
100
AcDbEntity
  8
Untitled
 62
     7
370
     5
100
AcDbLine
 10
-2.289617
 20
3.380755
 30
0.0
 11
-1.154617
 21
3.380755
 31
0.0
  0
LINE
  5
129
330
1F
100
AcDbEntity
  8
Untitled
 62
     7
370
     5
100
AcDbLine
 10
-2.489319
 20
3.522755
 30
0.0
 11
-0.954916
 21
3.522755
 31
0.0
  0
LINE
  5
12A
330
1F
100
AcDbEntity
  8
Untitled
 62
     7
370
     5
100
AcDbLine
 10
-0.993918
 20
3.509092
 30
0.0
 11
-2.450317
 21
3.509092
 31
0.0
  0
LINE
  5
12B
330
1F
100
AcDbEntity
  8
Untitled
 62
     7
370
     5
100
AcDbLine
 10
-2.644617
 20
4.712755
 30
0.0
 11
-0.799617
 21
4.712755
 31
0.0
  0
LINE
  5
12C
330
1F
100
AcDbEntity
  8
Untitled
 62
     7
370
     5
100
AcDbLine
 10
-2.659617
 20
4.965255
 30
0.0
 11
-0.784617
 21
4.965255
 31
0.0
  0
LINE
  5
12D
330
1F
100
AcDbEntity
  8
Untitled
 62
     7
370
     5
100
AcDbLine
 10
-2.489319
 20
5.027755
 30
0.0
 11
-0.954916
 21
5.027755
 31
0.0
  0
LINE
  5
12E
330
1F
100
AcDbEntity
  8
Untitled
 62
     7
370
     5
100
AcDbLine
 10
-0.993918
 20
5.041417
 30
0.0
 11
-2.450317
 21
5.041417
 31
0.0
  0
LINE
  5
12F
330
1F
100
AcDbEntity
  8
Untitled
 62
     7
370
     5
100
AcDbLine
 10
-3.222117
 20
3.962755
 30
0.0
 11
-3.222117
 21
4.587755
 31
0.0
  0
ELLIPSE
  5
130
330
1F
100
AcDbEntity
  8
Untitled
 62
     7
370
     5
100
AcDbEllipse
 10
-3.159617
 20
3.962755
 30
0.0
 11
0.06250000000000444
 21
0.0
 31
0.0
210
0.0
220
0.0
230
1.0
 40
1.0
 41
3.141592653589793
 42
4.71238898038469
  0
LINE
  5
131
330
1F
100
AcDbEntity
  8
Untitled
 62
     7
370
     5
100
AcDbLine
 10
-2.597117
 20
3.522755
 30
0.0
 11
-2.489319
 21
3.522755
 31
0.0
  0
LINE
  5
132
330
1F
100
AcDbEntity
  8
Untitled
 62
     7
370
     5
100
AcDbLine
 10
-2.659617
 20
3.585255
 30
0.0
 11
-2.659617
 21
3.822755
 31
0.0
  0
ELLIPSE
  5
133
330
1F
100
AcDbEntity
  8
Untitled
 62
     7
370
     5
100
AcDbEllipse
 10
-2.597117
 20
3.585255
 30
0.0
 11
0.06250000000003952
 21
0.0
 31
0.0
210
0.0
220
0.0
230
1.0
 40
1.0
 41
3.141592653589793
 42
4.71238898038469
  0
ELLIPSE
  5
134
330
1F
100
AcDbEntity
  8
Untitled
 62
     7
370
     5
100
AcDbEllipse
 10
-2.644617
 20
3.822755
 30
0.0
 11
0.01499999999999213
 21
0.0
 31
0.0
210
0.0
220
0.0
230
1.0
 40
1.0
 41
1.570796326794897
 42
3.141592653589793
  0
LINE
  5
135
330
1F
100
AcDbEntity
  8
Untitled
 62
     7
370
     5
100
AcDbLine
 10
-2.597117
 20
3.837755
 30
0.0
 11
-2.597117
 21
3.900255
 31
0.0
  0
LINE
  5
136
330
1F
100
AcDbEntity
  8
Untitled
 62
     7
370
     5
100
AcDbLine
 10
-2.289617
 20
3.380755
 30
0.0
 11
-2.450317
 21
3.509092
 31
0.0
  0
ELLIPSE
  5
137
330
1F
100
AcDbEntity
  8
Untitled
 62
     7
370
     5
100
AcDbEllipse
 10
-2.489319
 20
3.460255
 30
0.0
 11
0.062500000000081
 21
0.0
 31
0.0
210
0.0
220
0.0
230
1.0
 40
1.0
 41
0.8968999770984076
 42
1.570796326794897
  0
LINE
  5
138
330
1F
100
AcDbEntity
  8
Untitled
 62
     7
370
     5
100
AcDbLine
 10
-2.659617
 20
4.965255
 30
0.0
 11
-2.659617
 21
4.727755
 31
0.0
  0
ELLIPSE
  5
139
330
1F
100
AcDbEntity
  8
Untitled
 62
     7
370
     5
100
AcDbEllipse
 10
-2.597117
 20
4.965255
 30
0.0
 11
0.06250000000003997
 21
0.0
 31
0.0
210
0.0
220
0.0
230
1.0
 40
1.0
 41
1.570796326794897
 42
3.141592653589793
  0
ELLIPSE
  5
13A
330
1F
100
AcDbEntity
  8
Untitled
 62
     7
370
     5
100
AcDbEllipse
 10
-2.489319
 20
5.090255
 30
0.0
 11
0.06250000000007816
 21
0.0
 31
0.0
210
0.0
220
0.0
230
1.0
 40
1.0
 41
4.71238898038469
 42
5.386285330081193
  0
LINE
  5
13B
330
1F
100
AcDbEntity
  8
Untitled
 62
     7
370
     5
100
AcDbLine
 10
-2.597117
 20
5.027755
 30
0.0
 11
-2.489319
 21
5.027755
 31
0.0
  0
ELLIPSE
  5
13C
330
1F
100
AcDbEntity
  8
Untitled
 62
     7
370
     5
100
AcDbEllipse
 10
-2.644617
 20
4.727755
 30
0.0
 11
0.01499999999999613
 21
0.0
 31
0.0
210
0.0
220
0.0
230
1.0
 40
1.0
 41
3.141592653589793
 42
4.71238898038469
  0
ELLIPSE
  5
13D
330
1F
100
AcDbEntity
  8
Untitled
 62
     7
370
     5
100
AcDbEllipse
 10
-3.159617
 20
4.587755
 30
0.0
 11
0.0625
 21
0.0
 31
0.0
210
0.0
220
0.0
230
1.0
 40
1.0
 41
1.570796326794897
 42
3.141592653589793
  0
LINE
  5
13E
330
1F
100
AcDbEntity
  8
Untitled
 62
     7
370
     5
100
AcDbLine
 10
-2.597117
 20
4.712755
 30
0.0
 11
-2.597117
 21
4.650255
 31
0.0
  0
LINE
  5
13F
330
1F
100
AcDbEntity
  8
Untitled
 62
     7
370
     5
100
AcDbLine
 10
-0.784617
 20
3.822755
 30
0.0
 11
-0.784617
 21
3.585255
 31
0.0
  0
ELLIPSE
  5
140
330
1F
100
AcDbEntity
  8
Untitled
 62
     7
370
     5
100
AcDbEllipse
 10
-0.847117
 20
3.585255
 30
0.0
 11
0.06250000000003952
 21
0.0
 31
0.0
210
0.0
220
0.0
230
1.0
 40
1.0
 41
4.71238898038469
 42
6.283185307179586
  0
ELLIPSE
  5
141
330
1F
100
AcDbEntity
  8
Untitled
 62
     7
370
     5
100
AcDbEllipse
 10
-0.954916
 20
3.460255
 30
0.0
 11
0.06249999999874056
 21
0.0
 31
0.0
210
0.0
220
0.0
230
1.0
 40
1.0
 41
1.570796326794897
 42
2.244692676491726
  0
LINE
  5
142
330
1F
100
AcDbEntity
  8
Untitled
 62
     7
370
     5
100
AcDbLine
 10
-0.847117
 20
3.522755
 30
0.0
 11
-0.954916
 21
3.522755
 31
0.0
  0
LINE
  5
143
330
1F
100
AcDbEntity
  8
Untitled
 62
     7
370
     5
100
AcDbLine
 10
-1.154617
 20
3.380755
 30
0.0
 11
-0.993918
 21
3.509092
 31
0.0
  0
ELLIPSE
  5
144
330
1F
100
AcDbEntity
  8
Untitled
 62
     7
370
     5
100
AcDbEllipse
 10
-0.799617
 20
3.822755
 30
0.0
 11
0.0150000000000472
 21
0.0
 31
0.0
210
0.0
220
0.0
230
1.0
 40
1.0
 41
0.0
 42
1.570796326794897
  0
LINE
  5
145
330
1F
100
AcDbEntity
  8
Untitled
 62
     7
370
     5
100
AcDbLine
 10
-0.847117
 20
3.837755
 30
0.0
 11
-0.847117
 21
3.900255
 31
0.0
  0
LINE
  5
146
330
1F
100
AcDbEntity
  8
Untitled
 62
     7
370
     5
100
AcDbLine
 10
-0.784617
 20
4.727755
 30
0.0
 11
-0.784617
 21
4.965255
 31
0.0
  0
ELLIPSE
  5
147
330
1F
100
AcDbEntity
  8
Untitled
 62
     7
370
     5
100
AcDbEllipse
 10
-0.847117
 20
4.965255
 30
0.0
 11
0.0625000000000393
 21
0.0
 31
0.0
210
0.0
220
0.0
230
1.0
 40
1.0
 41
0.0
 42
1.570796326794897
  0
ELLIPSE
  5
148
330
1F
100
AcDbEntity
  8
Untitled
 62
     7
370
     5
100
AcDbEllipse
 10
-0.954916
 20
5.090255
 30
0.0
 11
0.06249999999873655
 21
0.0
 31
0.0
210
0.0
220
0.0
230
1.0
 40
1.0
 41
4.038492630687866
 42
4.71238898038469
  0
LINE
  5
149
330
1F
100
AcDbEntity
  8
Untitled
 62
     7
370
     5
100
AcDbLine
 10
-0.847117
 20
5.027755
 30
0.0
 11
-0.954916
 21
5.027755
 31
0.0
  0
ELLIPSE
  5
14A
330
1F
100
AcDbEntity
  8
Untitled
 62
     7
370
     5
100
AcDbEllipse
 10
-0.799617
 20
4.727755
 30
0.0
 11
0.01500000000003876
 21
0.0
 31
0.0
210
0.0
220
0.0
230
1.0
 40
1.0
 41
4.71238898038469
 42
6.283185307179586
  0
LINE
  5
14B
330
1F
100
AcDbEntity
  8
Untitled
 62
     7
370
     5
100
AcDbLine
 10
-0.847117
 20
4.712755
 30
0.0
 11
-0.847117
 21
4.650255
 31
0.0
  0
LINE
  5
14C
330
1F
100
AcDbEntity
  8
Untitled
 62
     7
370
     5
100
AcDbLine
 10
-2.289617
 20
5.169755
 30
0.0
 11
-1.154617
 21
5.169755
 31
0.0
  0
LINE
  5
14D
330
1F
100
AcDbEntity
  8
Untitled
 62
     7
370
     5
100
AcDbLine
 10
29.913883
 20
-6.099745
 30
0.0
 11
28.641883
 21
-6.099745
 31
0.0
  0
LINE
  5
14E
330
1F
100
AcDbEntity
  8
Untitled
 62
     7
370
     5
100
AcDbLine
 10
29.951499
 20
-5.922739
 30
0.0
 11
28.604266
 21
-5.922739
 31
0.0
  0
LINE
  5
14F
330
1F
100
AcDbEntity
  8
Untitled
 62
     7
370
     5
100
AcDbLine
 10
29.933451
 20
-5.82741
 30
0.0
 11
28.622314
 21
-5.82741
 31
0.0
  0
LINE
  5
150
330
1F
100
AcDbEntity
  8
Untitled
 62
     7
370
     5
100
AcDbLine
 10
28.596411
 20
-4.718848
 30
0.0
 11
29.959354
 21
-4.718849
 31
0.0
  0
LINE
  5
151
330
1F
100
AcDbEntity
  8
Untitled
 62
     7
370
     5
100
AcDbLine
 10
29.82494
 20
-4.140134
 30
0.0
 11
28.730825
 21
-4.140134
 31
0.0
  0
LINE
  5
152
330
1F
100
AcDbEntity
  8
Untitled
 62
     7
370
     5
100
AcDbLine
 10
29.87494
 20
-4.190134
 30
0.0
 11
28.680825
 21
-4.190134
 31
0.0
  0
LINE
  5
153
330
1F
100
AcDbEntity
  8
Untitled
 62
     7
370
     5
100
AcDbLine
 10
29.87494
 20
-4.315134
 30
0.0
 11
28.680825
 21
-4.315134
 31
0.0
  0
LINE
  5
154
330
1F
100
AcDbEntity
  8
Untitled
 62
     7
370
     5
100
AcDbLine
 10
29.928953
 20
-4.482726
 30
0.0
 11
28.626812
 21
-4.482726
 31
0.0
  0
LINE
  5
155
330
1F
100
AcDbEntity
  8
Untitled
 62
     7
370
     5
100
AcDbLine
 10
30.200383
 20
3.837755
 30
0.0
 11
28.355383
 21
3.837755
 31
0.0
  0
LINE
  5
156
330
1F
100
AcDbEntity
  8
Untitled
 62
     7
370
     5
100
AcDbLine
 10
30.215383
 20
3.585255
 30
0.0
 11
28.340383
 21
3.585255
 31
0.0
  0
LINE
  5
157
330
1F
100
AcDbEntity
  8
Untitled
 62
     7
370
     5
100
AcDbLine
 10
30.045084
 20
3.522755
 30
0.0
 11
28.510681
 21
3.522755
 31
0.0
  0
LINE
  5
158
330
1F
100
AcDbEntity
  8
Untitled
 62
     7
370
     5
100
AcDbLine
 10
28.549683
 20
3.509092
 30
0.0
 11
30.006082
 21
3.509092
 31
0.0
  0
LINE
  5
159
330
1F
100
AcDbEntity
  8
Untitled
 62
     7
370
     5
100
AcDbLine
 10
29.845383
 20
3.380755
 30
0.0
 11
28.710383
 21
3.380755
 31
0.0
  0
LINE
  5
15A
330
1F
100
AcDbEntity
  8
Untitled
 62
     7
370
     5
100
AcDbLine
 10
30.200383
 20
4.712755
 30
0.0
 11
28.355383
 21
4.712755
 31
0.0
  0
LINE
  5
15B
330
1F
100
AcDbEntity
  8
Untitled
 62
     7
370
     5
100
AcDbLine
 10
30.215383
 20
4.965255
 30
0.0
 11
28.340383
 21
4.965255
 31
0.0
  0
LINE
  5
15C
330
1F
100
AcDbEntity
  8
Untitled
 62
     7
370
     5
100
AcDbLine
 10
30.045084
 20
5.027755
 30
0.0
 11
28.510681
 21
5.027755
 31
0.0
  0
LINE
  5
15D
330
1F
100
AcDbEntity
  8
Untitled
 62
     7
370
     5
100
AcDbLine
 10
28.549683
 20
5.041417
 30
0.0
 11
30.006082
 21
5.041417
 31
0.0
  0
LINE
  5
15E
330
1F
100
AcDbEntity
  8
Untitled
 62
     7
370
     5
100
AcDbLine
 10
29.845383
 20
5.169755
 30
0.0
 11
28.710383
 21
5.169755
 31
0.0
  0
LINE
  5
15F
330
1F
100
AcDbEntity
  8
Untitled
 62
     7
370
     5
100
AcDbLine
 10
28.777883
 20
-4.140134
 30
0.0
 11
28.777883
 21
3.380254
 31
0.0
  0
ELLIPSE
  5
160
330
1F
100
AcDbEntity
  8
Untitled
 62
     7
370
     5
100
AcDbEllipse
 10
29.36514
 20
-5.25547
 30
0.0
 11
0.9374999999999817
 21
0.0
 31
0.0
210
0.0
220
0.0
230
1.0
 40
1.0
 41
2.532167597643532
 42
3.797740940515814
  0
ELLIPSE
  5
161
330
1F
100
AcDbEntity
  8
Untitled
 62
     7
370
     5
100
AcDbEllipse
 10
28.273969
 20
-4.537241
 30
0.0
 11
0.3700674578493592
 21
0.0
 31
0.0
210
0.0
220
0.0
230
1.0
 40
1.0
 41
5.770244533803337
 42
6.30765332476545
  0
ELLIPSE
  5
162
330
1F
100
AcDbEntity
  8
Untitled
 62
     7
370
     5
100
AcDbEllipse
 10
28.641883
 20
-6.007245
 30
0.0
 11
0.09249999999999596
 21
0.0
 31
0.0
210
0.0
220
0.0
230
1.0
 40
1.0
 41
1.989592703010164
 42
4.71238898038469
  0
ELLIPSE
  5
163
330
1F
100
AcDbEntity
  8
Untitled
 62
     7
370
     5
100
AcDbEllipse
 10
28.574571
 20
-5.867745
 30
0.0
 11
0.06249999999996515
 21
0.0
 31
0.0
210
0.0
220
0.0
230
1.0
 40
1.0
 41
5.207498220945196
 42
6.984668595136967
  0
ELLIPSE
  5
164
330
1F
100
AcDbEntity
  8
Untitled
 62
     7
370
     5
100
AcDbEllipse
 10
28.680825
 20
-4.407634
 30
0.0
 11
0.09250000000003632
 21
0.0
 31
0.0
210
0.0
220
0.0
230
1.0
 40
1.0
 41
1.570795443804053
 42
4.088833541484828
  0
ELLIPSE
  5
165
330
1F
100
AcDbEntity
  8
Untitled
 62
     7
370
     5
100
AcDbEllipse
 10
28.584022
 20
-4.524786
 30
0.0
 11
0.05999999999998844
 21
0.0
 31
0.0
210
0.0
220
0.0
230
1.0
 40
1.0
 41
6.226476039779136
 42
7.059987389271042
  0
LINE
  5
166
330
1F
100
AcDbEntity
  8
Untitled
 62
     7
370
     5
100
AcDbLine
 10
28.680825
 20
-4.315134
 30
0.0
 11
28.680825
 21
-4.190134
 31
0.0
  0
LINE
  5
167
330
1F
100
AcDbEntity
  8
Untitled
 62
     7
370
     5
100
AcDbLine
 10
28.730825
 20
-4.140134
 30
0.0
 11
28.680825
 21
-4.190134
 31
0.0
  0
LINE
  5
168
330
1F
100
AcDbEntity
  8
Untitled
 62
     7
370
     5
100
AcDbLine
 10
28.710383
 20
3.380755
 30
0.0
 11
28.549683
 21
3.509092
 31
0.0
  0
LINE
  5
169
330
1F
100
AcDbEntity
  8
Untitled
 62
     7
370
     5
100
AcDbLine
 10
28.340383
 20
3.822755
 30
0.0
 11
28.340383
 21
3.585255
 31
0.0
  0
ELLIPSE
  5
16A
330
1F
100
AcDbEntity
  8
Untitled
 62
     7
370
     5
100
AcDbEllipse
 10
28.402883
 20
3.585255
 30
0.0
 11
0.06250000000003908
 21
0.0
 31
0.0
210
0.0
220
0.0
230
1.0
 40
1.0
 41
3.141592653589793
 42
4.71238898038469
  0
ELLIPSE
  5
16B
330
1F
100
AcDbEntity
  8
Untitled
 62
     7
370
     5
100
AcDbEllipse
 10
28.510681
 20
3.460255
 30
0.0
 11
0.06249999999872635
 21
0.0
 31
0.0
210
0.0
220
0.0
230
1.0
 40
1.0
 41
0.8968999770980841
 42
1.570796326794897
  0
LINE
  5
16C
330
1F
100
AcDbEntity
  8
Untitled
 62
     7
370
     5
100
AcDbLine
 10
28.402883
 20
3.522755
 30
0.0
 11
28.510681
 21
3.522755
 31
0.0
  0
ELLIPSE
  5
16D
330
1F
100
AcDbEntity
  8
Untitled
 62
     7
370
     5
100
AcDbEllipse
 10
28.355383
 20
3.822755
 30
0.0
 11
0.01500000000004365
 21
0.0
 31
0.0
210
0.0
220
0.0
230
1.0
 40
1.0
 41
1.570796326794897
 42
3.141592653589793
  0
LINE
  5
16E
330
1F
100
AcDbEntity
  8
Untitled
 62
     7
370
     5
100
AcDbLine
 10
28.402883
 20
3.837755
 30
0.0
 11
28.402883
 21
3.900255
 31
0.0
  0
LINE
  5
16F
330
1F
100
AcDbEntity
  8
Untitled
 62
     7
370
     5
100
AcDbLine
 10
28.710383
 20
5.169755
 30
0.0
 11
28.549683
 21
5.041417
 31
0.0
  0
LINE
  5
170
330
1F
100
AcDbEntity
  8
Untitled
 62
     7
370
     5
100
AcDbLine
 10
28.340383
 20
4.727755
 30
0.0
 11
28.340383
 21
4.965255
 31
0.0
  0
ELLIPSE
  5
171
330
1F
100
AcDbEntity
  8
Untitled
 62
     7
370
     5
100
AcDbEllipse
 10
28.402883
 20
4.965255
 30
0.0
 11
0.06250000000003997
 21
0.0
 31
0.0
210
0.0
220
0.0
230
1.0
 40
1.0
 41
1.570796326794897
 42
3.141592653589793
  0
ELLIPSE
  5
172
330
1F
100
AcDbEntity
  8
Untitled
 62
     7
370
     5
100
AcDbEllipse
 10
28.510681
 20
5.090255
 30
0.0
 11
0.06249999999873967
 21
0.0
 31
0.0
210
0.0
220
0.0
230
1.0
 40
1.0
 41
4.71238898038469
 42
5.386285330081409
  0
LINE
  5
173
330
1F
100
AcDbEntity
  8
Untitled
 62
     7
370
     5
100
AcDbLine
 10
28.402883
 20
5.027755
 30
0.0
 11
28.510681
 21
5.027755
 31
0.0
  0
ELLIPSE
  5
174
330
1F
100
AcDbEntity
  8
Untitled
 62
     7
370
     5
100
AcDbEllipse
 10
28.355383
 20
4.727755
 30
0.0
 11
0.01500000000007873
 21
0.0
 31
0.0
210
0.0
220
0.0
230
1.0
 40
1.0
 41
3.141592653589793
 42
4.71238898038469
  0
LINE
  5
175
330
1F
100
AcDbEntity
  8
Untitled
 62
     7
370
     5
100
AcDbLine
 10
28.402883
 20
4.712755
 30
0.0
 11
28.402883
 21
4.650255
 31
0.0
  0
LINE
  5
176
330
1F
100
AcDbEntity
  8
Untitled
 62
     7
370
     5
100
AcDbLine
 10
29.777883
 20
-4.140134
 30
0.0
 11
29.777883
 21
3.380755
 31
0.0
  0
ELLIPSE
  5
177
330
1F
100
AcDbEntity
  8
Untitled
 62
     7
370
     5
100
AcDbEllipse
 10
30.281796
 20
-4.537241
 30
0.0
 11
0.3700674578493665
 21
0.0
 31
0.0
210
0.0
220
0.0
230
1.0
 40
1.0
 41
3.11712463600393
 42
3.654533426966044
  0
ELLIPSE
  5
178
330
1F
100
AcDbEntity
  8
Untitled
 62
     7
370
     5
100
AcDbEllipse
 10
29.190625
 20
-5.25547
 30
0.0
 11
0.9375000000000125
 21
0.0
 31
0.0
210
0.0
220
0.0
230
1.0
 40
1.0
 41
5.62703702025359
 42
6.892610363125789
  0
ELLIPSE
  5
179
330
1F
100
AcDbEntity
  8
Untitled
 62
     7
370
     5
100
AcDbEllipse
 10
29.913883
 20
-6.007245
 30
0.0
 11
0.09249999999999847
 21
0.0
 31
0.0
210
0.0
220
0.0
230
1.0
 40
1.0
 41
4.71238898038469
 42
7.435185257759274
  0
ELLIPSE
  5
17A
330
1F
100
AcDbEntity
  8
Untitled
 62
     7
370
     5
100
AcDbEllipse
 10
29.981194
 20
-5.867745
 30
0.0
 11
0.06249999999997632
 21
0.0
 31
0.0
210
0.0
220
0.0
230
1.0
 40
1.0
 41
2.440109365632377
 42
4.217279739824221
  0
ELLIPSE
  5
17B
330
1F
100
AcDbEntity
  8
Untitled
 62
     7
370
     5
100
AcDbEllipse
 10
29.87494
 20
-4.407634
 30
0.0
 11
0.0924999999999776
 21
0.0
 31
0.0
210
0.0
220
0.0
230
1.0
 40
1.0
 41
5.335944419284441
 42
7.853982516965749
  0
ELLIPSE
  5
17C
330
1F
100
AcDbEntity
  8
Untitled
 62
     7
370
     5
100
AcDbEllipse
 10
29.971743
 20
-4.524786
 30
0.0
 11
0.05999999999999555
 21
0.0
 31
0.0
210
0.0
220
0.0
230
1.0
 40
1.0
 41
2.36479057149841
 42
3.198301920990236
  0
LINE
  5
17D
330
1F
100
AcDbEntity
  8
Untitled
 62
     7
370
     5
100
AcDbLine
 10
29.87494
 20
-4.315134
 30
0.0
 11
29.87494
 21
-4.190134
 31
0.0
  0
LINE
  5
17E
330
1F
100
AcDbEntity
  8
Untitled
 62
     7
370
     5
100
AcDbLine
 10
29.82494
 20
-4.140134
 30
0.0
 11
29.87494
 21
-4.190134
 31
0.0
  0
LINE
  5
17F
330
1F
100
AcDbEntity
  8
Untitled
 62
     7
370
     5
100
AcDbLine
 10
30.777883
 20
3.962755
 30
0.0
 11
30.777883
 21
4.587755
 31
0.0
  0
LINE
  5
180
330
1F
100
AcDbEntity
  8
Untitled
 62
     7
370
     5
100
AcDbLine
 10
30.152883
 20
3.522755
 30
0.0
 11
30.045084
 21
3.522755
 31
0.0
  0
ELLIPSE
  5
181
330
1F
100
AcDbEntity
  8
Untitled
 62
     7
370
     5
100
AcDbEllipse
 10
30.715383
 20
3.962755
 30
0.0
 11
0.06249999999999645
 21
0.0
 31
0.0
210
0.0
220
0.0
230
1.0
 40
1.0
 41
4.71238898038469
 42
6.283185307179586
  0
LINE
  5
182
330
1F
100
AcDbEntity
  8
Untitled
 62
     7
370
     5
100
AcDbLine
 10
30.215383
 20
3.585255
 30
0.0
 11
30.215383
 21
3.822755
 31
0.0
  0
ELLIPSE
  5
183
330
1F
100
AcDbEntity
  8
Untitled
 62
     7
370
     5
100
AcDbEllipse
 10
30.152883
 20
3.585255
 30
0.0
 11
0.06250000000003952
 21
0.0
 31
0.0
210
0.0
220
0.0
230
1.0
 40
1.0
 41
4.71238898038469
 42
6.283185307179586
  0
ELLIPSE
  5
184
330
1F
100
AcDbEntity
  8
Untitled
 62
     7
370
     5
100
AcDbEllipse
 10
30.200383
 20
3.822755
 30
0.0
 11
0.01499999999996149
 21
0.0
 31
0.0
210
0.0
220
0.0
230
1.0
 40
1.0
 41
0.0
 42
1.570796326794897
  0
LINE
  5
185
330
1F
100
AcDbEntity
  8
Untitled
 62
     7
370
     5
100
AcDbLine
 10
30.152883
 20
3.837755
 30
0.0
 11
30.152883
 21
3.900255
 31
0.0
  0
LINE
  5
186
330
1F
100
AcDbEntity
  8
Untitled
 62
     7
370
     5
100
AcDbLine
 10
29.845383
 20
3.380755
 30
0.0
 11
30.006082
 21
3.509092
 31
0.0
  0
ELLIPSE
  5
187
330
1F
100
AcDbEntity
  8
Untitled
 62
     7
370
     5
100
AcDbEllipse
 10
30.045084
 20
3.460255
 30
0.0
 11
0.06250000000007905
 21
0.0
 31
0.0
210
0.0
220
0.0
230
1.0
 40
1.0
 41
1.570796326794897
 42
2.244692676491315
  0
LINE
  5
188
330
1F
100
AcDbEntity
  8
Untitled
 62
     7
370
     5
100
AcDbLine
 10
30.152883
 20
5.027755
 30
0.0
 11
30.045084
 21
5.027755
 31
0.0
  0
ELLIPSE
  5
189
330
1F
100
AcDbEntity
  8
Untitled
 62
     7
370
     5
100
AcDbEllipse
 10
30.715383
 20
4.587755
 30
0.0
 11
0.06250000000000355
 21
0.0
 31
0.0
210
0.0
220
0.0
230
1.0
 40
1.0
 41
0.0
 42
1.570796326794897
  0
LINE
  5
18A
330
1F
100
AcDbEntity
  8
Untitled
 62
     7
370
     5
100
AcDbLine
 10
30.215383
 20
4.965255
 30
0.0
 11
30.215383
 21
4.727755
 31
0.0
  0
ELLIPSE
  5
18B
330
1F
100
AcDbEntity
  8
Untitled
 62
     7
370
     5
100
AcDbEllipse
 10
30.152883
 20
4.965255
 30
0.0
 11
0.06250000000003908
 21
0.0
 31
0.0
210
0.0
220
0.0
230
1.0
 40
1.0
 41
0.0
 42
1.570796326794897
  0
ELLIPSE
  5
18C
330
1F
100
AcDbEntity
  8
Untitled
 62
     7
370
     5
100
AcDbEllipse
 10
30.200383
 20
4.727755
 30
0.0
 11
0.01499999999999968
 21
0.0
 31
0.0
210
0.0
220
0.0
230
1.0
 40
1.0
 41
4.71238898038469
 42
6.283185307179586
  0
LINE
  5
18D
330
1F
100
AcDbEntity
  8
Untitled
 62
     7
370
     5
100
AcDbLine
 10
30.152883
 20
4.712755
 30
0.0
 11
30.152883
 21
4.650255
 31
0.0
  0
LINE
  5
18E
330
1F
100
AcDbEntity
  8
Untitled
 62
     7
370
     5
100
AcDbLine
 10
29.845383
 20
5.169755
 30
0.0
 11
30.006082
 21
5.041417
 31
0.0
  0
ELLIPSE
  5
18F
330
1F
100
AcDbEntity
  8
Untitled
 62
     7
370
     5
100
AcDbEllipse
 10
30.045084
 20
5.090255
 30
0.0
 11
0.06250000000007734
 21
0.0
 31
0.0
210
0.0
220
0.0
230
1.0
 40
1.0
 41
4.038492630688262
 42
4.71238898038469
  0
LINE
  5
190
330
1F
100
AcDbEntity
  8
Untitled
 62
     7
370
     5
100
AcDbLine
 10
-2.347117
 20
19.570801
 30
0.0
 11
-2.272117
 21
19.495801
 31
0.0
  0
LINE
  5
191
330
1F
100
AcDbEntity
  8
Untitled
 62
     7
370
     5
100
AcDbLine
 10
-1.172117
 20
19.495801
 30
0.0
 11
-1.097117
 21
19.570801
 31
0.0
  0
LINE
  5
192
330
1F
100
AcDbEntity
  8
Untitled
 62
     7
370
     5
100
AcDbLine
 10
-1.172117
 20
19.495801
 30
0.0
 11
-2.272117
 21
19.495801
 31
0.0
  0
LINE
  5
193
330
1F
100
AcDbEntity
  8
Untitled
 62
     7
370
     5
100
AcDbLine
 10
-3.325151
 20
20.525255
 30
0.0
 11
-4.200549
 21
20.525255
 31
0.0
  0
LINE
  5
194
330
1F
100
AcDbEntity
  8
Untitled
 62
     7
370
     5
100
AcDbLine
 10
-3.325151
 20
21.150255
 30
0.0
 11
-4.200549
 21
21.150255
 31
0.0
  0
ELLIPSE
  5
195
330
1F
100
AcDbEntity
  8
Untitled
 62
     7
370
     5
100
AcDbEllipse
 10
-4.338151
 20
20.837755
 30
0.0
 11
1.125000000000012
 21
0.0
 31
0.0
210
0.0
220
0.0
230
1.0
 40
1.0
 41
2.787103729732192
 42
3.496081577447391
  0
LINE
  5
196
330
1F
100
AcDbEntity
  8
Untitled
 62
     7
370
     5
100
AcDbLine
 10
-5.393203
 20
21.228255
 30
0.0
 11
-5.393203
 21
20.447255
 31
0.0
  0
LINE
  5
197
330
1F
100
AcDbEntity
  8
Untitled
 62
     7
370
     5
100
AcDbLine
 10
-4.612151
 20
20.447255
 30
0.0
 11
-4.612151
 21
21.228255
 31
0.0
  0
ELLIPSE
  5
198
330
1F
100
AcDbEntity
  8
Untitled
 62
     7
370
     5
100
AcDbEllipse
 10
-4.200549
 20
19.400255
 30
0.0
 11
1.125
 21
0.0
 31
0.0
210
0.0
220
0.0
230
1.0
 40
1.0
 41
1.570796326794897
 42
1.945361861832519
  0
LINE
  5
199
330
1F
100
AcDbEntity
  8
Untitled
 62
     7
370
     5
100
AcDbLine
 10
-5.393203
 20
20.447255
 30
0.0
 11
-4.612151
 21
20.447255
 31
0.0
  0
ELLIPSE
  5
19A
330
1F
100
AcDbEntity
  8
Untitled
 62
     7
370
     5
100
AcDbEllipse
 10
-4.200549
 20
22.275255
 30
0.0
 11
1.125000000000005
 21
0.0
 31
0.0
210
0.0
220
0.0
230
1.0
 40
1.0
 41
4.337823445347065
 42
4.71238898038469
  0
LINE
  5
19B
330
1F
100
AcDbEntity
  8
Untitled
 62
     7
370
     5
100
AcDbLine
 10
-4.612151
 20
21.228255
 30
0.0
 11
-5.393203
 21
21.228255
 31
0.0
  0
LINE
  5
19C
330
1F
100
AcDbEntity
  8
Untitled
 62
     7
370
     5
100
AcDbLine
 10
-1.222117
 20
22.179708
 30
0.0
 11
-1.222117
 21
24.837755
 31
0.0
  0
LINE
  5
19D
330
1F
100
AcDbEntity
  8
Untitled
 62
     7
370
     5
100
AcDbLine
 10
-2.222117
 20
22.179708
 30
0.0
 11
-2.222117
 21
24.837755
 31
0.0
  0
LINE
  5
19E
330
1F
100
AcDbEntity
  8
Untitled
 62
     7
370
     5
100
AcDbLine
 10
-1.097117
 20
22.104708
 30
0.0
 11
-2.347117
 21
22.104708
 31
0.0
  0
LINE
  5
19F
330
1F
100
AcDbEntity
  8
Untitled
 62
     7
370
     5
100
AcDbLine
 10
-1.097117
 20
21.655708
 30
0.0
 11
-2.347117
 21
21.655708
 31
0.0
  0
LINE
  5
1A0
330
1F
100
AcDbEntity
  8
Untitled
 62
     7
370
     5
100
AcDbLine
 10
-1.097117
 20
21.705708
 30
0.0
 11
-2.347117
 21
21.705708
 31
0.0
  0
LINE
  5
1A1
330
1F
100
AcDbEntity
  8
Untitled
 62
     7
370
     5
100
AcDbLine
 10
-2.347117
 20
19.969801
 30
0.0
 11
-1.097117
 21
19.969801
 31
0.0
  0
LINE
  5
1A2
330
1F
100
AcDbEntity
  8
Untitled
 62
     7
370
     5
100
AcDbLine
 10
-2.347117
 20
20.019801
 30
0.0
 11
-1.097117
 21
20.019801
 31
0.0
  0
LINE
  5
1A3
330
1F
100
AcDbEntity
  8
Untitled
 62
     7
370
     5
100
AcDbLine
 10
-2.353562
 20
20.144801
 30
0.0
 11
-1.090673
 21
20.144801
 31
0.0
  0
LINE
  5
1A4
330
1F
100
AcDbEntity
  8
Untitled
 62
     7
370
     5
100
AcDbLine
 10
-2.353562
 20
21.530708
 30
0.0
 11
-1.090673
 21
21.530708
 31
0.0
  0
LINE
  5
1A5
330
1F
100
AcDbEntity
  8
Untitled
 62
     7
370
     5
100
AcDbLine
 10
-2.347117
 20
19.570801
 30
0.0
 11
-1.097117
 21
19.570801
 31
0.0
  0
LINE
  5
1A6
330
1F
100
AcDbEntity
  8
Untitled
 62
     7
370
     5
100
AcDbLine
 10
-2.272117
 20
22.179708
 30
0.0
 11
-1.172117
 21
22.179708
 31
0.0
  0
ELLIPSE
  5
1A7
330
1F
100
AcDbEntity
  8
Untitled
 62
     7
370
     5
100
AcDbEllipse
 10
-1.722117
 20
20.837755
 30
0.0
 11
0.9374999999999762
 21
0.0
 31
0.0
210
0.0
220
0.0
230
1.0
 40
1.0
 41
2.309784513392979
 42
2.651244175414963
  0
LINE
  5
1A8
330
1F
100
AcDbEntity
  8
Untitled
 62
     7
370
     5
100
AcDbLine
 10
-2.724151
 20
20.396255
 30
0.0
 11
-3.250151
 21
20.396255
 31
0.0
  0
LINE
  5
1A9
330
1F
100
AcDbEntity
  8
Untitled
 62
     7
370
     5
100
AcDbLine
 10
-3.250151
 20
21.279255
 30
0.0
 11
-2.724151
 21
21.279255
 31
0.0
  0
LINE
  5
1AA
330
1F
100
AcDbEntity
  8
Untitled
 62
     7
370
     5
100
AcDbLine
 10
-3.325151
 20
20.471255
 30
0.0
 11
-3.325151
 21
21.204255
 31
0.0
  0
LINE
  5
1AB
330
1F
100
AcDbEntity
  8
Untitled
 62
     7
370
     5
100
AcDbLine
 10
-3.250151
 20
21.279255
 30
0.0
 11
-3.250151
 21
20.396255
 31
0.0
  0
LINE
  5
1AC
330
1F
100
AcDbEntity
  8
Untitled
 62
     7
370
     5
100
AcDbLine
 10
-3.250151
 20
20.396255
 30
0.0
 11
-3.325151
 21
20.471255
 31
0.0
  0
LINE
  5
1AD
330
1F
100
AcDbEntity
  8
Untitled
 62
     7
370
     5
100
AcDbLine
 10
-3.325151
 20
21.204255
 30
0.0
 11
-3.250151
 21
21.279255
 31
0.0
  0
LINE
  5
1AE
330
1F
100
AcDbEntity
  8
Untitled
 62
     7
370
     5
100
AcDbLine
 10
-2.549151
 20
21.279255
 30
0.0
 11
-2.549151
 21
20.396255
 31
0.0
  0
LINE
  5
1AF
330
1F
100
AcDbEntity
  8
Untitled
 62
     7
370
     5
100
AcDbLine
 10
-2.674151
 20
21.279255
 30
0.0
 11
-2.674151
 21
20.396255
 31
0.0
  0
LINE
  5
1B0
330
1F
100
AcDbEntity
  8
Untitled
 62
     7
370
     5
100
AcDbLine
 10
-2.724151
 20
21.279255
 30
0.0
 11
-2.724151
 21
20.396255
 31
0.0
  0
LINE
  5
1B1
330
1F
100
AcDbEntity
  8
Untitled
 62
     7
370
     5
100
AcDbLine
 10
-2.297117
 20
19.994801
 30
0.0
 11
-2.347117
 21
19.969801
 31
0.0
  0
LINE
  5
1B2
330
1F
100
AcDbEntity
  8
Untitled
 62
     7
370
     5
100
AcDbLine
 10
-2.347117
 20
20.144801
 30
0.0
 11
-2.347117
 21
20.019801
 31
0.0
  0
LINE
  5
1B3
330
1F
100
AcDbEntity
  8
Untitled
 62
     7
370
     5
100
AcDbLine
 10
-2.347117
 20
20.019801
 30
0.0
 11
-2.297117
 21
19.994801
 31
0.0
  0
LINE
  5
1B4
330
1F
100
AcDbEntity
  8
Untitled
 62
     7
370
     5
100
AcDbLine
 10
-2.347117
 20
19.969801
 30
0.0
 11
-2.347117
 21
19.570801
 31
0.0
  0
LINE
  5
1B5
330
1F
100
AcDbEntity
  8
Untitled
 62
     7
370
     5
100
AcDbLine
 10
-2.699151
 20
20.446255
 30
0.0
 11
-2.674151
 21
20.396255
 31
0.0
  0
LINE
  5
1B6
330
1F
100
AcDbEntity
  8
Untitled
 62
     7
370
     5
100
AcDbLine
 10
-2.699151
 20
20.446255
 30
0.0
 11
-2.724151
 21
20.396255
 31
0.0
  0
LINE
  5
1B7
330
1F
100
AcDbEntity
  8
Untitled
 62
     7
370
     5
100
AcDbLine
 10
-2.549151
 20
20.396255
 30
0.0
 11
-2.674151
 21
20.396255
 31
0.0
  0
ELLIPSE
  5
1B8
330
1F
100
AcDbEntity
  8
Untitled
 62
     7
370
     5
100
AcDbEllipse
 10
-1.722117
 20
20.837755
 30
0.0
 11
0.9374999999999433
 21
0.0
 31
0.0
210
0.0
220
0.0
230
1.0
 40
1.0
 41
3.631941131764589
 42
3.973400793786583
  0
LINE
  5
1B9
330
1F
100
AcDbEntity
  8
Untitled
 62
     7
370
     5
100
AcDbLine
 10
-2.699151
 20
21.229255
 30
0.0
 11
-2.674151
 21
21.279255
 31
0.0
  0
LINE
  5
1BA
330
1F
100
AcDbEntity
  8
Untitled
 62
     7
370
     5
100
AcDbLine
 10
-2.699151
 20
21.229255
 30
0.0
 11
-2.724151
 21
21.279255
 31
0.0
  0
LINE
  5
1BB
330
1F
100
AcDbEntity
  8
Untitled
 62
     7
370
     5
100
AcDbLine
 10
-2.674151
 20
21.279255
 30
0.0
 11
-2.549151
 21
21.279255
 31
0.0
  0
LINE
  5
1BC
330
1F
100
AcDbEntity
  8
Untitled
 62
     7
370
     5
100
AcDbLine
 10
-2.659617
 20
21.279255
 30
0.0
 11
-2.549151
 21
21.279255
 31
0.0
  0
LINE
  5
1BD
330
1F
100
AcDbEntity
  8
Untitled
 62
     7
370
     5
100
AcDbLine
 10
-2.272117
 20
22.179708
 30
0.0
 11
-2.347117
 21
22.104708
 31
0.0
  0
LINE
  5
1BE
330
1F
100
AcDbEntity
  8
Untitled
 62
     7
370
     5
100
AcDbLine
 10
-2.347117
 20
21.655708
 30
0.0
 11
-2.347117
 21
21.530708
 31
0.0
  0
LINE
  5
1BF
330
1F
100
AcDbEntity
  8
Untitled
 62
     7
370
     5
100
AcDbLine
 10
-2.297117
 20
21.680708
 30
0.0
 11
-2.347117
 21
21.655708
 31
0.0
  0
LINE
  5
1C0
330
1F
100
AcDbEntity
  8
Untitled
 62
     7
370
     5
100
AcDbLine
 10
-2.347117
 20
22.104708
 30
0.0
 11
-2.347117
 21
21.705708
 31
0.0
  0
LINE
  5
1C1
330
1F
100
AcDbEntity
  8
Untitled
 62
     7
370
     5
100
AcDbLine
 10
-2.347117
 20
21.705708
 30
0.0
 11
-2.297117
 21
21.680708
 31
0.0
  0
LINE
  5
1C2
330
1F
100
AcDbEntity
  8
Untitled
 62
     7
370
     5
100
AcDbLine
 10
-1.097117
 20
22.104708
 30
0.0
 11
-1.172117
 21
22.179708
 31
0.0
  0
LINE
  5
1C3
330
1F
100
AcDbEntity
  8
Untitled
 62
     7
370
     5
100
AcDbLine
 10
-1.097117
 20
21.530708
 30
0.0
 11
-1.097117
 21
21.655708
 31
0.0
  0
LINE
  5
1C4
330
1F
100
AcDbEntity
  8
Untitled
 62
     7
370
     5
100
AcDbLine
 10
-1.097117
 20
21.655708
 30
0.0
 11
-1.147117
 21
21.680708
 31
0.0
  0
LINE
  5
1C5
330
1F
100
AcDbEntity
  8
Untitled
 62
     7
370
     5
100
AcDbLine
 10
-1.097117
 20
21.705708
 30
0.0
 11
-1.097117
 21
22.104708
 31
0.0
  0
LINE
  5
1C6
330
1F
100
AcDbEntity
  8
Untitled
 62
     7
370
     5
100
AcDbLine
 10
-1.147117
 20
21.680708
 30
0.0
 11
-1.097117
 21
21.705708
 31
0.0
  0
LINE
  5
1C7
330
1F
100
AcDbEntity
  8
Untitled
 62
     7
370
     5
100
AcDbLine
 10
-1.097117
 20
19.969801
 30
0.0
 11
-1.147117
 21
19.994801
 31
0.0
  0
LINE
  5
1C8
330
1F
100
AcDbEntity
  8
Untitled
 62
     7
370
     5
100
AcDbLine
 10
-1.097117
 20
20.019801
 30
0.0
 11
-1.097117
 21
20.144801
 31
0.0
  0
LINE
  5
1C9
330
1F
100
AcDbEntity
  8
Untitled
 62
     7
370
     5
100
AcDbLine
 10
-1.147117
 20
19.994801
 30
0.0
 11
-1.097117
 21
20.019801
 31
0.0
  0
LINE
  5
1CA
330
1F
100
AcDbEntity
  8
Untitled
 62
     7
370
     5
100
AcDbLine
 10
-1.097117
 20
19.570801
 30
0.0
 11
-1.097117
 21
19.969801
 31
0.0
  0
ELLIPSE
  5
1CB
330
1F
100
AcDbEntity
  8
Untitled
 62
     7
370
     5
100
AcDbEllipse
 10
-1.722117
 20
20.837755
 30
0.0
 11
0.9374999999999367
 21
0.0
 31
0.0
210
0.0
220
0.0
230
1.0
 40
1.0
 41
5.451377166982788
 42
5.553457650952385
  0
ELLIPSE
  5
1CC
330
1F
100
AcDbEntity
  8
Untitled
 62
     7
370
     5
100
AcDbEllipse
 10
-1.722117
 20
20.837755
 30
0.0
 11
0.937500000000016
 21
0.0
 31
0.0
210
0.0
220
0.0
230
1.0
 40
1.0
 41
5.5534576509523
 42
7.114993447376474
  0
LINE
  5
1CD
330
1F
100
AcDbEntity
  8
Untitled
 62
     7
370
     5
100
AcDbLine
 10
-1.177117
 20
24.837755
 30
0.0
 11
-2.267117
 21
24.837755
 31
0.0
  0
ELLIPSE
  5
1CE
330
1F
100
AcDbEntity
  8
Untitled
 62
     7
370
     5
100
AcDbEllipse
 10
-2.489617
 20
25.792755
 30
0.0
 11
0.1075000000000017
 21
0.0
 31
0.0
210
0.0
220
0.0
230
1.0
 40
1.0
 41
1.570796326794897
 42
4.712389118875549
  0
LINE
  5
1CF
330
1F
100
AcDbEntity
  8
Untitled
 62
     7
370
     5
100
AcDbLine
 10
-0.954617
 20
25.685255
 30
0.0
 11
-2.489617
 21
25.685255
 31
0.0
  0
ELLIPSE
  5
1D0
330
1F
100
AcDbEntity
  8
Untitled
 62
     7
370
     5
100
AcDbEllipse
 10
-0.954617
 20
25.792755
 30
0.0
 11
0.1074999999999992
 21
0.0
 31
0.0
210
0.0
220
0.0
230
1.0
 40
1.0
 41
4.712388841893864
 42
7.853981633974483
  0
LINE
  5
1D1
330
1F
100
AcDbEntity
  8
Untitled
 62
     7
370
     5
100
AcDbLine
 10
-2.489617
 20
25.900255
 30
0.0
 11
-0.954617
 21
25.900255
 31
0.0
  0
LINE
  5
1D2
330
1F
100
AcDbEntity
  8
Untitled
 62
     7
370
     5
100
AcDbLine
 10
-1.127117
 20
24.887755
 30
0.0
 11
-1.127117
 21
25.087755
 31
0.0
  0
LINE
  5
1D3
330
1F
100
AcDbEntity
  8
Untitled
 62
     7
370
     5
100
AcDbLine
 10
-2.317117
 20
24.887755
 30
0.0
 11
-2.317117
 21
25.087755
 31
0.0
  0
LINE
  5
1D4
330
1F
100
AcDbEntity
  8
Untitled
 62
     7
370
     5
100
AcDbLine
 10
-1.127117
 20
24.887755
 30
0.0
 11
-1.177117
 21
24.837755
 31
0.0
  0
LINE
  5
1D5
330
1F
100
AcDbEntity
  8
Untitled
 62
     7
370
     5
100
AcDbLine
 10
-2.267117
 20
24.837755
 30
0.0
 11
-2.317117
 21
24.887755
 31
0.0
  0
LINE
  5
1D6
330
1F
100
AcDbEntity
  8
Untitled
 62
     7
370
     5
100
AcDbLine
 10
-1.127117
 20
24.887755
 30
0.0
 11
-2.317117
 21
24.887755
 31
0.0
  0
LINE
  5
1D7
330
1F
100
AcDbEntity
  8
Untitled
 62
     7
370
     5
100
AcDbLine
 10
-2.317117
 20
25.087755
 30
0.0
 11
-1.127117
 21
25.087755
 31
0.0
  0
ELLIPSE
  5
1D8
330
1F
100
AcDbEntity
  8
Untitled
 62
     7
370
     5
100
AcDbEllipse
 10
-1.127117
 20
25.181505
 30
0.0
 11
0.09374999999996092
 21
0.0
 31
0.0
210
0.0
220
0.0
230
1.0
 40
1.0
 41
4.71238898038469
 42
7.47138207345143
  0
ELLIPSE
  5
1D9
330
1F
100
AcDbEntity
  8
Untitled
 62
     7
370
     5
100
AcDbEllipse
 10
-2.317117
 20
25.181505
 30
0.0
 11
0.09374999999997505
 21
0.0
 31
0.0
210
0.0
220
0.0
230
1.0
 40
1.0
 41
1.953395887318165
 42
4.71238898038469
  0
LINE
  5
1DA
330
1F
100
AcDbEntity
  8
Untitled
 62
     7
370
     5
100
AcDbLine
 10
-1.092117
 20
25.268476
 30
0.0
 11
-2.352117
 21
25.268476
 31
0.0
  0
LINE
  5
1DB
330
1F
100
AcDbEntity
  8
Untitled
 62
     7
370
     5
100
AcDbLine
 10
-2.352117
 20
25.268476
 30
0.0
 11
-2.352117
 21
25.438476
 31
0.0
  0
ELLIPSE
  5
1DC
330
1F
100
AcDbEntity
  8
Untitled
 62
     7
370
     5
100
AcDbEllipse
 10
-2.637103
 20
25.441383
 30
0.0
 11
0.2850000000000038
 21
0.0
 31
0.0
210
0.0
220
0.0
230
1.0
 40
1.0
 41
6.272982484929295
 42
7.310064484967621
  0
ELLIPSE
  5
1DD
330
1F
100
AcDbEntity
  8
Untitled
 62
     7
370
     5
100
AcDbEllipse
 10
-0.807132
 20
25.441383
 30
0.0
 11
0.2850000000000014
 21
0.0
 31
0.0
210
0.0
220
0.0
230
1.0
 40
1.0
 41
2.114713475801722
 42
3.151795475840084
  0
LINE
  5
1DE
330
1F
100
AcDbEntity
  8
Untitled
 62
     7
370
     5
100
AcDbLine
 10
-1.092117
 20
25.268476
 30
0.0
 11
-1.092117
 21
25.438476
 31
0.0
  0
LINE
  5
1DF
330
1F
100
AcDbEntity
  8
Untitled
 62
     7
370
     5
100
AcDbLine
 10
28.510383
 20
25.685255
 30
0.0
 11
30.045383
 21
25.685255
 31
0.0
  0
LINE
  5
1E0
330
1F
100
AcDbEntity
  8
Untitled
 62
     7
370
     5
100
AcDbLine
 10
30.045383
 20
25.900255
 30
0.0
 11
28.510383
 21
25.900255
 31
0.0
  0
LINE
  5
1E1
330
1F
100
AcDbEntity
  8
Untitled
 62
     7
370
     5
100
AcDbLine
 10
29.902883
 20
19.969801
 30
0.0
 11
28.652883
 21
19.969801
 31
0.0
  0
LINE
  5
1E2
330
1F
100
AcDbEntity
  8
Untitled
 62
     7
370
     5
100
AcDbLine
 10
29.902883
 20
20.019801
 30
0.0
 11
28.652883
 21
20.019801
 31
0.0
  0
LINE
  5
1E3
330
1F
100
AcDbEntity
  8
Untitled
 62
     7
370
     5
100
AcDbLine
 10
28.727883
 20
19.495801
 30
0.0
 11
29.827883
 21
19.495801
 31
0.0
  0
LINE
  5
1E4
330
1F
100
AcDbEntity
  8
Untitled
 62
     7
370
     5
100
AcDbLine
 10
29.909327
 20
20.144801
 30
0.0
 11
28.646438
 21
20.144801
 31
0.0
  0
LINE
  5
1E5
330
1F
100
AcDbEntity
  8
Untitled
 62
     7
370
     5
100
AcDbLine
 10
29.902883
 20
19.570801
 30
0.0
 11
28.652883
 21
19.570801
 31
0.0
  0
LINE
  5
1E6
330
1F
100
AcDbEntity
  8
Untitled
 62
     7
370
     5
100
AcDbLine
 10
29.827883
 20
22.179708
 30
0.0
 11
28.727883
 21
22.179708
 31
0.0
  0
LINE
  5
1E7
330
1F
100
AcDbEntity
  8
Untitled
 62
     7
370
     5
100
AcDbLine
 10
28.652883
 20
22.104708
 30
0.0
 11
29.902883
 21
22.104708
 31
0.0
  0
LINE
  5
1E8
330
1F
100
AcDbEntity
  8
Untitled
 62
     7
370
     5
100
AcDbLine
 10
28.652883
 20
21.655708
 30
0.0
 11
29.902883
 21
21.655708
 31
0.0
  0
LINE
  5
1E9
330
1F
100
AcDbEntity
  8
Untitled
 62
     7
370
     5
100
AcDbLine
 10
28.652883
 20
21.705708
 30
0.0
 11
29.902883
 21
21.705708
 31
0.0
  0
LINE
  5
1EA
330
1F
100
AcDbEntity
  8
Untitled
 62
     7
370
     5
100
AcDbLine
 10
29.909327
 20
21.530708
 30
0.0
 11
28.646438
 21
21.530708
 31
0.0
  0
LINE
  5
1EB
330
1F
100
AcDbEntity
  8
Untitled
 62
     7
370
     5
100
AcDbLine
 10
28.732883
 20
24.837755
 30
0.0
 11
29.822883
 21
24.837755
 31
0.0
  0
LINE
  5
1EC
330
1F
100
AcDbEntity
  8
Untitled
 62
     7
370
     5
100
AcDbLine
 10
28.682883
 20
24.887755
 30
0.0
 11
29.872883
 21
24.887755
 31
0.0
  0
LINE
  5
1ED
330
1F
100
AcDbEntity
  8
Untitled
 62
     7
370
     5
100
AcDbLine
 10
29.872883
 20
25.087755
 30
0.0
 11
28.682883
 21
25.087755
 31
0.0
  0
LINE
  5
1EE
330
1F
100
AcDbEntity
  8
Untitled
 62
     7
370
     5
100
AcDbLine
 10
28.647883
 20
25.268476
 30
0.0
 11
29.907883
 21
25.268476
 31
0.0
  0
ELLIPSE
  5
1EF
330
1F
100
AcDbEntity
  8
Untitled
 62
     7
370
     5
100
AcDbEllipse
 10
29.277883
 20
20.837755
 30
0.0
 11
0.9375000000000286
 21
0.0
 31
0.0
210
0.0
220
0.0
230
1.0
 40
1.0
 41
2.309784513392917
 42
3.8713203098171
  0
ELLIPSE
  5
1F0
330
1F
100
AcDbEntity
  8
Untitled
 62
     7
370
     5
100
AcDbEllipse
 10
28.362897
 20
25.441383
 30
0.0
 11
0.2850000000000046
 21
0.0
 31
0.0
210
0.0
220
0.0
230
1.0
 40
1.0
 41
6.272982484929295
 42
7.310064484967578
  0
ELLIPSE
  5
1F1
330
1F
100
AcDbEntity
  8
Untitled
 62
     7
370
     5
100
AcDbEllipse
 10
28.510383
 20
25.792755
 30
0.0
 11
0.1075000000000017
 21
0.0
 31
0.0
210
0.0
220
0.0
230
1.0
 40
1.0
 41
1.570796326794897
 42
4.712389118875451
  0
LINE
  5
1F2
330
1F
100
AcDbEntity
  8
Untitled
 62
     7
370
     5
100
AcDbLine
 10
28.777883
 20
22.179708
 30
0.0
 11
28.777883
 21
24.837755
 31
0.0
  0
LINE
  5
1F3
330
1F
100
AcDbEntity
  8
Untitled
 62
     7
370
     5
100
AcDbLine
 10
28.652883
 20
19.969801
 30
0.0
 11
28.702883
 21
19.994801
 31
0.0
  0
LINE
  5
1F4
330
1F
100
AcDbEntity
  8
Untitled
 62
     7
370
     5
100
AcDbLine
 10
28.652883
 20
20.019801
 30
0.0
 11
28.652883
 21
20.144801
 31
0.0
  0
LINE
  5
1F5
330
1F
100
AcDbEntity
  8
Untitled
 62
     7
370
     5
100
AcDbLine
 10
28.702883
 20
19.994801
 30
0.0
 11
28.652883
 21
20.019801
 31
0.0
  0
LINE
  5
1F6
330
1F
100
AcDbEntity
  8
Untitled
 62
     7
370
     5
100
AcDbLine
 10
28.727883
 20
19.495801
 30
0.0
 11
28.652883
 21
19.570801
 31
0.0
  0
LINE
  5
1F7
330
1F
100
AcDbEntity
  8
Untitled
 62
     7
370
     5
100
AcDbLine
 10
28.652883
 20
19.570801
 30
0.0
 11
28.652883
 21
19.969801
 31
0.0
  0
ELLIPSE
  5
1F8
330
1F
100
AcDbEntity
  8
Untitled
 62
     7
370
     5
100
AcDbEllipse
 10
29.277883
 20
20.837755
 30
0.0
 11
0.9374999999999152
 21
0.0
 31
0.0
210
0.0
220
0.0
230
1.0
 40
1.0
 41
3.871320309817008
 42
3.973400793786616
  0
LINE
  5
1F9
330
1F
100
AcDbEntity
  8
Untitled
 62
     7
370
     5
100
AcDbLine
 10
28.652883
 20
22.104708
 30
0.0
 11
28.727883
 21
22.179708
 31
0.0
  0
LINE
  5
1FA
330
1F
100
AcDbEntity
  8
Untitled
 62
     7
370
     5
100
AcDbLine
 10
28.652883
 20
21.530708
 30
0.0
 11
28.652883
 21
21.655708
 31
0.0
  0
LINE
  5
1FB
330
1F
100
AcDbEntity
  8
Untitled
 62
     7
370
     5
100
AcDbLine
 10
28.652883
 20
21.655708
 30
0.0
 11
28.702883
 21
21.680708
 31
0.0
  0
LINE
  5
1FC
330
1F
100
AcDbEntity
  8
Untitled
 62
     7
370
     5
100
AcDbLine
 10
28.652883
 20
21.705708
 30
0.0
 11
28.652883
 21
22.104708
 31
0.0
  0
LINE
  5
1FD
330
1F
100
AcDbEntity
  8
Untitled
 62
     7
370
     5
100
AcDbLine
 10
28.702883
 20
21.680708
 30
0.0
 11
28.652883
 21
21.705708
 31
0.0
  0
LINE
  5
1FE
330
1F
100
AcDbEntity
  8
Untitled
 62
     7
370
     5
100
AcDbLine
 10
28.682883
 20
24.887755
 30
0.0
 11
28.682883
 21
25.087755
 31
0.0
  0
LINE
  5
1FF
330
1F
100
AcDbEntity
  8
Untitled
 62
     7
370
     5
100
AcDbLine
 10
28.682883
 20
24.887755
 30
0.0
 11
28.732883
 21
24.837755
 31
0.0
  0
ELLIPSE
  5
200
330
1F
100
AcDbEntity
  8
Untitled
 62
     7
370
     5
100
AcDbEllipse
 10
28.682883
 20
25.181505
 30
0.0
 11
0.0937499999999782
 21
0.0
 31
0.0
210
0.0
220
0.0
230
1.0
 40
1.0
 41
1.953395887318248
 42
4.71238898038469
  0
LINE
  5
201
330
1F
100
AcDbEntity
  8
Untitled
 62
     7
370
     5
100
AcDbLine
 10
28.647883
 20
25.268476
 30
0.0
 11
28.647883
 21
25.438476
 31
0.0
  0
LINE
  5
202
330
1F
100
AcDbEntity
  8
Untitled
 62
     7
370
     5
100
AcDbLine
 10
29.902883
 20
19.570801
 30
0.0
 11
29.827883
 21
19.495801
 31
0.0
  0
LINE
  5
203
330
1F
100
AcDbEntity
  8
Untitled
 62
     7
370
     5
100
AcDbLine
 10
32.948968
 20
20.447255
 30
0.0
 11
32.167916
 21
20.447255
 31
0.0
  0
LINE
  5
204
330
1F
100
AcDbEntity
  8
Untitled
 62
     7
370
     5
100
AcDbLine
 10
32.167916
 20
21.228255
 30
0.0
 11
32.948968
 21
21.228255
 31
0.0
  0
LINE
  5
205
330
1F
100
AcDbEntity
  8
Untitled
 62
     7
370
     5
100
AcDbLine
 10
29.777883
 20
22.179708
 30
0.0
 11
29.777883
 21
24.837755
 31
0.0
  0
LINE
  5
206
330
1F
100
AcDbEntity
  8
Untitled
 62
     7
370
     5
100
AcDbLine
 10
30.279916
 20
20.396255
 30
0.0
 11
30.805916
 21
20.396255
 31
0.0
  0
LINE
  5
207
330
1F
100
AcDbEntity
  8
Untitled
 62
     7
370
     5
100
AcDbLine
 10
30.805916
 20
21.279255
 30
0.0
 11
30.279916
 21
21.279255
 31
0.0
  0
LINE
  5
208
330
1F
100
AcDbEntity
  8
Untitled
 62
     7
370
     5
100
AcDbLine
 10
30.104916
 20
21.279255
 30
0.0
 11
30.104916
 21
20.396255
 31
0.0
  0
LINE
  5
209
330
1F
100
AcDbEntity
  8
Untitled
 62
     7
370
     5
100
AcDbLine
 10
30.229916
 20
21.279255
 30
0.0
 11
30.229916
 21
20.396255
 31
0.0
  0
LINE
  5
20A
330
1F
100
AcDbEntity
  8
Untitled
 62
     7
370
     5
100
AcDbLine
 10
30.279916
 20
21.279255
 30
0.0
 11
30.279916
 21
20.396255
 31
0.0
  0
LINE
  5
20B
330
1F
100
AcDbEntity
  8
Untitled
 62
     7
370
     5
100
AcDbLine
 10
30.104916
 20
20.396255
 30
0.0
 11
30.229916
 21
20.396255
 31
0.0
  0
LINE
  5
20C
330
1F
100
AcDbEntity
  8
Untitled
 62
     7
370
     5
100
AcDbLine
 10
30.254916
 20
20.446255
 30
0.0
 11
30.229916
 21
20.396255
 31
0.0
  0
LINE
  5
20D
330
1F
100
AcDbEntity
  8
Untitled
 62
     7
370
     5
100
AcDbLine
 10
30.254916
 20
20.446255
 30
0.0
 11
30.279916
 21
20.396255
 31
0.0
  0
LINE
  5
20E
330
1F
100
AcDbEntity
  8
Untitled
 62
     7
370
     5
100
AcDbLine
 10
29.852883
 20
19.994801
 30
0.0
 11
29.902883
 21
19.969801
 31
0.0
  0
LINE
  5
20F
330
1F
100
AcDbEntity
  8
Untitled
 62
     7
370
     5
100
AcDbLine
 10
29.902883
 20
20.144801
 30
0.0
 11
29.902883
 21
20.019801
 31
0.0
  0
LINE
  5
210
330
1F
100
AcDbEntity
  8
Untitled
 62
     7
370
     5
100
AcDbLine
 10
29.902883
 20
20.019801
 30
0.0
 11
29.852883
 21
19.994801
 31
0.0
  0
LINE
  5
211
330
1F
100
AcDbEntity
  8
Untitled
 62
     7
370
     5
100
AcDbLine
 10
29.902883
 20
19.969801
 30
0.0
 11
29.902883
 21
19.570801
 31
0.0
  0
ELLIPSE
  5
212
330
1F
100
AcDbEntity
  8
Untitled
 62
     7
370
     5
100
AcDbEllipse
 10
29.277883
 20
20.837755
 30
0.0
 11
0.9374999999999682
 21
0.0
 31
0.0
210
0.0
220
0.0
230
1.0
 40
1.0
 41
5.451377166982825
 42
5.792836829004796
  0
LINE
  5
213
330
1F
100
AcDbEntity
  8
Untitled
 62
     7
370
     5
100
AcDbLine
 10
30.229916
 20
21.279255
 30
0.0
 11
30.104916
 21
21.279255
 31
0.0
  0
LINE
  5
214
330
1F
100
AcDbEntity
  8
Untitled
 62
     7
370
     5
100
AcDbLine
 10
30.215383
 20
21.279255
 30
0.0
 11
30.104916
 21
21.279255
 31
0.0
  0
LINE
  5
215
330
1F
100
AcDbEntity
  8
Untitled
 62
     7
370
     5
100
AcDbLine
 10
30.254916
 20
21.229255
 30
0.0
 11
30.229916
 21
21.279255
 31
0.0
  0
LINE
  5
216
330
1F
100
AcDbEntity
  8
Untitled
 62
     7
370
     5
100
AcDbLine
 10
30.254916
 20
21.229255
 30
0.0
 11
30.279916
 21
21.279255
 31
0.0
  0
LINE
  5
217
330
1F
100
AcDbEntity
  8
Untitled
 62
     7
370
     5
100
AcDbLine
 10
29.827883
 20
22.179708
 30
0.0
 11
29.902883
 21
22.104708
 31
0.0
  0
LINE
  5
218
330
1F
100
AcDbEntity
  8
Untitled
 62
     7
370
     5
100
AcDbLine
 10
29.902883
 20
21.655708
 30
0.0
 11
29.902883
 21
21.530708
 31
0.0
  0
LINE
  5
219
330
1F
100
AcDbEntity
  8
Untitled
 62
     7
370
     5
100
AcDbLine
 10
29.852883
 20
21.680708
 30
0.0
 11
29.902883
 21
21.655708
 31
0.0
  0
LINE
  5
21A
330
1F
100
AcDbEntity
  8
Untitled
 62
     7
370
     5
100
AcDbLine
 10
29.902883
 20
22.104708
 30
0.0
 11
29.902883
 21
21.705708
 31
0.0
  0
LINE
  5
21B
330
1F
100
AcDbEntity
  8
Untitled
 62
     7
370
     5
100
AcDbLine
 10
29.902883
 20
21.705708
 30
0.0
 11
29.852883
 21
21.680708
 31
0.0
  0
ELLIPSE
  5
21C
330
1F
100
AcDbEntity
  8
Untitled
 62
     7
370
     5
100
AcDbEllipse
 10
29.277883
 20
20.837755
 30
0.0
 11
0.9375000000000075
 21
0.0
 31
0.0
210
0.0
220
0.0
230
1.0
 40
1.0
 41
0.4903484781748113
 42
0.831808140196786
  0
ELLIPSE
  5
21D
330
1F
100
AcDbEntity
  8
Untitled
 62
     7
370
     5
100
AcDbEllipse
 10
31.756314
 20
19.400255
 30
0.0
 11
1.125000000000009
 21
0.0
 31
0.0
210
0.0
220
0.0
230
1.0
 40
1.0
 41
1.196230791757271
 42
1.570796326794897
  0
ELLIPSE
  5
21E
330
1F
100
AcDbEntity
  8
Untitled
 62
     7
370
     5
100
AcDbEllipse
 10
31.756314
 20
22.275255
 30
0.0
 11
1.125
 21
0.0
 31
0.0
210
0.0
220
0.0
230
1.0
 40
1.0
 41
4.71238898038469
 42
5.086954515422311
  0
LINE
  5
21F
330
1F
100
AcDbEntity
  8
Untitled
 62
     7
370
     5
100
AcDbLine
 10
30.880916
 20
20.471255
 30
0.0
 11
30.880916
 21
21.204255
 31
0.0
  0
LINE
  5
220
330
1F
100
AcDbEntity
  8
Untitled
 62
     7
370
     5
100
AcDbLine
 10
30.805916
 20
21.279255
 30
0.0
 11
30.805916
 21
20.396255
 31
0.0
  0
LINE
  5
221
330
1F
100
AcDbEntity
  8
Untitled
 62
     7
370
     5
100
AcDbLine
 10
30.805916
 20
20.396255
 30
0.0
 11
30.880916
 21
20.471255
 31
0.0
  0
LINE
  5
222
330
1F
100
AcDbEntity
  8
Untitled
 62
     7
370
     5
100
AcDbLine
 10
30.880916
 20
20.525255
 30
0.0
 11
31.756314
 21
20.525255
 31
0.0
  0
LINE
  5
223
330
1F
100
AcDbEntity
  8
Untitled
 62
     7
370
     5
100
AcDbLine
 10
30.880916
 20
21.204255
 30
0.0
 11
30.805916
 21
21.279255
 31
0.0
  0
LINE
  5
224
330
1F
100
AcDbEntity
  8
Untitled
 62
     7
370
     5
100
AcDbLine
 10
30.880916
 20
21.150255
 30
0.0
 11
31.756314
 21
21.150255
 31
0.0
  0
LINE
  5
225
330
1F
100
AcDbEntity
  8
Untitled
 62
     7
370
     5
100
AcDbLine
 10
32.167916
 20
20.447255
 30
0.0
 11
32.167916
 21
21.228255
 31
0.0
  0
ELLIPSE
  5
226
330
1F
100
AcDbEntity
  8
Untitled
 62
     7
370
     5
100
AcDbEllipse
 10
30.045383
 20
25.792755
 30
0.0
 11
0.1074999999999992
 21
0.0
 31
0.0
210
0.0
220
0.0
230
1.0
 40
1.0
 41
4.712388841893929
 42
7.853981633974483
  0
LINE
  5
227
330
1F
100
AcDbEntity
  8
Untitled
 62
     7
370
     5
100
AcDbLine
 10
29.872883
 20
24.887755
 30
0.0
 11
29.872883
 21
25.087755
 31
0.0
  0
LINE
  5
228
330
1F
100
AcDbEntity
  8
Untitled
 62
     7
370
     5
100
AcDbLine
 10
29.822883
 20
24.837755
 30
0.0
 11
29.872883
 21
24.887755
 31
0.0
  0
ELLIPSE
  5
229
330
1F
100
AcDbEntity
  8
Untitled
 62
     7
370
     5
100
AcDbEllipse
 10
29.872883
 20
25.181505
 30
0.0
 11
0.09374999999996092
 21
0.0
 31
0.0
210
0.0
220
0.0
230
1.0
 40
1.0
 41
4.71238898038469
 42
7.47138207345149
  0
LINE
  5
22A
330
1F
100
AcDbEntity
  8
Untitled
 62
     7
370
     5
100
AcDbLine
 10
29.907883
 20
25.268476
 30
0.0
 11
29.907883
 21
25.438476
 31
0.0
  0
ELLIPSE
  5
22B
330
1F
100
AcDbEntity
  8
Untitled
 62
     7
370
     5
100
AcDbEllipse
 10
30.192868
 20
25.441383
 30
0.0
 11
0.2850000000000179
 21
0.0
 31
0.0
210
0.0
220
0.0
230
1.0
 40
1.0
 41
2.114713475801794
 42
3.151795475840084
  0
ELLIPSE
  5
22C
330
1F
100
AcDbEntity
  8
Untitled
 62
     7
370
     5
100
AcDbEllipse
 10
31.893916
 20
20.837755
 30
0.0
 11
1.124999999999971
 21
0.0
 31
0.0
210
0.0
220
0.0
230
1.0
 40
1.0
 41
5.928696383321975
 42
6.637674231037201
  0
LINE
  5
22D
330
1F
100
AcDbEntity
  8
Untitled
 62
     7
370
     5
100
AcDbLine
 10
32.948968
 20
21.228255
 30
0.0
 11
32.948968
 21
20.447255
 31
0.0
  0
LINE
  5
22E
330
1F
100
AcDbEntity
  8
Untitled
 62
     7
370
     5
100
AcDbLine
 10
59.913883
 20
-6.099745
 30
0.0
 11
58.641883
 21
-6.099745
 31
0.0
  0
LINE
  5
22F
330
1F
100
AcDbEntity
  8
Untitled
 62
     7
370
     5
100
AcDbLine
 10
59.951499
 20
-5.922739
 30
0.0
 11
58.604266
 21
-5.922739
 31
0.0
  0
LINE
  5
230
330
1F
100
AcDbEntity
  8
Untitled
 62
     7
370
     5
100
AcDbLine
 10
59.933451
 20
-5.82741
 30
0.0
 11
58.622314
 21
-5.82741
 31
0.0
  0
LINE
  5
231
330
1F
100
AcDbEntity
  8
Untitled
 62
     7
370
     5
100
AcDbLine
 10
58.596411
 20
-4.718848
 30
0.0
 11
59.959354
 21
-4.718849
 31
0.0
  0
LINE
  5
232
330
1F
100
AcDbEntity
  8
Untitled
 62
     7
370
     5
100
AcDbLine
 10
59.87494
 20
-4.190134
 30
0.0
 11
58.680825
 21
-4.190134
 31
0.0
  0
LINE
  5
233
330
1F
100
AcDbEntity
  8
Untitled
 62
     7
370
     5
100
AcDbLine
 10
59.87494
 20
-4.315134
 30
0.0
 11
58.680825
 21
-4.315134
 31
0.0
  0
LINE
  5
234
330
1F
100
AcDbEntity
  8
Untitled
 62
     7
370
     5
100
AcDbLine
 10
59.928953
 20
-4.482726
 30
0.0
 11
58.626812
 21
-4.482726
 31
0.0
  0
LINE
  5
235
330
1F
100
AcDbEntity
  8
Untitled
 62
     7
370
     5
100
AcDbLine
 10
59.82494
 20
-4.140134
 30
0.0
 11
58.730825
 21
-4.140134
 31
0.0
  0
LINE
  5
236
330
1F
100
AcDbEntity
  8
Untitled
 62
     7
370
     5
100
AcDbLine
 10
38.840383
 20
4.650255
 30
0.0
 11
60.715383
 21
4.650255
 31
0.0
  0
LINE
  5
237
330
1F
100
AcDbEntity
  8
Untitled
 62
     7
370
     5
100
AcDbLine
 10
60.715383
 20
3.900255
 30
0.0
 11
38.840383
 21
3.900255
 31
0.0
  0
LINE
  5
238
330
1F
100
AcDbEntity
  8
Untitled
 62
     7
370
     5
100
AcDbLine
 10
38.777883
 20
4.587755
 30
0.0
 11
60.777883
 21
4.587755
 31
0.0
  0
LINE
  5
239
330
1F
100
AcDbEntity
  8
Untitled
 62
     7
370
     5
100
AcDbLine
 10
38.777883
 20
3.962755
 30
0.0
 11
60.777883
 21
3.962755
 31
0.0
  0
LINE
  5
23A
330
1F
100
AcDbEntity
  8
Untitled
 62
     7
370
     5
100
AcDbLine
 10
60.200383
 20
3.837755
 30
0.0
 11
58.355383
 21
3.837755
 31
0.0
  0
LINE
  5
23B
330
1F
100
AcDbEntity
  8
Untitled
 62
     7
370
     5
100
AcDbLine
 10
60.215383
 20
3.585255
 30
0.0
 11
58.340383
 21
3.585255
 31
0.0
  0
LINE
  5
23C
330
1F
100
AcDbEntity
  8
Untitled
 62
     7
370
     5
100
AcDbLine
 10
60.045084
 20
3.522755
 30
0.0
 11
58.510681
 21
3.522755
 31
0.0
  0
LINE
  5
23D
330
1F
100
AcDbEntity
  8
Untitled
 62
     7
370
     5
100
AcDbLine
 10
58.549683
 20
3.509092
 30
0.0
 11
60.006082
 21
3.509092
 31
0.0
  0
LINE
  5
23E
330
1F
100
AcDbEntity
  8
Untitled
 62
     7
370
     5
100
AcDbLine
 10
59.845383
 20
3.380755
 30
0.0
 11
58.710383
 21
3.380755
 31
0.0
  0
LINE
  5
23F
330
1F
100
AcDbEntity
  8
Untitled
 62
     7
370
     5
100
AcDbLine
 10
60.200383
 20
4.712755
 30
0.0
 11
58.355383
 21
4.712755
 31
0.0
  0
LINE
  5
240
330
1F
100
AcDbEntity
  8
Untitled
 62
     7
370
     5
100
AcDbLine
 10
60.215383
 20
4.965255
 30
0.0
 11
58.340383
 21
4.965255
 31
0.0
  0
LINE
  5
241
330
1F
100
AcDbEntity
  8
Untitled
 62
     7
370
     5
100
AcDbLine
 10
60.045084
 20
5.027755
 30
0.0
 11
58.510681
 21
5.027755
 31
0.0
  0
LINE
  5
242
330
1F
100
AcDbEntity
  8
Untitled
 62
     7
370
     5
100
AcDbLine
 10
58.549683
 20
5.041417
 30
0.0
 11
60.006082
 21
5.041417
 31
0.0
  0
LINE
  5
243
330
1F
100
AcDbEntity
  8
Untitled
 62
     7
370
     5
100
AcDbLine
 10
59.845383
 20
5.169755
 30
0.0
 11
58.710383
 21
5.169755
 31
0.0
  0
LINE
  5
244
330
1F
100
AcDbEntity
  8
Untitled
 62
     7
370
     5
100
AcDbLine
 10
59.902883
 20
19.969801
 30
0.0
 11
58.652883
 21
19.969801
 31
0.0
  0
LINE
  5
245
330
1F
100
AcDbEntity
  8
Untitled
 62
     7
370
     5
100
AcDbLine
 10
59.902883
 20
20.019801
 30
0.0
 11
58.652883
 21
20.019801
 31
0.0
  0
LINE
  5
246
330
1F
100
AcDbEntity
  8
Untitled
 62
     7
370
     5
100
AcDbLine
 10
59.909327
 20
20.144801
 30
0.0
 11
58.646438
 21
20.144801
 31
0.0
  0
LINE
  5
247
330
1F
100
AcDbEntity
  8
Untitled
 62
     7
370
     5
100
AcDbLine
 10
59.902883
 20
19.570801
 30
0.0
 11
58.652883
 21
19.570801
 31
0.0
  0
LINE
  5
248
330
1F
100
AcDbEntity
  8
Untitled
 62
     7
370
     5
100
AcDbLine
 10
58.727883
 20
19.495801
 30
0.0
 11
59.827883
 21
19.495801
 31
0.0
  0
LINE
  5
249
330
1F
100
AcDbEntity
  8
Untitled
 62
     7
370
     5
100
AcDbLine
 10
58.652883
 20
22.104708
 30
0.0
 11
59.902883
 21
22.104708
 31
0.0
  0
LINE
  5
24A
330
1F
100
AcDbEntity
  8
Untitled
 62
     7
370
     5
100
AcDbLine
 10
58.652883
 20
21.655708
 30
0.0
 11
59.902883
 21
21.655708
 31
0.0
  0
LINE
  5
24B
330
1F
100
AcDbEntity
  8
Untitled
 62
     7
370
     5
100
AcDbLine
 10
58.652883
 20
21.705708
 30
0.0
 11
59.902883
 21
21.705708
 31
0.0
  0
LINE
  5
24C
330
1F
100
AcDbEntity
  8
Untitled
 62
     7
370
     5
100
AcDbLine
 10
59.909327
 20
21.530708
 30
0.0
 11
58.646438
 21
21.530708
 31
0.0
  0
LINE
  5
24D
330
1F
100
AcDbEntity
  8
Untitled
 62
     7
370
     5
100
AcDbLine
 10
59.827883
 20
22.179708
 30
0.0
 11
58.727883
 21
22.179708
 31
0.0
  0
LINE
  5
24E
330
1F
100
AcDbEntity
  8
Untitled
 62
     7
370
     5
100
AcDbLine
 10
58.732883
 20
24.837755
 30
0.0
 11
59.822883
 21
24.837755
 31
0.0
  0
LINE
  5
24F
330
1F
100
AcDbEntity
  8
Untitled
 62
     7
370
     5
100
AcDbLine
 10
58.510383
 20
25.685255
 30
0.0
 11
60.045383
 21
25.685255
 31
0.0
  0
LINE
  5
250
330
1F
100
AcDbEntity
  8
Untitled
 62
     7
370
     5
100
AcDbLine
 10
60.045383
 20
25.900255
 30
0.0
 11
58.510383
 21
25.900255
 31
0.0
  0
LINE
  5
251
330
1F
100
AcDbEntity
  8
Untitled
 62
     7
370
     5
100
AcDbLine
 10
58.682883
 20
24.887755
 30
0.0
 11
59.872883
 21
24.887755
 31
0.0
  0
LINE
  5
252
330
1F
100
AcDbEntity
  8
Untitled
 62
     7
370
     5
100
AcDbLine
 10
59.872883
 20
25.087755
 30
0.0
 11
58.682883
 21
25.087755
 31
0.0
  0
LINE
  5
253
330
1F
100
AcDbEntity
  8
Untitled
 62
     7
370
     5
100
AcDbLine
 10
58.647883
 20
25.268476
 30
0.0
 11
59.907883
 21
25.268476
 31
0.0
  0
ELLIPSE
  5
254
330
1F
100
AcDbEntity
  8
Untitled
 62
     7
370
     5
100
AcDbEllipse
 10
59.277883
 20
20.837755
 30
0.0
 11
0.3905000000000588
 21
0.0
 31
0.0
210
0.0
220
0.0
230
1.0
 40
1.0
 41
0.0
 42
6.283185307179586
  0
ELLIPSE
  5
255
330
1F
100
AcDbEntity
  8
Untitled
 62
     7
370
     5
100
AcDbEllipse
 10
59.277883
 20
20.837755
 30
0.0
 11
0.4415000000000673
 21
0.0
 31
0.0
210
0.0
220
0.0
230
1.0
 40
1.0
 41
3.927991857814158
 42
8.638378756545013
  0
LINE
  5
256
330
1F
100
AcDbEntity
  8
Untitled
 62
     7
370
     5
100
AcDbLine
 10
39.777883
 20
5.169755
 30
0.0
 11
39.777883
 21
19.495801
 31
0.0
  0
LINE
  5
257
330
1F
100
AcDbEntity
  8
Untitled
 62
     7
370
     5
100
AcDbLine
 10
40.777883
 20
5.170255
 30
0.0
 11
40.777883
 21
19.495801
 31
0.0
  0
LINE
  5
258
330
1F
100
AcDbEntity
  8
Untitled
 62
     7
370
     5
100
AcDbLine
 10
58.777883
 20
5.170255
 30
0.0
 11
58.777883
 21
19.495801
 31
0.0
  0
LINE
  5
259
330
1F
100
AcDbEntity
  8
Untitled
 62
     7
370
     5
100
AcDbLine
 10
40.777883
 20
-4.140134
 30
0.0
 11
40.777883
 21
3.380254
 31
0.0
  0
LINE
  5
25A
330
1F
100
AcDbEntity
  8
Untitled
 62
     7
370
     5
100
AcDbLine
 10
39.777883
 20
-4.140134
 30
0.0
 11
39.777883
 21
3.380755
 31
0.0
  0
ELLIPSE
  5
25B
330
1F
100
AcDbEntity
  8
Untitled
 62
     7
370
     5
100
AcDbEllipse
 10
40.190625
 20
-5.25547
 30
0.0
 11
0.9374999999999167
 21
0.0
 31
0.0
210
0.0
220
0.0
230
1.0
 40
1.0
 41
5.627037020253512
 42
6.892610363126012
  0
ELLIPSE
  5
25C
330
1F
100
AcDbEntity
  8
Untitled
 62
     7
370
     5
100
AcDbEllipse
 10
40.36514
 20
-5.25547
 30
0.0
 11
0.9374999999998536
 21
0.0
 31
0.0
210
0.0
220
0.0
230
1.0
 40
1.0
 41
2.532167597643436
 42
3.797740940515796
  0
ELLIPSE
  5
25D
330
1F
100
AcDbEntity
  8
Untitled
 62
     7
370
     5
100
AcDbEllipse
 10
39.641883
 20
-6.007245
 30
0.0
 11
0.09250000000002485
 21
0.0
 31
0.0
210
0.0
220
0.0
230
1.0
 40
1.0
 41
1.989592703010866
 42
4.71238898038469
  0
ELLIPSE
  5
25E
330
1F
100
AcDbEntity
  8
Untitled
 62
     7
370
     5
100
AcDbEllipse
 10
39.574571
 20
-5.867745
 30
0.0
 11
0.06250000000002148
 21
0.0
 31
0.0
210
0.0
220
0.0
230
1.0
 40
1.0
 41
5.207498220945549
 42
6.984668595130309
  0
LINE
  5
25F
330
1F
100
AcDbEntity
  8
Untitled
 62
     7
370
     5
100
AcDbLine
 10
39.641883
 20
-6.099745
 30
0.0
 11
40.913883
 21
-6.099745
 31
0.0
  0
ELLIPSE
  5
260
330
1F
100
AcDbEntity
  8
Untitled
 62
     7
370
     5
100
AcDbEllipse
 10
40.913883
 20
-6.007245
 30
0.0
 11
0.09249999999999847
 21
0.0
 31
0.0
210
0.0
220
0.0
230
1.0
 40
1.0
 41
4.71238898038469
 42
7.43518525775831
  0
ELLIPSE
  5
261
330
1F
100
AcDbEntity
  8
Untitled
 62
     7
370
     5
100
AcDbEllipse
 10
40.981194
 20
-5.867745
 30
0.0
 11
0.06249999999992205
 21
0.0
 31
0.0
210
0.0
220
0.0
230
1.0
 40
1.0
 41
2.440109365631643
 42
4.217279739823066
  0
LINE
  5
262
330
1F
100
AcDbEntity
  8
Untitled
 62
     7
370
     5
100
AcDbLine
 10
39.604266
 20
-5.922739
 30
0.0
 11
40.951499
 21
-5.922739
 31
0.0
  0
LINE
  5
263
330
1F
100
AcDbEntity
  8
Untitled
 62
     7
370
     5
100
AcDbLine
 10
39.622314
 20
-5.82741
 30
0.0
 11
40.933451
 21
-5.82741
 31
0.0
  0
ELLIPSE
  5
264
330
1F
100
AcDbEntity
  8
Untitled
 62
     7
370
     5
100
AcDbEllipse
 10
39.273969
 20
-4.537241
 30
0.0
 11
0.3700674578494124
 21
0.0
 31
0.0
210
0.0
220
0.0
230
1.0
 40
1.0
 41
5.770244533803297
 42
6.307653324765333
  0
ELLIPSE
  5
265
330
1F
100
AcDbEntity
  8
Untitled
 62
     7
370
     5
100
AcDbEllipse
 10
39.680825
 20
-4.407634
 30
0.0
 11
0.09249999999999724
 21
0.0
 31
0.0
210
0.0
220
0.0
230
1.0
 40
1.0
 41
1.570795443802748
 42
4.08883354148616
  0
ELLIPSE
  5
266
330
1F
100
AcDbEntity
  8
Untitled
 62
     7
370
     5
100
AcDbEllipse
 10
39.584022
 20
-4.524786
 30
0.0
 11
0.06000000000018574
 21
0.0
 31
0.0
210
0.0
220
0.0
230
1.0
 40
1.0
 41
6.22647603977867
 42
7.059987389271018
  0
LINE
  5
267
330
1F
100
AcDbEntity
  8
Untitled
 62
     7
370
     5
100
AcDbLine
 10
39.680825
 20
-4.315134
 30
0.0
 11
39.680825
 21
-4.190134
 31
0.0
  0
LINE
  5
268
330
1F
100
AcDbEntity
  8
Untitled
 62
     7
370
     5
100
AcDbLine
 10
39.730825
 20
-4.140134
 30
0.0
 11
39.680825
 21
-4.190134
 31
0.0
  0
ELLIPSE
  5
269
330
1F
100
AcDbEntity
  8
Untitled
 62
     7
370
     5
100
AcDbEllipse
 10
41.281796
 20
-4.537241
 30
0.0
 11
0.3700674578496
 21
0.0
 31
0.0
210
0.0
220
0.0
230
1.0
 40
1.0
 41
3.117124636004051
 42
3.654533426966323
  0
ELLIPSE
  5
26A
330
1F
100
AcDbEntity
  8
Untitled
 62
     7
370
     5
100
AcDbEllipse
 10
40.87494
 20
-4.407634
 30
0.0
 11
0.09250000000015807
 21
0.0
 31
0.0
210
0.0
220
0.0
230
1.0
 40
1.0
 41
5.335944419287154
 42
7.85398251696233
  0
ELLIPSE
  5
26B
330
1F
100
AcDbEntity
  8
Untitled
 62
     7
370
     5
100
AcDbEllipse
 10
40.971743
 20
-4.524786
 30
0.0
 11
0.06000000000007662
 21
0.0
 31
0.0
210
0.0
220
0.0
230
1.0
 40
1.0
 41
2.364790571499738
 42
3.198301920990706
  0
LINE
  5
26C
330
1F
100
AcDbEntity
  8
Untitled
 62
     7
370
     5
100
AcDbLine
 10
40.87494
 20
-4.315134
 30
0.0
 11
40.87494
 21
-4.190134
 31
0.0
  0
LINE
  5
26D
330
1F
100
AcDbEntity
  8
Untitled
 62
     7
370
     5
100
AcDbLine
 10
40.82494
 20
-4.140134
 30
0.0
 11
40.87494
 21
-4.190134
 31
0.0
  0
LINE
  5
26E
330
1F
100
AcDbEntity
  8
Untitled
 62
     7
370
     5
100
AcDbLine
 10
39.730825
 20
-4.140134
 30
0.0
 11
40.82494
 21
-4.140134
 31
0.0
  0
LINE
  5
26F
330
1F
100
AcDbEntity
  8
Untitled
 62
     7
370
     5
100
AcDbLine
 10
39.680825
 20
-4.190134
 30
0.0
 11
40.87494
 21
-4.190134
 31
0.0
  0
LINE
  5
270
330
1F
100
AcDbEntity
  8
Untitled
 62
     7
370
     5
100
AcDbLine
 10
39.680825
 20
-4.315134
 30
0.0
 11
40.87494
 21
-4.315134
 31
0.0
  0
LINE
  5
271
330
1F
100
AcDbEntity
  8
Untitled
 62
     7
370
     5
100
AcDbLine
 10
39.626812
 20
-4.482726
 30
0.0
 11
40.928953
 21
-4.482726
 31
0.0
  0
LINE
  5
272
330
1F
100
AcDbEntity
  8
Untitled
 62
     7
370
     5
100
AcDbLine
 10
40.959354
 20
-4.718848
 30
0.0
 11
39.596411
 21
-4.718849
 31
0.0
  0
LINE
  5
273
330
1F
100
AcDbEntity
  8
Untitled
 62
     7
370
     5
100
AcDbLine
 10
39.710383
 20
5.169755
 30
0.0
 11
39.549683
 21
5.041417
 31
0.0
  0
LINE
  5
274
330
1F
100
AcDbEntity
  8
Untitled
 62
     7
370
     5
100
AcDbLine
 10
40.845383
 20
5.169755
 30
0.0
 11
41.006082
 21
5.041417
 31
0.0
  0
LINE
  5
275
330
1F
100
AcDbEntity
  8
Untitled
 62
     7
370
     5
100
AcDbLine
 10
39.355383
 20
4.712755
 30
0.0
 11
41.200383
 21
4.712755
 31
0.0
  0
LINE
  5
276
330
1F
100
AcDbEntity
  8
Untitled
 62
     7
370
     5
100
AcDbLine
 10
39.340383
 20
4.965255
 30
0.0
 11
41.215383
 21
4.965255
 31
0.0
  0
LINE
  5
277
330
1F
100
AcDbEntity
  8
Untitled
 62
     7
370
     5
100
AcDbLine
 10
39.510681
 20
5.027755
 30
0.0
 11
41.045084
 21
5.027755
 31
0.0
  0
LINE
  5
278
330
1F
100
AcDbEntity
  8
Untitled
 62
     7
370
     5
100
AcDbLine
 10
39.355383
 20
3.837755
 30
0.0
 11
41.200383
 21
3.837755
 31
0.0
  0
LINE
  5
279
330
1F
100
AcDbEntity
  8
Untitled
 62
     7
370
     5
100
AcDbLine
 10
39.340383
 20
3.585255
 30
0.0
 11
41.215383
 21
3.585255
 31
0.0
  0
LINE
  5
27A
330
1F
100
AcDbEntity
  8
Untitled
 62
     7
370
     5
100
AcDbLine
 10
39.510681
 20
3.522755
 30
0.0
 11
41.045084
 21
3.522755
 31
0.0
  0
ELLIPSE
  5
27B
330
1F
100
AcDbEntity
  8
Untitled
 62
     7
370
     5
100
AcDbEllipse
 10
41.045084
 20
5.090255
 30
0.0
 11
0.06249999999873003
 21
0.0
 31
0.0
210
0.0
220
0.0
230
1.0
 40
1.0
 41
4.038492630687997
 42
4.71238898038469
  0
ELLIPSE
  5
27C
330
1F
100
AcDbEntity
  8
Untitled
 62
     7
370
     5
100
AcDbEllipse
 10
41.045084
 20
3.460255
 30
0.0
 11
0.06249999999874056
 21
0.0
 31
0.0
210
0.0
220
0.0
230
1.0
 40
1.0
 41
1.570796326794897
 42
2.244692676491465
  0
LINE
  5
27D
330
1F
100
AcDbEntity
  8
Untitled
 62
     7
370
     5
100
AcDbLine
 10
41.006082
 20
5.041417
 30
0.0
 11
39.549683
 21
5.041417
 31
0.0
  0
LINE
  5
27E
330
1F
100
AcDbEntity
  8
Untitled
 62
     7
370
     5
100
AcDbLine
 10
39.710383
 20
3.380755
 30
0.0
 11
40.845383
 21
3.380755
 31
0.0
  0
LINE
  5
27F
330
1F
100
AcDbEntity
  8
Untitled
 62
     7
370
     5
100
AcDbLine
 10
41.006082
 20
3.509092
 30
0.0
 11
39.549683
 21
3.509092
 31
0.0
  0
LINE
  5
280
330
1F
100
AcDbEntity
  8
Untitled
 62
     7
370
     5
100
AcDbLine
 10
39.340383
 20
4.965255
 30
0.0
 11
39.340383
 21
4.727755
 31
0.0
  0
ELLIPSE
  5
281
330
1F
100
AcDbEntity
  8
Untitled
 62
     7
370
     5
100
AcDbEllipse
 10
39.402883
 20
4.965255
 30
0.0
 11
0.06250000000003997
 21
0.0
 31
0.0
210
0.0
220
0.0
230
1.0
 40
1.0
 41
1.570796326794897
 42
3.141592653589793
  0
ELLIPSE
  5
282
330
1F
100
AcDbEntity
  8
Untitled
 62
     7
370
     5
100
AcDbEllipse
 10
39.510681
 20
5.090255
 30
0.0
 11
0.06250000000007816
 21
0.0
 31
0.0
210
0.0
220
0.0
230
1.0
 40
1.0
 41
4.71238898038469
 42
5.386285330080282
  0
LINE
  5
283
330
1F
100
AcDbEntity
  8
Untitled
 62
     7
370
     5
100
AcDbLine
 10
39.402883
 20
5.027755
 30
0.0
 11
39.510681
 21
5.027755
 31
0.0
  0
ELLIPSE
  5
284
330
1F
100
AcDbEntity
  8
Untitled
 62
     7
370
     5
100
AcDbEllipse
 10
39.355383
 20
4.727755
 30
0.0
 11
0.01500000000000057
 21
0.0
 31
0.0
210
0.0
220
0.0
230
1.0
 40
1.0
 41
3.141592653589793
 42
4.71238898038469
  0
LINE
  5
285
330
1F
100
AcDbEntity
  8
Untitled
 62
     7
370
     5
100
AcDbLine
 10
38.777883
 20
3.962755
 30
0.0
 11
38.777883
 21
4.587755
 31
0.0
  0
ELLIPSE
  5
286
330
1F
100
AcDbEntity
  8
Untitled
 62
     7
370
     5
100
AcDbEllipse
 10
38.840383
 20
4.587755
 30
0.0
 11
0.0625
 21
0.0
 31
0.0
210
0.0
220
0.0
230
1.0
 40
1.0
 41
1.570796326794897
 42
3.141592653589793
  0
ELLIPSE
  5
287
330
1F
100
AcDbEntity
  8
Untitled
 62
     7
370
     5
100
AcDbEllipse
 10
38.840383
 20
3.962755
 30
0.0
 11
0.0625
 21
0.0
 31
0.0
210
0.0
220
0.0
230
1.0
 40
1.0
 41
3.141592653589793
 42
4.71238898038469
  0
LINE
  5
288
330
1F
100
AcDbEntity
  8
Untitled
 62
     7
370
     5
100
AcDbLine
 10
39.402883
 20
4.712755
 30
0.0
 11
39.402883
 21
4.650255
 31
0.0
  0
LINE
  5
289
330
1F
100
AcDbEntity
  8
Untitled
 62
     7
370
     5
100
AcDbLine
 10
39.402883
 20
3.522755
 30
0.0
 11
39.510681
 21
3.522755
 31
0.0
  0
LINE
  5
28A
330
1F
100
AcDbEntity
  8
Untitled
 62
     7
370
     5
100
AcDbLine
 10
39.340383
 20
3.585255
 30
0.0
 11
39.340383
 21
3.822755
 31
0.0
  0
ELLIPSE
  5
28B
330
1F
100
AcDbEntity
  8
Untitled
 62
     7
370
     5
100
AcDbEllipse
 10
39.402883
 20
3.585255
 30
0.0
 11
0.06249999999999289
 21
0.0
 31
0.0
210
0.0
220
0.0
230
1.0
 40
1.0
 41
3.141592653589793
 42
4.71238898038469
  0
ELLIPSE
  5
28C
330
1F
100
AcDbEntity
  8
Untitled
 62
     7
370
     5
100
AcDbEllipse
 10
39.355383
 20
3.822755
 30
0.0
 11
0.01499999999999213
 21
0.0
 31
0.0
210
0.0
220
0.0
230
1.0
 40
1.0
 41
1.570796326794897
 42
3.141592653589793
  0
LINE
  5
28D
330
1F
100
AcDbEntity
  8
Untitled
 62
     7
370
     5
100
AcDbLine
 10
39.402883
 20
3.837755
 30
0.0
 11
39.402883
 21
3.900255
 31
0.0
  0
LINE
  5
28E
330
1F
100
AcDbEntity
  8
Untitled
 62
     7
370
     5
100
AcDbLine
 10
39.710383
 20
3.380755
 30
0.0
 11
39.549683
 21
3.509092
 31
0.0
  0
ELLIPSE
  5
28F
330
1F
100
AcDbEntity
  8
Untitled
 62
     7
370
     5
100
AcDbEllipse
 10
39.510681
 20
3.460255
 30
0.0
 11
0.0625000000000533
 21
0.0
 31
0.0
210
0.0
220
0.0
230
1.0
 40
1.0
 41
0.8968999770989629
 42
1.570796326794897
  0
LINE
  5
290
330
1F
100
AcDbEntity
  8
Untitled
 62
     7
370
     5
100
AcDbLine
 10
40.845383
 20
3.380755
 30
0.0
 11
41.006082
 21
3.509092
 31
0.0
  0
LINE
  5
291
330
1F
100
AcDbEntity
  8
Untitled
 62
     7
370
     5
100
AcDbLine
 10
41.215383
 20
4.727755
 30
0.0
 11
41.215383
 21
4.965255
 31
0.0
  0
ELLIPSE
  5
292
330
1F
100
AcDbEntity
  8
Untitled
 62
     7
370
     5
100
AcDbEllipse
 10
41.152883
 20
4.965255
 30
0.0
 11
0.06250000000000711
 21
0.0
 31
0.0
210
0.0
220
0.0
230
1.0
 40
1.0
 41
0.0
 42
1.570796326794897
  0
LINE
  5
293
330
1F
100
AcDbEntity
  8
Untitled
 62
     7
370
     5
100
AcDbLine
 10
41.152883
 20
5.027755
 30
0.0
 11
41.045084
 21
5.027755
 31
0.0
  0
ELLIPSE
  5
294
330
1F
100
AcDbEntity
  8
Untitled
 62
     7
370
     5
100
AcDbEllipse
 10
41.200383
 20
4.727755
 30
0.0
 11
0.01500000000003876
 21
0.0
 31
0.0
210
0.0
220
0.0
230
1.0
 40
1.0
 41
4.71238898038469
 42
6.283185307179586
  0
LINE
  5
295
330
1F
100
AcDbEntity
  8
Untitled
 62
     7
370
     5
100
AcDbLine
 10
41.152883
 20
4.712755
 30
0.0
 11
41.152883
 21
4.650255
 31
0.0
  0
LINE
  5
296
330
1F
100
AcDbEntity
  8
Untitled
 62
     7
370
     5
100
AcDbLine
 10
41.215383
 20
3.822755
 30
0.0
 11
41.215383
 21
3.585255
 31
0.0
  0
ELLIPSE
  5
297
330
1F
100
AcDbEntity
  8
Untitled
 62
     7
370
     5
100
AcDbEllipse
 10
41.152883
 20
3.585255
 30
0.0
 11
0.06250000000003952
 21
0.0
 31
0.0
210
0.0
220
0.0
230
1.0
 40
1.0
 41
4.71238898038469
 42
6.283185307179586
  0
LINE
  5
298
330
1F
100
AcDbEntity
  8
Untitled
 62
     7
370
     5
100
AcDbLine
 10
41.152883
 20
3.522755
 30
0.0
 11
41.045084
 21
3.522755
 31
0.0
  0
ELLIPSE
  5
299
330
1F
100
AcDbEntity
  8
Untitled
 62
     7
370
     5
100
AcDbEllipse
 10
41.200383
 20
3.822755
 30
0.0
 11
0.01500000000000767
 21
0.0
 31
0.0
210
0.0
220
0.0
230
1.0
 40
1.0
 41
0.0
 42
1.570796326794897
  0
LINE
  5
29A
330
1F
100
AcDbEntity
  8
Untitled
 62
     7
370
     5
100
AcDbLine
 10
41.152883
 20
3.837755
 30
0.0
 11
41.152883
 21
3.900255
 31
0.0
  0
LINE
  5
29B
330
1F
100
AcDbEntity
  8
Untitled
 62
     7
370
     5
100
AcDbLine
 10
39.710383
 20
5.169755
 30
0.0
 11
40.845383
 21
5.169755
 31
0.0
  0
LINE
  5
29C
330
1F
100
AcDbEntity
  8
Untitled
 62
     7
370
     5
100
AcDbLine
 10
58.777883
 20
-4.140134
 30
0.0
 11
58.777883
 21
3.380254
 31
0.0
  0
ELLIPSE
  5
29D
330
1F
100
AcDbEntity
  8
Untitled
 62
     7
370
     5
100
AcDbEllipse
 10
59.36514
 20
-5.25547
 30
0.0
 11
0.9374999999998593
 21
0.0
 31
0.0
210
0.0
220
0.0
230
1.0
 40
1.0
 41
2.532167597643441
 42
3.797740940515788
  0
ELLIPSE
  5
29E
330
1F
100
AcDbEntity
  8
Untitled
 62
     7
370
     5
100
AcDbEllipse
 10
58.641883
 20
-6.007245
 30
0.0
 11
0.09250000000002774
 21
0.0
 31
0.0
210
0.0
220
0.0
230
1.0
 40
1.0
 41
1.989592703010936
 42
4.71238898038469
  0
ELLIPSE
  5
29F
330
1F
100
AcDbEntity
  8
Untitled
 62
     7
370
     5
100
AcDbEllipse
 10
58.273969
 20
-4.537241
 30
0.0
 11
0.3700674578494675
 21
0.0
 31
0.0
210
0.0
220
0.0
230
1.0
 40
1.0
 41
5.770244533803503
 42
6.307653324765433
  0
ELLIPSE
  5
2A0
330
1F
100
AcDbEntity
  8
Untitled
 62
     7
370
     5
100
AcDbEllipse
 10
58.574571
 20
-5.867745
 30
0.0
 11
0.06249999999998372
 21
0.0
 31
0.0
210
0.0
220
0.0
230
1.0
 40
1.0
 41
5.207498220945746
 42
6.984668595138759
  0
ELLIPSE
  5
2A1
330
1F
100
AcDbEntity
  8
Untitled
 62
     7
370
     5
100
AcDbEllipse
 10
58.680825
 20
-4.407634
 30
0.0
 11
0.09250000000003632
 21
0.0
 31
0.0
210
0.0
220
0.0
230
1.0
 40
1.0
 41
1.570795443807049
 42
4.088833541481188
  0
ELLIPSE
  5
2A2
330
1F
100
AcDbEntity
  8
Untitled
 62
     7
370
     5
100
AcDbEllipse
 10
58.584022
 20
-4.524786
 30
0.0
 11
0.06000000000019771
 21
0.0
 31
0.0
210
0.0
220
0.0
230
1.0
 40
1.0
 41
6.226476039779334
 42
7.059987389270862
  0
LINE
  5
2A3
330
1F
100
AcDbEntity
  8
Untitled
 62
     7
370
     5
100
AcDbLine
 10
58.680825
 20
-4.315134
 30
0.0
 11
58.680825
 21
-4.190134
 31
0.0
  0
LINE
  5
2A4
330
1F
100
AcDbEntity
  8
Untitled
 62
     7
370
     5
100
AcDbLine
 10
58.730825
 20
-4.140134
 30
0.0
 11
58.680825
 21
-4.190134
 31
0.0
  0
LINE
  5
2A5
330
1F
100
AcDbEntity
  8
Untitled
 62
     7
370
     5
100
AcDbLine
 10
58.710383
 20
3.380755
 30
0.0
 11
58.549683
 21
3.509092
 31
0.0
  0
LINE
  5
2A6
330
1F
100
AcDbEntity
  8
Untitled
 62
     7
370
     5
100
AcDbLine
 10
58.340383
 20
3.822755
 30
0.0
 11
58.340383
 21
3.585255
 31
0.0
  0
ELLIPSE
  5
2A7
330
1F
100
AcDbEntity
  8
Untitled
 62
     7
370
     5
100
AcDbEllipse
 10
58.402883
 20
3.585255
 30
0.0
 11
0.06250000000000711
 21
0.0
 31
0.0
210
0.0
220
0.0
230
1.0
 40
1.0
 41
3.141592653589793
 42
4.71238898038469
  0
ELLIPSE
  5
2A8
330
1F
100
AcDbEntity
  8
Untitled
 62
     7
370
     5
100
AcDbEllipse
 10
58.510681
 20
3.460255
 30
0.0
 11
0.06249999999872413
 21
0.0
 31
0.0
210
0.0
220
0.0
230
1.0
 40
1.0
 41
0.8968999770981285
 42
1.570796326794897
  0
LINE
  5
2A9
330
1F
100
AcDbEntity
  8
Untitled
 62
     7
370
     5
100
AcDbLine
 10
58.402883
 20
3.522755
 30
0.0
 11
58.510681
 21
3.522755
 31
0.0
  0
ELLIPSE
  5
2AA
330
1F
100
AcDbEntity
  8
Untitled
 62
     7
370
     5
100
AcDbEllipse
 10
58.355383
 20
3.822755
 30
0.0
 11
0.01500000000004365
 21
0.0
 31
0.0
210
0.0
220
0.0
230
1.0
 40
1.0
 41
1.570796326794897
 42
3.141592653589793
  0
LINE
  5
2AB
330
1F
100
AcDbEntity
  8
Untitled
 62
     7
370
     5
100
AcDbLine
 10
58.402883
 20
3.837755
 30
0.0
 11
58.402883
 21
3.900255
 31
0.0
  0
LINE
  5
2AC
330
1F
100
AcDbEntity
  8
Untitled
 62
     7
370
     5
100
AcDbLine
 10
58.710383
 20
5.169755
 30
0.0
 11
58.549683
 21
5.041417
 31
0.0
  0
LINE
  5
2AD
330
1F
100
AcDbEntity
  8
Untitled
 62
     7
370
     5
100
AcDbLine
 10
58.340383
 20
4.727755
 30
0.0
 11
58.340383
 21
4.965255
 31
0.0
  0
ELLIPSE
  5
2AE
330
1F
100
AcDbEntity
  8
Untitled
 62
     7
370
     5
100
AcDbEllipse
 10
58.402883
 20
4.965255
 30
0.0
 11
0.06250000000003997
 21
0.0
 31
0.0
210
0.0
220
0.0
230
1.0
 40
1.0
 41
1.570796326794897
 42
3.141592653589793
  0
ELLIPSE
  5
2AF
330
1F
100
AcDbEntity
  8
Untitled
 62
     7
370
     5
100
AcDbEllipse
 10
58.510681
 20
5.090255
 30
0.0
 11
0.06249999999873967
 21
0.0
 31
0.0
210
0.0
220
0.0
230
1.0
 40
1.0
 41
4.71238898038469
 42
5.386285330081516
  0
LINE
  5
2B0
330
1F
100
AcDbEntity
  8
Untitled
 62
     7
370
     5
100
AcDbLine
 10
58.402883
 20
5.027755
 30
0.0
 11
58.510681
 21
5.027755
 31
0.0
  0
ELLIPSE
  5
2B1
330
1F
100
AcDbEntity
  8
Untitled
 62
     7
370
     5
100
AcDbEllipse
 10
58.355383
 20
4.727755
 30
0.0
 11
0.01500000000000767
 21
0.0
 31
0.0
210
0.0
220
0.0
230
1.0
 40
1.0
 41
3.141592653589793
 42
4.71238898038469
  0
LINE
  5
2B2
330
1F
100
AcDbEntity
  8
Untitled
 62
     7
370
     5
100
AcDbLine
 10
58.402883
 20
4.712755
 30
0.0
 11
58.402883
 21
4.650255
 31
0.0
  0
LINE
  5
2B3
330
1F
100
AcDbEntity
  8
Untitled
 62
     7
370
     5
100
AcDbLine
 10
40.512049
 20
21.150255
 30
0.0
 11
59.043716
 21
21.150255
 31
0.0
  0
LINE
  5
2B4
330
1F
100
AcDbEntity
  8
Untitled
 62
     7
370
     5
100
AcDbLine
 10
59.043716
 20
20.525255
 30
0.0
 11
40.512049
 21
20.525255
 31
0.0
  0
LINE
  5
2B5
330
1F
100
AcDbEntity
  8
Untitled
 62
     7
370
     5
100
AcDbLine
 10
39.652883
 20
19.570801
 30
0.0
 11
39.727883
 21
19.495801
 31
0.0
  0
LINE
  5
2B6
330
1F
100
AcDbEntity
  8
Untitled
 62
     7
370
     5
100
AcDbLine
 10
40.827883
 20
19.495801
 30
0.0
 11
40.902883
 21
19.570801
 31
0.0
  0
LINE
  5
2B7
330
1F
100
AcDbEntity
  8
Untitled
 62
     7
370
     5
100
AcDbLine
 10
40.827883
 20
19.495801
 30
0.0
 11
39.727883
 21
19.495801
 31
0.0
  0
LINE
  5
2B8
330
1F
100
AcDbEntity
  8
Untitled
 62
     7
370
     5
100
AcDbLine
 10
41.045383
 20
25.685255
 30
0.0
 11
39.510383
 21
25.685255
 31
0.0
  0
LINE
  5
2B9
330
1F
100
AcDbEntity
  8
Untitled
 62
     7
370
     5
100
AcDbLine
 10
39.510383
 20
25.900255
 30
0.0
 11
41.045383
 21
25.900255
 31
0.0
  0
ELLIPSE
  5
2BA
330
1F
100
AcDbEntity
  8
Untitled
 62
     7
370
     5
100
AcDbEllipse
 10
41.192868
 20
25.441383
 30
0.0
 11
0.2849999999999909
 21
0.0
 31
0.0
210
0.0
220
0.0
230
1.0
 40
1.0
 41
2.114713475801661
 42
3.151795475840085
  0
ELLIPSE
  5
2BB
330
1F
100
AcDbEntity
  8
Untitled
 62
     7
370
     5
100
AcDbEllipse
 10
40.277883
 20
20.837755
 30
0.0
 11
0.9375000000000224
 21
0.0
 31
0.0
210
0.0
220
0.0
230
1.0
 40
1.0
 41
5.553457650952305
 42
5.943348397725264
  0
ELLIPSE
  5
2BC
330
1F
100
AcDbEntity
  8
Untitled
 62
     7
370
     5
100
AcDbEllipse
 10
40.277883
 20
20.837755
 30
0.0
 11
0.9375000000002613
 21
0.0
 31
0.0
210
0.0
220
0.0
230
1.0
 40
1.0
 41
0.3398369094540234
 42
0.8318081401971088
  0
LINE
  5
2BD
330
1F
100
AcDbEntity
  8
Untitled
 62
     7
370
     5
100
AcDbLine
 10
39.777883
 20
22.179708
 30
0.0
 11
39.777883
 21
24.837755
 31
0.0
  0
LINE
  5
2BE
330
1F
100
AcDbEntity
  8
Untitled
 62
     7
370
     5
100
AcDbLine
 10
40.777883
 20
22.179708
 30
0.0
 11
40.777883
 21
24.837755
 31
0.0
  0
ELLIPSE
  5
2BF
330
1F
100
AcDbEntity
  8
Untitled
 62
     7
370
     5
100
AcDbEllipse
 10
40.277883
 20
20.837755
 30
0.0
 11
0.9374999999999732
 21
0.0
 31
0.0
210
0.0
220
0.0
230
1.0
 40
1.0
 41
2.309784513392976
 42
3.97340079378661
  0
LINE
  5
2C0
330
1F
100
AcDbEntity
  8
Untitled
 62
     7
370
     5
100
AcDbLine
 10
39.652883
 20
19.969801
 30
0.0
 11
40.902883
 21
19.969801
 31
0.0
  0
LINE
  5
2C1
330
1F
100
AcDbEntity
  8
Untitled
 62
     7
370
     5
100
AcDbLine
 10
39.652883
 20
20.019801
 30
0.0
 11
40.902883
 21
20.019801
 31
0.0
  0
LINE
  5
2C2
330
1F
100
AcDbEntity
  8
Untitled
 62
     7
370
     5
100
AcDbLine
 10
39.646438
 20
20.144801
 30
0.0
 11
40.909327
 21
20.144801
 31
0.0
  0
LINE
  5
2C3
330
1F
100
AcDbEntity
  8
Untitled
 62
     7
370
     5
100
AcDbLine
 10
39.652883
 20
19.570801
 30
0.0
 11
40.902883
 21
19.570801
 31
0.0
  0
ELLIPSE
  5
2C4
330
1F
100
AcDbEntity
  8
Untitled
 62
     7
370
     5
100
AcDbEllipse
 10
40.277883
 20
20.837755
 30
0.0
 11
0.3904999999999294
 21
0.0
 31
0.0
210
0.0
220
0.0
230
1.0
 40
1.0
 41
0.0
 42
6.283185307179586
  0
LINE
  5
2C5
330
1F
100
AcDbEntity
  8
Untitled
 62
     7
370
     5
100
AcDbLine
 10
39.702883
 20
19.994801
 30
0.0
 11
39.652883
 21
19.969801
 31
0.0
  0
LINE
  5
2C6
330
1F
100
AcDbEntity
  8
Untitled
 62
     7
370
     5
100
AcDbLine
 10
39.652883
 20
20.144801
 30
0.0
 11
39.652883
 21
20.019801
 31
0.0
  0
LINE
  5
2C7
330
1F
100
AcDbEntity
  8
Untitled
 62
     7
370
     5
100
AcDbLine
 10
39.652883
 20
20.019801
 30
0.0
 11
39.702883
 21
19.994801
 31
0.0
  0
LINE
  5
2C8
330
1F
100
AcDbEntity
  8
Untitled
 62
     7
370
     5
100
AcDbLine
 10
39.652883
 20
19.969801
 30
0.0
 11
39.652883
 21
19.570801
 31
0.0
  0
ELLIPSE
  5
2C9
330
1F
100
AcDbEntity
  8
Untitled
 62
     7
370
     5
100
AcDbEllipse
 10
40.277883
 20
20.837755
 30
0.0
 11
0.4415000000000673
 21
0.0
 31
0.0
210
0.0
220
0.0
230
1.0
 40
1.0
 41
0.7863992042243654
 42
5.496786102955221
  0
LINE
  5
2CA
330
1F
100
AcDbEntity
  8
Untitled
 62
     7
370
     5
100
AcDbLine
 10
40.902883
 20
19.969801
 30
0.0
 11
40.852883
 21
19.994801
 31
0.0
  0
LINE
  5
2CB
330
1F
100
AcDbEntity
  8
Untitled
 62
     7
370
     5
100
AcDbLine
 10
40.902883
 20
20.019801
 30
0.0
 11
40.902883
 21
20.144801
 31
0.0
  0
LINE
  5
2CC
330
1F
100
AcDbEntity
  8
Untitled
 62
     7
370
     5
100
AcDbLine
 10
40.852883
 20
19.994801
 30
0.0
 11
40.902883
 21
20.019801
 31
0.0
  0
LINE
  5
2CD
330
1F
100
AcDbEntity
  8
Untitled
 62
     7
370
     5
100
AcDbLine
 10
40.902883
 20
19.570801
 30
0.0
 11
40.902883
 21
19.969801
 31
0.0
  0
ELLIPSE
  5
2CE
330
1F
100
AcDbEntity
  8
Untitled
 62
     7
370
     5
100
AcDbEllipse
 10
40.277883
 20
20.837755
 30
0.0
 11
0.9374999999999396
 21
0.0
 31
0.0
210
0.0
220
0.0
230
1.0
 40
1.0
 41
5.451377166982791
 42
5.553457650952402
  0
LINE
  5
2CF
330
1F
100
AcDbEntity
  8
Untitled
 62
     7
370
     5
100
AcDbLine
 10
39.727883
 20
22.179708
 30
0.0
 11
40.827883
 21
22.179708
 31
0.0
  0
LINE
  5
2D0
330
1F
100
AcDbEntity
  8
Untitled
 62
     7
370
     5
100
AcDbLine
 10
40.902883
 20
22.104708
 30
0.0
 11
39.652883
 21
22.104708
 31
0.0
  0
LINE
  5
2D1
330
1F
100
AcDbEntity
  8
Untitled
 62
     7
370
     5
100
AcDbLine
 10
40.902883
 20
21.655708
 30
0.0
 11
39.652883
 21
21.655708
 31
0.0
  0
LINE
  5
2D2
330
1F
100
AcDbEntity
  8
Untitled
 62
     7
370
     5
100
AcDbLine
 10
40.902883
 20
21.705708
 30
0.0
 11
39.652883
 21
21.705708
 31
0.0
  0
LINE
  5
2D3
330
1F
100
AcDbEntity
  8
Untitled
 62
     7
370
     5
100
AcDbLine
 10
39.646438
 20
21.530708
 30
0.0
 11
40.909327
 21
21.530708
 31
0.0
  0
LINE
  5
2D4
330
1F
100
AcDbEntity
  8
Untitled
 62
     7
370
     5
100
AcDbLine
 10
39.727883
 20
22.179708
 30
0.0
 11
39.652883
 21
22.104708
 31
0.0
  0
LINE
  5
2D5
330
1F
100
AcDbEntity
  8
Untitled
 62
     7
370
     5
100
AcDbLine
 10
39.652883
 20
21.655708
 30
0.0
 11
39.652883
 21
21.530708
 31
0.0
  0
LINE
  5
2D6
330
1F
100
AcDbEntity
  8
Untitled
 62
     7
370
     5
100
AcDbLine
 10
39.702883
 20
21.680708
 30
0.0
 11
39.652883
 21
21.655708
 31
0.0
  0
LINE
  5
2D7
330
1F
100
AcDbEntity
  8
Untitled
 62
     7
370
     5
100
AcDbLine
 10
39.652883
 20
22.104708
 30
0.0
 11
39.652883
 21
21.705708
 31
0.0
  0
LINE
  5
2D8
330
1F
100
AcDbEntity
  8
Untitled
 62
     7
370
     5
100
AcDbLine
 10
39.652883
 20
21.705708
 30
0.0
 11
39.702883
 21
21.680708
 31
0.0
  0
LINE
  5
2D9
330
1F
100
AcDbEntity
  8
Untitled
 62
     7
370
     5
100
AcDbLine
 10
40.902883
 20
22.104708
 30
0.0
 11
40.827883
 21
22.179708
 31
0.0
  0
LINE
  5
2DA
330
1F
100
AcDbEntity
  8
Untitled
 62
     7
370
     5
100
AcDbLine
 10
40.902883
 20
21.530708
 30
0.0
 11
40.902883
 21
21.655708
 31
0.0
  0
LINE
  5
2DB
330
1F
100
AcDbEntity
  8
Untitled
 62
     7
370
     5
100
AcDbLine
 10
40.902883
 20
21.655708
 30
0.0
 11
40.852883
 21
21.680708
 31
0.0
  0
LINE
  5
2DC
330
1F
100
AcDbEntity
  8
Untitled
 62
     7
370
     5
100
AcDbLine
 10
40.902883
 20
21.705708
 30
0.0
 11
40.902883
 21
22.104708
 31
0.0
  0
LINE
  5
2DD
330
1F
100
AcDbEntity
  8
Untitled
 62
     7
370
     5
100
AcDbLine
 10
40.852883
 20
21.680708
 30
0.0
 11
40.902883
 21
21.705708
 31
0.0
  0
LINE
  5
2DE
330
1F
100
AcDbEntity
  8
Untitled
 62
     7
370
     5
100
AcDbLine
 10
40.822883
 20
24.837755
 30
0.0
 11
39.732883
 21
24.837755
 31
0.0
  0
LINE
  5
2DF
330
1F
100
AcDbEntity
  8
Untitled
 62
     7
370
     5
100
AcDbLine
 10
40.872883
 20
24.887755
 30
0.0
 11
39.682883
 21
24.887755
 31
0.0
  0
LINE
  5
2E0
330
1F
100
AcDbEntity
  8
Untitled
 62
     7
370
     5
100
AcDbLine
 10
39.682883
 20
25.087755
 30
0.0
 11
40.872883
 21
25.087755
 31
0.0
  0
LINE
  5
2E1
330
1F
100
AcDbEntity
  8
Untitled
 62
     7
370
     5
100
AcDbLine
 10
40.907883
 20
25.268476
 30
0.0
 11
39.647883
 21
25.268476
 31
0.0
  0
ELLIPSE
  5
2E2
330
1F
100
AcDbEntity
  8
Untitled
 62
     7
370
     5
100
AcDbEllipse
 10
39.510383
 20
25.792755
 30
0.0
 11
0.1075000000000017
 21
0.0
 31
0.0
210
0.0
220
0.0
230
1.0
 40
1.0
 41
1.570796326794897
 42
4.712389118875814
  0
LINE
  5
2E3
330
1F
100
AcDbEntity
  8
Untitled
 62
     7
370
     5
100
AcDbLine
 10
39.682883
 20
24.887755
 30
0.0
 11
39.682883
 21
25.087755
 31
0.0
  0
LINE
  5
2E4
330
1F
100
AcDbEntity
  8
Untitled
 62
     7
370
     5
100
AcDbLine
 10
39.732883
 20
24.837755
 30
0.0
 11
39.682883
 21
24.887755
 31
0.0
  0
ELLIPSE
  5
2E5
330
1F
100
AcDbEntity
  8
Untitled
 62
     7
370
     5
100
AcDbEllipse
 10
39.682883
 20
25.181505
 30
0.0
 11
0.0937499999999782
 21
0.0
 31
0.0
210
0.0
220
0.0
230
1.0
 40
1.0
 41
1.953395887318248
 42
4.71238898038469
  0
LINE
  5
2E6
330
1F
100
AcDbEntity
  8
Untitled
 62
     7
370
     5
100
AcDbLine
 10
39.647883
 20
25.268476
 30
0.0
 11
39.647883
 21
25.438476
 31
0.0
  0
ELLIPSE
  5
2E7
330
1F
100
AcDbEntity
  8
Untitled
 62
     7
370
     5
100
AcDbEllipse
 10
39.362897
 20
25.441383
 30
0.0
 11
0.2849999999999656
 21
0.0
 31
0.0
210
0.0
220
0.0
230
1.0
 40
1.0
 41
6.272982484929293
 42
7.310064484967626
  0
LINE
  5
2E8
330
1F
100
AcDbEntity
  8
Untitled
 62
     7
370
     5
100
AcDbLine
 10
40.872883
 20
24.887755
 30
0.0
 11
40.872883
 21
25.087755
 31
0.0
  0
LINE
  5
2E9
330
1F
100
AcDbEntity
  8
Untitled
 62
     7
370
     5
100
AcDbLine
 10
40.872883
 20
24.887755
 30
0.0
 11
40.822883
 21
24.837755
 31
0.0
  0
ELLIPSE
  5
2EA
330
1F
100
AcDbEntity
  8
Untitled
 62
     7
370
     5
100
AcDbEllipse
 10
40.872883
 20
25.181505
 30
0.0
 11
0.09374999999996092
 21
0.0
 31
0.0
210
0.0
220
0.0
230
1.0
 40
1.0
 41
4.71238898038469
 42
7.471382073451131
  0
LINE
  5
2EB
330
1F
100
AcDbEntity
  8
Untitled
 62
     7
370
     5
100
AcDbLine
 10
40.907883
 20
25.268476
 30
0.0
 11
40.907883
 21
25.438476
 31
0.0
  0
ELLIPSE
  5
2EC
330
1F
100
AcDbEntity
  8
Untitled
 62
     7
370
     5
100
AcDbEllipse
 10
41.045383
 20
25.792755
 30
0.0
 11
0.1074999999999992
 21
0.0
 31
0.0
210
0.0
220
0.0
230
1.0
 40
1.0
 41
4.712388841893565
 42
7.853981633974483
  0
ELLIPSE
  5
2ED
330
1F
100
AcDbEntity
  8
Untitled
 62
     7
370
     5
100
AcDbEllipse
 10
59.277883
 20
20.837755
 30
0.0
 11
0.9375000000000262
 21
0.0
 31
0.0
210
0.0
220
0.0
230
1.0
 40
1.0
 41
2.309784513392914
 42
2.801755744135428
  0
ELLIPSE
  5
2EE
330
1F
100
AcDbEntity
  8
Untitled
 62
     7
370
     5
100
AcDbEllipse
 10
59.277883
 20
20.837755
 30
0.0
 11
0.9375000000002546
 21
0.0
 31
0.0
210
0.0
220
0.0
230
1.0
 40
1.0
 41
3.481429563043819
 42
3.871320309817329
  0
LINE
  5
2EF
330
1F
100
AcDbEntity
  8
Untitled
 62
     7
370
     5
100
AcDbLine
 10
58.652883
 20
19.969801
 30
0.0
 11
58.702883
 21
19.994801
 31
0.0
  0
LINE
  5
2F0
330
1F
100
AcDbEntity
  8
Untitled
 62
     7
370
     5
100
AcDbLine
 10
58.652883
 20
20.019801
 30
0.0
 11
58.652883
 21
20.144801
 31
0.0
  0
LINE
  5
2F1
330
1F
100
AcDbEntity
  8
Untitled
 62
     7
370
     5
100
AcDbLine
 10
58.702883
 20
19.994801
 30
0.0
 11
58.652883
 21
20.019801
 31
0.0
  0
LINE
  5
2F2
330
1F
100
AcDbEntity
  8
Untitled
 62
     7
370
     5
100
AcDbLine
 10
58.727883
 20
19.495801
 30
0.0
 11
58.652883
 21
19.570801
 31
0.0
  0
LINE
  5
2F3
330
1F
100
AcDbEntity
  8
Untitled
 62
     7
370
     5
100
AcDbLine
 10
58.652883
 20
19.570801
 30
0.0
 11
58.652883
 21
19.969801
 31
0.0
  0
ELLIPSE
  5
2F4
330
1F
100
AcDbEntity
  8
Untitled
 62
     7
370
     5
100
AcDbEllipse
 10
59.277883
 20
20.837755
 30
0.0
 11
0.9374999999999443
 21
0.0
 31
0.0
210
0.0
220
0.0
230
1.0
 40
1.0
 41
3.87132030981698
 42
3.973400793786591
  0
LINE
  5
2F5
330
1F
100
AcDbEntity
  8
Untitled
 62
     7
370
     5
100
AcDbLine
 10
58.652883
 20
22.104708
 30
0.0
 11
58.727883
 21
22.179708
 31
0.0
  0
LINE
  5
2F6
330
1F
100
AcDbEntity
  8
Untitled
 62
     7
370
     5
100
AcDbLine
 10
58.652883
 20
21.530708
 30
0.0
 11
58.652883
 21
21.655708
 31
0.0
  0
LINE
  5
2F7
330
1F
100
AcDbEntity
  8
Untitled
 62
     7
370
     5
100
AcDbLine
 10
58.652883
 20
21.655708
 30
0.0
 11
58.702883
 21
21.680708
 31
0.0
  0
LINE
  5
2F8
330
1F
100
AcDbEntity
  8
Untitled
 62
     7
370
     5
100
AcDbLine
 10
58.652883
 20
21.705708
 30
0.0
 11
58.652883
 21
22.104708
 31
0.0
  0
LINE
  5
2F9
330
1F
100
AcDbEntity
  8
Untitled
 62
     7
370
     5
100
AcDbLine
 10
58.702883
 20
21.680708
 30
0.0
 11
58.652883
 21
21.705708
 31
0.0
  0
ELLIPSE
  5
2FA
330
1F
100
AcDbEntity
  8
Untitled
 62
     7
370
     5
100
AcDbEllipse
 10
58.510383
 20
25.792755
 30
0.0
 11
0.1075000000000017
 21
0.0
 31
0.0
210
0.0
220
0.0
230
1.0
 40
1.0
 41
1.570796326794897
 42
4.71238911887588
  0
LINE
  5
2FB
330
1F
100
AcDbEntity
  8
Untitled
 62
     7
370
     5
100
AcDbLine
 10
58.682883
 20
24.887755
 30
0.0
 11
58.682883
 21
25.087755
 31
0.0
  0
LINE
  5
2FC
330
1F
100
AcDbEntity
  8
Untitled
 62
     7
370
     5
100
AcDbLine
 10
58.682883
 20
24.887755
 30
0.0
 11
58.732883
 21
24.837755
 31
0.0
  0
ELLIPSE
  5
2FD
330
1F
100
AcDbEntity
  8
Untitled
 62
     7
370
     5
100
AcDbEllipse
 10
58.682883
 20
25.181505
 30
0.0
 11
0.09374999999998085
 21
0.0
 31
0.0
210
0.0
220
0.0
230
1.0
 40
1.0
 41
1.953395887318319
 42
4.71238898038469
  0
ELLIPSE
  5
2FE
330
1F
100
AcDbEntity
  8
Untitled
 62
     7
370
     5
100
AcDbEllipse
 10
58.362897
 20
25.441383
 30
0.0
 11
0.2849999999999656
 21
0.0
 31
0.0
210
0.0
220
0.0
230
1.0
 40
1.0
 41
6.272982484929293
 42
7.310064484967626
  0
LINE
  5
2FF
330
1F
100
AcDbEntity
  8
Untitled
 62
     7
370
     5
100
AcDbLine
 10
58.647883
 20
25.268476
 30
0.0
 11
58.647883
 21
25.438476
 31
0.0
  0
LINE
  5
300
330
1F
100
AcDbEntity
  8
Untitled
 62
     7
370
     5
100
AcDbLine
 10
58.777883
 20
22.179708
 30
0.0
 11
58.777883
 21
24.837755
 31
0.0
  0
LINE
  5
301
330
1F
100
AcDbEntity
  8
Untitled
 62
     7
370
     5
100
AcDbLine
 10
59.777883
 20
5.169755
 30
0.0
 11
59.777883
 21
19.495801
 31
0.0
  0
LINE
  5
302
330
1F
100
AcDbEntity
  8
Untitled
 62
     7
370
     5
100
AcDbLine
 10
59.777883
 20
-4.140134
 30
0.0
 11
59.777883
 21
3.380755
 31
0.0
  0
ELLIPSE
  5
303
330
1F
100
AcDbEntity
  8
Untitled
 62
     7
370
     5
100
AcDbEllipse
 10
60.281796
 20
-4.537241
 30
0.0
 11
0.3700674578495938
 21
0.0
 31
0.0
210
0.0
220
0.0
230
1.0
 40
1.0
 41
3.117124636003945
 42
3.654533426966428
  0
ELLIPSE
  5
304
330
1F
100
AcDbEntity
  8
Untitled
 62
     7
370
     5
100
AcDbEllipse
 10
59.190625
 20
-5.25547
 30
0.0
 11
0.9374999999999224
 21
0.0
 31
0.0
210
0.0
220
0.0
230
1.0
 40
1.0
 41
5.627037020253517
 42
6.892610363126007
  0
ELLIPSE
  5
305
330
1F
100
AcDbEntity
  8
Untitled
 62
     7
370
     5
100
AcDbEllipse
 10
59.913883
 20
-6.007245
 30
0.0
 11
0.09249999999999847
 21
0.0
 31
0.0
210
0.0
220
0.0
230
1.0
 40
1.0
 41
4.71238898038469
 42
7.43518525775831
  0
ELLIPSE
  5
306
330
1F
100
AcDbEntity
  8
Untitled
 62
     7
370
     5
100
AcDbEllipse
 10
59.981194
 20
-5.867745
 30
0.0
 11
0.06250000000022057
 21
0.0
 31
0.0
210
0.0
220
0.0
230
1.0
 40
1.0
 41
2.440109365635679
 42
4.217279739825665
  0
LINE
  5
307
330
1F
100
AcDbEntity
  8
Untitled
 62
     7
370
     5
100
AcDbLine
 10
59.82494
 20
-4.140134
 30
0.0
 11
59.87494
 21
-4.190134
 31
0.0
  0
ELLIPSE
  5
308
330
1F
100
AcDbEntity
  8
Untitled
 62
     7
370
     5
100
AcDbEllipse
 10
59.87494
 20
-4.407634
 30
0.0
 11
0.09249999999992987
 21
0.0
 31
0.0
210
0.0
220
0.0
230
1.0
 40
1.0
 41
5.335944419283724
 42
7.853982516966709
  0
ELLIPSE
  5
309
330
1F
100
AcDbEntity
  8
Untitled
 62
     7
370
     5
100
AcDbEllipse
 10
59.971743
 20
-4.524786
 30
0.0
 11
0.06000000000008169
 21
0.0
 31
0.0
210
0.0
220
0.0
230
1.0
 40
1.0
 41
2.364790571499821
 42
3.198301920990056
  0
LINE
  5
30A
330
1F
100
AcDbEntity
  8
Untitled
 62
     7
370
     5
100
AcDbLine
 10
59.87494
 20
-4.315134
 30
0.0
 11
59.87494
 21
-4.190134
 31
0.0
  0
LINE
  5
30B
330
1F
100
AcDbEntity
  8
Untitled
 62
     7
370
     5
100
AcDbLine
 10
60.777883
 20
3.962755
 30
0.0
 11
60.777883
 21
4.587755
 31
0.0
  0
LINE
  5
30C
330
1F
100
AcDbEntity
  8
Untitled
 62
     7
370
     5
100
AcDbLine
 10
59.845383
 20
3.380755
 30
0.0
 11
60.006082
 21
3.509092
 31
0.0
  0
LINE
  5
30D
330
1F
100
AcDbEntity
  8
Untitled
 62
     7
370
     5
100
AcDbLine
 10
60.152883
 20
3.522755
 30
0.0
 11
60.045084
 21
3.522755
 31
0.0
  0
LINE
  5
30E
330
1F
100
AcDbEntity
  8
Untitled
 62
     7
370
     5
100
AcDbLine
 10
60.215383
 20
3.585255
 30
0.0
 11
60.215383
 21
3.822755
 31
0.0
  0
ELLIPSE
  5
30F
330
1F
100
AcDbEntity
  8
Untitled
 62
     7
370
     5
100
AcDbEllipse
 10
60.152883
 20
3.585255
 30
0.0
 11
0.06250000000003952
 21
0.0
 31
0.0
210
0.0
220
0.0
230
1.0
 40
1.0
 41
4.71238898038469
 42
6.283185307179586
  0
ELLIPSE
  5
310
330
1F
100
AcDbEntity
  8
Untitled
 62
     7
370
     5
100
AcDbEllipse
 10
60.200383
 20
3.822755
 30
0.0
 11
0.01499999999999346
 21
0.0
 31
0.0
210
0.0
220
0.0
230
1.0
 40
1.0
 41
0.0
 42
1.570796326794897
  0
LINE
  5
311
330
1F
100
AcDbEntity
  8
Untitled
 62
     7
370
     5
100
AcDbLine
 10
60.152883
 20
3.837755
 30
0.0
 11
60.152883
 21
3.900255
 31
0.0
  0
ELLIPSE
  5
312
330
1F
100
AcDbEntity
  8
Untitled
 62
     7
370
     5
100
AcDbEllipse
 10
60.045084
 20
3.460255
 30
0.0
 11
0.06250000000007905
 21
0.0
 31
0.0
210
0.0
220
0.0
230
1.0
 40
1.0
 41
1.570796326794897
 42
2.244692676490507
  0
ELLIPSE
  5
313
330
1F
100
AcDbEntity
  8
Untitled
 62
     7
370
     5
100
AcDbEllipse
 10
60.715383
 20
3.962755
 30
0.0
 11
0.06249999999999645
 21
0.0
 31
0.0
210
0.0
220
0.0
230
1.0
 40
1.0
 41
4.71238898038469
 42
6.283185307179586
  0
LINE
  5
314
330
1F
100
AcDbEntity
  8
Untitled
 62
     7
370
     5
100
AcDbLine
 10
59.845383
 20
5.169755
 30
0.0
 11
60.006082
 21
5.041417
 31
0.0
  0
LINE
  5
315
330
1F
100
AcDbEntity
  8
Untitled
 62
     7
370
     5
100
AcDbLine
 10
60.152883
 20
5.027755
 30
0.0
 11
60.045084
 21
5.027755
 31
0.0
  0
LINE
  5
316
330
1F
100
AcDbEntity
  8
Untitled
 62
     7
370
     5
100
AcDbLine
 10
60.215383
 20
4.965255
 30
0.0
 11
60.215383
 21
4.727755
 31
0.0
  0
ELLIPSE
  5
317
330
1F
100
AcDbEntity
  8
Untitled
 62
     7
370
     5
100
AcDbEllipse
 10
60.152883
 20
4.965255
 30
0.0
 11
0.06249999999999289
 21
0.0
 31
0.0
210
0.0
220
0.0
230
1.0
 40
1.0
 41
0.0
 42
1.570796326794897
  0
ELLIPSE
  5
318
330
1F
100
AcDbEntity
  8
Untitled
 62
     7
370
     5
100
AcDbEllipse
 10
60.200383
 20
4.727755
 30
0.0
 11
0.01499999999999968
 21
0.0
 31
0.0
210
0.0
220
0.0
230
1.0
 40
1.0
 41
4.71238898038469
 42
6.283185307179586
  0
LINE
  5
319
330
1F
100
AcDbEntity
  8
Untitled
 62
     7
370
     5
100
AcDbLine
 10
60.152883
 20
4.712755
 30
0.0
 11
60.152883
 21
4.650255
 31
0.0
  0
ELLIPSE
  5
31A
330
1F
100
AcDbEntity
  8
Untitled
 62
     7
370
     5
100
AcDbEllipse
 10
60.045084
 20
5.090255
 30
0.0
 11
0.06250000000005296
 21
0.0
 31
0.0
210
0.0
220
0.0
230
1.0
 40
1.0
 41
4.038492630688751
 42
4.71238898038469
  0
ELLIPSE
  5
31B
330
1F
100
AcDbEntity
  8
Untitled
 62
     7
370
     5
100
AcDbEllipse
 10
60.715383
 20
4.587755
 30
0.0
 11
0.06250000000000711
 21
0.0
 31
0.0
210
0.0
220
0.0
230
1.0
 40
1.0
 41
0.0
 42
1.570796326794897
  0
LINE
  5
31C
330
1F
100
AcDbEntity
  8
Untitled
 62
     7
370
     5
100
AcDbLine
 10
59.777883
 20
22.179708
 30
0.0
 11
59.777883
 21
24.837755
 31
0.0
  0
ELLIPSE
  5
31D
330
1F
100
AcDbEntity
  8
Untitled
 62
     7
370
     5
100
AcDbEllipse
 10
59.277883
 20
20.837755
 30
0.0
 11
0.9374999999999444
 21
0.0
 31
0.0
210
0.0
220
0.0
230
1.0
 40
1.0
 41
5.451377166982797
 42
7.114993447376373
  0
LINE
  5
31E
330
1F
100
AcDbEntity
  8
Untitled
 62
     7
370
     5
100
AcDbLine
 10
59.852883
 20
19.994801
 30
0.0
 11
59.902883
 21
19.969801
 31
0.0
  0
LINE
  5
31F
330
1F
100
AcDbEntity
  8
Untitled
 62
     7
370
     5
100
AcDbLine
 10
59.902883
 20
20.019801
 30
0.0
 11
59.852883
 21
19.994801
 31
0.0
  0
LINE
  5
320
330
1F
100
AcDbEntity
  8
Untitled
 62
     7
370
     5
100
AcDbLine
 10
59.902883
 20
19.570801
 30
0.0
 11
59.827883
 21
19.495801
 31
0.0
  0
LINE
  5
321
330
1F
100
AcDbEntity
  8
Untitled
 62
     7
370
     5
100
AcDbLine
 10
59.902883
 20
20.144801
 30
0.0
 11
59.902883
 21
20.019801
 31
0.0
  0
LINE
  5
322
330
1F
100
AcDbEntity
  8
Untitled
 62
     7
370
     5
100
AcDbLine
 10
59.902883
 20
19.969801
 30
0.0
 11
59.902883
 21
19.570801
 31
0.0
  0
LINE
  5
323
330
1F
100
AcDbEntity
  8
Untitled
 62
     7
370
     5
100
AcDbLine
 10
59.827883
 20
22.179708
 30
0.0
 11
59.902883
 21
22.104708
 31
0.0
  0
LINE
  5
324
330
1F
100
AcDbEntity
  8
Untitled
 62
     7
370
     5
100
AcDbLine
 10
59.852883
 20
21.680708
 30
0.0
 11
59.902883
 21
21.655708
 31
0.0
  0
LINE
  5
325
330
1F
100
AcDbEntity
  8
Untitled
 62
     7
370
     5
100
AcDbLine
 10
59.902883
 20
21.705708
 30
0.0
 11
59.852883
 21
21.680708
 31
0.0
  0
LINE
  5
326
330
1F
100
AcDbEntity
  8
Untitled
 62
     7
370
     5
100
AcDbLine
 10
59.902883
 20
21.655708
 30
0.0
 11
59.902883
 21
21.530708
 31
0.0
  0
LINE
  5
327
330
1F
100
AcDbEntity
  8
Untitled
 62
     7
370
     5
100
AcDbLine
 10
59.902883
 20
22.104708
 30
0.0
 11
59.902883
 21
21.705708
 31
0.0
  0
ELLIPSE
  5
328
330
1F
100
AcDbEntity
  8
Untitled
 62
     7
370
     5
100
AcDbEllipse
 10
60.045383
 20
25.792755
 30
0.0
 11
0.1074999999999992
 21
0.0
 31
0.0
210
0.0
220
0.0
230
1.0
 40
1.0
 41
4.712388841893565
 42
7.853981633974483
  0
LINE
  5
329
330
1F
100
AcDbEntity
  8
Untitled
 62
     7
370
     5
100
AcDbLine
 10
59.872883
 20
24.887755
 30
0.0
 11
59.872883
 21
25.087755
 31
0.0
  0
LINE
  5
32A
330
1F
100
AcDbEntity
  8
Untitled
 62
     7
370
     5
100
AcDbLine
 10
59.822883
 20
24.837755
 30
0.0
 11
59.872883
 21
24.887755
 31
0.0
  0
ELLIPSE
  5
32B
330
1F
100
AcDbEntity
  8
Untitled
 62
     7
370
     5
100
AcDbEllipse
 10
59.872883
 20
25.181505
 30
0.0
 11
0.09374999999996092
 21
0.0
 31
0.0
210
0.0
220
0.0
230
1.0
 40
1.0
 41
4.71238898038469
 42
7.471382073450892
  0
LINE
  5
32C
330
1F
100
AcDbEntity
  8
Untitled
 62
     7
370
     5
100
AcDbLine
 10
59.907883
 20
25.268476
 30
0.0
 11
59.907883
 21
25.438476
 31
0.0
  0
ELLIPSE
  5
32D
330
1F
100
AcDbEntity
  8
Untitled
 62
     7
370
     5
100
AcDbEllipse
 10
60.192868
 20
25.441383
 30
0.0
 11
0.2849999999999976
 21
0.0
 31
0.0
210
0.0
220
0.0
230
1.0
 40
1.0
 41
2.114713475801676
 42
3.151795475840085
  0
INSERT
  5
32F
330
1F
100
AcDbEntity
  8
0
100
AcDbBlockReference
  2
Block578
 10
55.887383
 20
21.150255
 30
0.0
  0
INSERT
  5
336
330
1F
100
AcDbEntity
  8
0
100
AcDbBlockReference
  2
Block579
 10
58.777883
 20
-0.37994
 30
0.0
  0
INSERT
  5
33D
330
1F
100
AcDbEntity
  8
0
100
AcDbBlockReference
  2
Block580
 10
61.777883
 20
16.558301
 30
0.0
  0
INSERT
  5
344
330
1F
100
AcDbEntity
  8
0
100
AcDbBlockReference
  2
Block581
 10
61.777883
 20
13.802075
 30
0.0
  0
INSERT
  5
34C
330
1F
100
AcDbEntity
  8
0
100
AcDbBlockReference
  2
Block582
 10
43.777883
 20
-6.099745
 30
0.0
  0
INSERT
  5
354
330
1F
100
AcDbEntity
  8
0
100
AcDbBlockReference
  2
Block583
 10
44.027883
 20
25.900255
 30
0.0
  0
INSERT
  5
35B
330
1F
100
AcDbEntity
  8
0
100
AcDbBlockReference
  2
Block584
 10
22.946292
 20
33.530737
 30
0.0
  0
TEXT
  5
35E
330
1F
100
AcDbEntity
  8
Untitled
 62
     7
100
AcDbText
 10
19.986926
 20
31.089467
 30
0.0
 40
0.5625
  1
Refer to the PDF specification for model numbers and additional information.
  7
ARIAL_400_0
100
AcDbText
  0
INSERT
  5
360
330
1F
100
AcDbEntity
  8
0
100
AcDbBlockReference
  2
Block586
 10
19.405723
 20
29.721403
 30
0.0
  0
LINE
  5
364
330
1F
100
AcDbEntity
  8
Untitled
 62
     1
370
     5
100
AcDbLine
 10
23.012233
 20
32.385951
 30
0.0
 11
43.0215
 21
32.385951
 31
0.0
  0
TEXT
  5
365
330
1F
100
AcDbEntity
  8
Untitled
 62
     7
100
AcDbText
 10
28.532747
 20
34.650999
 30
0.0
 40
0.5625
  1
PALMER INDUSTRIES
  7
ARIAL_400_0
100
AcDbText
  0
LINE
  5
366
330
1F
100
AcDbEntity
  8
Untitled
 62
   136
370
    25
100
AcDbLine
 10
28.610631
 20
34.361507
 30
0.0
 11
36.659857
 21
34.361507
 31
0.0
  0
INSERT
  5
368
330
1F
100
AcDbEntity
  8
0
100
AcDbBlockReference
  2
Block590
 10
29.777883
 20
23.258731
 30
0.0
  0
ENDSEC
  0
SECTION
  2
OBJECTS
  0
DICTIONARY
  5
C
330
0
100
AcDbDictionary
281
     1
  3
ACAD_COLOR
350
6B
  3
ACAD_GROUP
350
D
  3
ACAD_IMAGE_VARS
350
8D
  3
ACAD_LAYOUT
350
1A
  3
ACAD_MATERIAL
350
6A
  3
ACAD_MLEADERSTYLE
350
D8
  3
ACAD_MLINESTYLE
350
17
  3
ACAD_PLOTSETTINGS
350
19
  3
ACAD_PLOTSTYLENAME
350
E
  3
ACAD_SCALELIST
350
98
  3
ACAD_TABLESTYLE
350
D6
  3
ACAD_VISUALSTYLE
350
BD
  3
ACDBHEADERROUNDTRIPXREC
350
38A
  3
AcDbVariableDictionary
350
5E
  0
DICTIONARY
  5
38D
330
8
100
AcDbDictionary
280
     1
281
     1
  3
ACAD_XREC_ROUNDTRIP
360
38E
  0
DICTIONARY
  5
6B
102
{ACAD_REACTORS
330
C
102
}
330
C
100
AcDbDictionary
281
     1
  0
DICTIONARY
  5
D
102
{ACAD_REACTORS
330
C
102
}
330
C
100
AcDbDictionary
281
     1
  0
RASTERVARIABLES
  5
8D
102
{ACAD_REACTORS
330
C
102
}
330
C
100
AcDbRasterVariables
 90
        0
 70
     0
 71
     1
 72
     1
  0
DICTIONARY
  5
1A
102
{ACAD_REACTORS
330
C
102
}
330
C
100
AcDbDictionary
281
     1
  3
Layout1
350
51
  3
Layout2
350
56
  3
Model
350
22
  0
DICTIONARY
  5
6A
102
{ACAD_REACTORS
330
C
102
}
330
C
100
AcDbDictionary
281
     1
  3
ByBlock
350
BB
  3
ByLayer
350
BA
  3
Global
350
BC
  0
DICTIONARY
  5
D8
102
{ACAD_REACTORS
330
C
102
}
330
C
100
AcDbDictionary
281
     1
  3
Standard
350
D9
  0
DICTIONARY
  5
17
102
{ACAD_REACTORS
330
C
102
}
330
C
100
AcDbDictionary
281
     1
  3
Standard
350
18
  0
DICTIONARY
  5
19
102
{ACAD_REACTORS
330
C
102
}
330
C
100
AcDbDictionary
281
     1
  0
ACDBDICTIONARYWDFLT
  5
E
102
{ACAD_REACTORS
330
C
102
}
330
C
100
AcDbDictionary
281
     1
  3
Normal
350
F
100
AcDbDictionaryWithDefault
340
F
  0
DICTIONARY
  5
98
102
{ACAD_REACTORS
330
C
102
}
330
C
100
AcDbDictionary
281
     1
  3
A0
350
99
  3
A1
350
9A
  3
A2
350
9B
  3
A3
350
9C
  3
A4
350
9D
  3
A5
350
9E
  3
A6
350
9F
  3
A7
350
A0
  3
A8
350
A1
  3
A9
350
A2
  3
B0
350
A3
  3
B1
350
A4
  3
B2
350
A5
  3
B3
350
A6
  3
B4
350
A7
  3
B5
350
A8
  3
B6
350
A9
  3
B7
350
AA
  3
B8
350
AB
  3
B9
350
AC
  3
C0
350
AD
  3
C1
350
AE
  3
C2
350
AF
  3
C3
350
B0
  3
C4
350
B1
  3
C5
350
B2
  3
C6
350
B3
  3
C7
350
B4
  3
C8
350
B5
  3
C9
350
B6
  3
D0
350
B7
  3
D1
350
B8
  3
D2
350
B9
  0
DICTIONARY
  5
D6
102
{ACAD_REACTORS
330
C
102
}
330
C
100
AcDbDictionary
281
     1
  3
Standard
350
D7
  0
DICTIONARY
  5
BD
102
{ACAD_REACTORS
330
C
102
}
330
C
100
AcDbDictionary
281
     1
  3
2dWireframe
350
C2
  3
Basic
350
C5
  3
Brighten
350
C9
  3
ColorChange
350
CD
  3
Conceptual
350
C7
  3
Dim
350
C8
  3
EdgeColorOff
350
D0
  3
Facepattern
350
CC
  3
Flat
350
BE
  3
FlatWithEdges
350
BF
  3
Gouraud
350
C0
  3
GouraudWithEdges
350
C1
  3
Hidden
350
C4
  3
JitterOff
350
CE
  3
Linepattern
350
CB
  3
OverhangOff
350
CF
  3
Realistic
350
C6
  3
Shaded
350
D5
  3
Shaded with edges
350
D4
  3
Shades of Gray
350
D1
  3
Sketchy
350
D2
  3
Thicken
350
CA
  3
Wireframe
350
C3
  3
X-Ray
350
D3
  0
DICTIONARY
  5
38A
102
{ACAD_REACTORS
330
C
102
}
330
C
100
AcDbDictionary
281
     1
  3
COLORDICT
350
38B
  3
MATERIALDICT
350
38C
  0
DICTIONARY
  5
5E
102
{ACAD_REACTORS
330
C
102
}
330
C
100
AcDbDictionary
281
     1
  3
CANNOSCALE
350
38F
  3
CMLEADERSTYLE
350
386
  3
CTABLESTYLE
350
385
  3
DIMASSOC
350
5F
  3
HIDETEXT
350
63
  3
MSLTSCALE
350
387
  3
PROJECTNAME
350
89
  0
XRECORD
  5
38E
102
{ACAD_REACTORS
330
38D
102
}
330
38D
100
AcDbXrecord
280
     1
102
VTR_0.000_0.000_1.000_1.000_VISUALSTYLE
340
C2
102
VTR_0.000_0.000_1.000_1.000_GRIDDISPLAY
 70
     3
102
VTR_0.000_0.000_1.000_1.000_GRIDMAJOR
 70
     5
102
VTR_0.000_0.000_1.000_1.000_DEFAULTLIGHTING
280
     1
102
VTR_0.000_0.000_1.000_1.000_DEFAULTLIGHTINGTYPE
 70
     1
102
VTR_0.000_0.000_1.000_1.000_BRIGHTNESS
141
0.0
102
VTR_0.000_0.000_1.000_1.000_CONTRAST
142
0.0
  0
LAYOUT
  5
51
102
{ACAD_REACTORS
330
1A
102
}
330
1A
100
AcDbPlotSettings
  1

  2
None
  4

  6

 40
0.0
 41
0.0
 42
0.0
 43
0.0
 44
0.0
 45
0.0
 46
0.0
 47
0.0
 48
0.0
 49
0.0
140
0.0
141
0.0
142
1.0
143
1.0
 70
   688
 72
     0
 73
     0
 74
     5
  7

 75
    16
147
1.0
148
0.0
149
0.0
100
AcDbLayout
  1
Layout1
 70
     1
 71
     1
 10
0.0
 20
0.0
 11
12.0
 21
9.0
 12
0.0
 22
0.0
 32
0.0
 14
0.0
 24
0.0
 34
0.0
 15
0.0
 25
0.0
 35
0.0
146
0.0
 13
0.0
 23
0.0
 33
0.0
 16
1.0
 26
0.0
 36
0.0
 17
0.0
 27
1.0
 37
0.0
 76
     0
330
50
  0
LAYOUT
  5
56
102
{ACAD_REACTORS
330
1A
102
}
330
1A
100
AcDbPlotSettings
  1

  2
None
  4

  6

 40
0.0
 41
0.0
 42
0.0
 43
0.0
 44
0.0
 45
0.0
 46
0.0
 47
0.0
 48
0.0
 49
0.0
140
0.0
141
0.0
142
1.0
143
1.0
 70
   688
 72
     0
 73
     0
 74
     5
  7

 75
    16
147
1.0
148
0.0
149
0.0
100
AcDbLayout
  1
Layout2
 70
     1
 71
     2
 10
0.0
 20
0.0
 11
12.0
 21
9.0
 12
0.0
 22
0.0
 32
0.0
 14
0.0
 24
0.0
 34
0.0
 15
0.0
 25
0.0
 35
0.0
146
0.0
 13
0.0
 23
0.0
 33
0.0
 16
1.0
 26
0.0
 36
0.0
 17
0.0
 27
1.0
 37
0.0
 76
     0
330
55
  0
LAYOUT
  5
22
102
{ACAD_REACTORS
330
1A
102
}
330
1A
100
AcDbPlotSettings
  1

  2
none_device
  4
ANSI_A_(8.50_x_11.00_Inches)
  6

 40
6.35
 41
19.049999
 42
6.350006
 43
19.049988
 44
215.899994
 45
279.399994
 46
0.0
 47
0.0
 48
0.0
 49
0.0
140
0.0
141
0.0
142
1.0
143
78.436453
 70
 11952
 72
     0
 73
     1
 74
     0
  7

 75
     0
147
0.012749
148
0.0
149
0.0
100
AcDbLayout
  1
Model
 70
     1
 71
     0
 10
0.0
 20
0.0
 11
12.0
 21
9.0
 12
0.0
 22
0.0
 32
0.0
 14
0.0
 24
0.0
 34
0.0
 15
0.0
 25
0.0
 35
0.0
146
0.0
 13
0.0
 23
0.0
 33
0.0
 16
1.0
 26
0.0
 36
0.0
 17
0.0
 27
1.0
 37
0.0
 76
     0
330
1F
331
8E
  0
MATERIAL
  5
BB
102
{ACAD_REACTORS
330
6A
102
}
102
{ACAD_XDICTIONARY
360
392
102
}
330
6A
100
AcDbMaterial
  1
ByBlock
  0
MATERIAL
  5
BA
102
{ACAD_REACTORS
330
6A
102
}
102
{ACAD_XDICTIONARY
360
390
102
}
330
6A
100
AcDbMaterial
  1
ByLayer
  0
MATERIAL
  5
BC
102
{ACAD_REACTORS
330
6A
102
}
102
{ACAD_XDICTIONARY
360
394
102
}
330
6A
100
AcDbMaterial
  1
Global
  0
MLEADERSTYLE
  5
D9
102
{ACAD_REACTORS
330
D8
102
}
102
{ACAD_XDICTIONARY
360
3C7
102
}
330
D8
100
AcDbMLeaderStyle
170
     2
171
     1
172
     0
 90
        2
 40
0.0
 41
0.0
173
     1
 91
-1056964608
340
14
 92
       -2
290
     1
 42
2.0
291
     1
 43
8.0
  3
Standard
341
0
 44
4.0
300

342
11
174
     1
178
     6
175
     1
176
     0
 93
-1056964608
 45
4.0
292
     0
297
     0
 46
4.0
343
0
 94
-1056964608
 47
1.0
 49
1.0
140
1.0
293
     1
141
0.0
294
     1
177
     0
142
1.0
295
     0
296
     0
143
3.75
1001
ACAD_MLEADERVER
1070
     2
  0
MLINESTYLE
  5
18
102
{ACAD_REACTORS
330
17
102
}
330
17
100
AcDbMlineStyle
  2
STANDARD
 70
     0
  3

 62
   256
 51
90.0
 52
90.0
 71
     2
 49
0.5
 62
   256
  6
BYLAYER
 49
-0.5
 62
   256
  6
BYLAYER
  0
ACDBPLACEHOLDER
  5
F
102
{ACAD_REACTORS
330
E
102
}
330
E
  0
SCALE
  5
99
102
{ACAD_REACTORS
330
98
102
}
330
98
100
AcDbScale
 70
     0
300
1:1
140
1.0
141
1.0
290
     1
  0
SCALE
  5
9A
102
{ACAD_REACTORS
330
98
102
}
330
98
100
AcDbScale
 70
     0
300
1:2
140
1.0
141
2.0
290
     0
  0
SCALE
  5
9B
102
{ACAD_REACTORS
330
98
102
}
330
98
100
AcDbScale
 70
     0
300
1:4
140
1.0
141
4.0
290
     0
  0
SCALE
  5
9C
102
{ACAD_REACTORS
330
98
102
}
330
98
100
AcDbScale
 70
     0
300
1:5
140
1.0
141
5.0
290
     0
  0
SCALE
  5
9D
102
{ACAD_REACTORS
330
98
102
}
330
98
100
AcDbScale
 70
     0
300
1:8
140
1.0
141
8.0
290
     0
  0
SCALE
  5
9E
102
{ACAD_REACTORS
330
98
102
}
330
98
100
AcDbScale
 70
     0
300
1:10
140
1.0
141
10.0
290
     0
  0
SCALE
  5
9F
102
{ACAD_REACTORS
330
98
102
}
330
98
100
AcDbScale
 70
     0
300
1:16
140
1.0
141
16.0
290
     0
  0
SCALE
  5
A0
102
{ACAD_REACTORS
330
98
102
}
330
98
100
AcDbScale
 70
     0
300
1:20
140
1.0
141
20.0
290
     0
  0
SCALE
  5
A1
102
{ACAD_REACTORS
330
98
102
}
330
98
100
AcDbScale
 70
     0
300
1:30
140
1.0
141
30.0
290
     0
  0
SCALE
  5
A2
102
{ACAD_REACTORS
330
98
102
}
330
98
100
AcDbScale
 70
     0
300
1:40
140
1.0
141
40.0
290
     0
  0
SCALE
  5
A3
102
{ACAD_REACTORS
330
98
102
}
330
98
100
AcDbScale
 70
     0
300
1:50
140
1.0
141
50.0
290
     0
  0
SCALE
  5
A4
102
{ACAD_REACTORS
330
98
102
}
330
98
100
AcDbScale
 70
     0
300
1:100
140
1.0
141
100.0
290
     0
  0
SCALE
  5
A5
102
{ACAD_REACTORS
330
98
102
}
330
98
100
AcDbScale
 70
     0
300
2:1
140
2.0
141
1.0
290
     0
  0
SCALE
  5
A6
102
{ACAD_REACTORS
330
98
102
}
330
98
100
AcDbScale
 70
     0
300
4:1
140
4.0
141
1.0
290
     0
  0
SCALE
  5
A7
102
{ACAD_REACTORS
330
98
102
}
330
98
100
AcDbScale
 70
     0
300
8:1
140
8.0
141
1.0
290
     0
  0
SCALE
  5
A8
102
{ACAD_REACTORS
330
98
102
}
330
98
100
AcDbScale
 70
     0
300
10:1
140
10.0
141
1.0
290
     0
  0
SCALE
  5
A9
102
{ACAD_REACTORS
330
98
102
}
330
98
100
AcDbScale
 70
     0
300
100:1
140
100.0
141
1.0
290
     0
  0
SCALE
  5
AA
102
{ACAD_REACTORS
330
98
102
}
330
98
100
AcDbScale
 70
     0
300
1/128" = 1'-0"
140
0.007812
141
12.0
290
     0
  0
SCALE
  5
AB
102
{ACAD_REACTORS
330
98
102
}
330
98
100
AcDbScale
 70
     0
300
1/64" = 1'-0"
140
0.015625
141
12.0
290
     0
  0
SCALE
  5
AC
102
{ACAD_REACTORS
330
98
102
}
330
98
100
AcDbScale
 70
     0
300
1/32" = 1'-0"
140
0.03125
141
12.0
290
     0
  0
SCALE
  5
AD
102
{ACAD_REACTORS
330
98
102
}
330
98
100
AcDbScale
 70
     0
300
1/16" = 1'-0"
140
0.0625
141
12.0
290
     0
  0
SCALE
  5
AE
102
{ACAD_REACTORS
330
98
102
}
330
98
100
AcDbScale
 70
     0
300
3/32" = 1'-0"
140
0.09375
141
12.0
290
     0
  0
SCALE
  5
AF
102
{ACAD_REACTORS
330
98
102
}
330
98
100
AcDbScale
 70
     0
300
1/8" = 1'-0"
140
0.125
141
12.0
290
     0
  0
SCALE
  5
B0
102
{ACAD_REACTORS
330
98
102
}
330
98
100
AcDbScale
 70
     0
300
3/16" = 1'-0"
140
0.1875
141
12.0
290
     0
  0
SCALE
  5
B1
102
{ACAD_REACTORS
330
98
102
}
330
98
100
AcDbScale
 70
     0
300
1/4" = 1'-0"
140
0.25
141
12.0
290
     0
  0
SCALE
  5
B2
102
{ACAD_REACTORS
330
98
102
}
330
98
100
AcDbScale
 70
     0
300
3/8" = 1'-0"
140
0.375
141
12.0
290
     0
  0
SCALE
  5
B3
102
{ACAD_REACTORS
330
98
102
}
330
98
100
AcDbScale
 70
     0
300
1/2" = 1'-0"
140
0.5
141
12.0
290
     0
  0
SCALE
  5
B4
102
{ACAD_REACTORS
330
98
102
}
330
98
100
AcDbScale
 70
     0
300
3/4" = 1'-0"
140
0.75
141
12.0
290
     0
  0
SCALE
  5
B5
102
{ACAD_REACTORS
330
98
102
}
330
98
100
AcDbScale
 70
     0
300
1" = 1'-0"
140
1.0
141
12.0
290
     0
  0
SCALE
  5
B6
102
{ACAD_REACTORS
330
98
102
}
330
98
100
AcDbScale
 70
     0
300
1-1/2" = 1'-0"
140
1.5
141
12.0
290
     0
  0
SCALE
  5
B7
102
{ACAD_REACTORS
330
98
102
}
330
98
100
AcDbScale
 70
     0
300
3" = 1'-0"
140
3.0
141
12.0
290
     0
  0
SCALE
  5
B8
102
{ACAD_REACTORS
330
98
102
}
330
98
100
AcDbScale
 70
     0
300
6" = 1'-0"
140
6.0
141
12.0
290
     0
  0
SCALE
  5
B9
102
{ACAD_REACTORS
330
98
102
}
330
98
100
AcDbScale
 70
     0
300
1'-0" = 1'-0"
140
12.0
141
12.0
290
     0
  0
TABLESTYLE
  5
D7
102
{ACAD_REACTORS
330
D6
102
}
330
D6
100
AcDbTableStyle
  3
Standard
 70
     0
 71
     0
 40
1.5
 41
1.5
280
     0
281
     0
  7
Standard
140
4.5
170
     2
 62
     0
 63
   257
283
     0
274
    -2
284
     1
 64
     0
275
    -2
285
     1
 65
     0
276
    -2
286
     1
 66
     0
277
    -2
287
     1
 67
     0
278
    -2
288
     1
 68
     0
279
    -2
289
     1
 69
     0
  7
Standard
140
6.0
170
     5
 62
     0
 63
   257
283
     0
274
    -2
284
     1
 64
     0
275
    -2
285
     1
 65
     0
276
    -2
286
     1
 66
     0
277
    -2
287
     1
 67
     0
278
    -2
288
     1
 68
     0
279
    -2
289
     1
 69
     0
  7
Standard
140
4.5
170
     5
 62
     0
 63
   257
283
     0
274
    -2
284
     1
 64
     0
275
    -2
285
     1
 65
     0
276
    -2
286
     1
 66
     0
277
    -2
287
     1
 67
     0
278
    -2
288
     1
 68
     0
279
    -2
289
     1
 69
     0
  0
VISUALSTYLE
  5
C2
102
{ACAD_REACTORS
330
BD
102
}
102
{ACAD_XDICTIONARY
360
39E
102
}
330
BD
100
AcDbVisualStyle
  2
2dWireframe
 70
     4
 71
     0
 72
     2
 73
     0
 90
        0
 40
0.6
 41
30.0
 62
     5
 63
     7
 74
     1
 91
        4
 64
     7
 65
   257
 75
     1
175
     1
 42
1.0
 92
        0
 66
   257
 43
1.0
 76
     1
 77
     6
 78
     2
 67
     7
 79
     5
170
     0
171
     0
290
     0
174
     0
 93
        1
 44
0.0
173
     0
291
     0
 45
0.0
1001
ACAD
1000
AcDbSavedByObjectVersion
1070
     0
  0
VISUALSTYLE
  5
C5
102
{ACAD_REACTORS
330
BD
102
}
102
{ACAD_XDICTIONARY
360
3A4
102
}
330
BD
100
AcDbVisualStyle
  2
Basic
 70
     7
 71
     1
 72
     0
 73
     1
 90
        0
 40
0.6
 41
30.0
 62
     5
 63
     7
 74
     0
 91
        4
 64
     7
 65
   257
 75
     1
175
     1
 42
1.0
 92
        8
 66
     7
 43
1.0
 76
     1
 77
     6
 78
     2
 67
     7
 79
     5
170
     0
171
     0
290
     0
174
     0
 93
        1
 44
0.0
173
     0
291
     1
 45
0.0
1001
ACAD
1000
AcDbSavedByObjectVersion
1070
     0
  0
VISUALSTYLE
  5
C9
102
{ACAD_REACTORS
330
BD
102
}
102
{ACAD_XDICTIONARY
360
3AC
102
}
330
BD
100
AcDbVisualStyle
  2
Brighten
 70
    12
 71
     2
 72
     2
 73
     0
 90
        0
 40
0.6
 41
30.0
 62
     5
 63
     7
 74
     1
 91
        4
 64
     7
 65
   257
 75
     1
175
     1
 42
1.0
 92
        8
 66
     7
 43
1.0
 76
     1
 77
     6
 78
     2
 67
     7
 79
     5
170
     0
171
     0
290
     0
174
     0
 93
        1
 44
50.0
173
     0
291
     1
 45
0.0
1001
ACAD
1000
AcDbSavedByObjectVersion
1070
     0
  0
VISUALSTYLE
  5
CD
102
{ACAD_REACTORS
330
BD
102
}
102
{ACAD_XDICTIONARY
360
3B4
102
}
330
BD
100
AcDbVisualStyle
  2
ColorChange
 70
    16
 71
     2
 72
     2
 73
     3
 90
        0
 40
0.6
 41
30.0
 62
     5
 63
     8
 74
     1
 91
        4
 64
     7
 65
   257
 75
     1
175
     1
 42
1.0
 92
        8
 66
     8
 43
1.0
 76
     1
 77
     6
 78
     2
 67
     7
 79
     5
170
     0
171
     0
290
     0
174
     0
 93
        1
 44
0.0
173
     0
291
     1
 45
0.0
1001
ACAD
1000
AcDbSavedByObjectVersion
1070
     0
  0
VISUALSTYLE
  5
C7
102
{ACAD_REACTORS
330
BD
102
}
102
{ACAD_XDICTIONARY
360
3A8
102
}
330
BD
100
AcDbVisualStyle
  2
Conceptual
 70
     9
 71
     3
 72
     2
 73
     0
 90
        0
 40
0.6
 41
30.0
 62
     5
 63
     7
 74
     2
 91
        2
 64
     7
 65
   257
 75
     1
175
     1
 42
179.0
 92
        8
 66
     7
 43
1.0
 76
     1
 77
     6
 78
     2
 67
     7
 79
     3
170
     0
171
     0
290
     0
174
     0
 93
        1
 44
0.0
173
     0
291
     0
 45
0.0
1001
ACAD
1000
AcDbSavedByObjectVersion
1070
     0
  0
VISUALSTYLE
  5
C8
102
{ACAD_REACTORS
330
BD
102
}
102
{ACAD_XDICTIONARY
360
3AA
102
}
330
BD
100
AcDbVisualStyle
  2
Dim
 70
    11
 71
     2
 72
     2
 73
     0
 90
        0
 40
0.6
 41
30.0
 62
     5
 63
     7
 74
     1
 91
        4
 64
     7
 65
   257
 75
     1
175
     1
 42
1.0
 92
        8
 66
     7
 43
1.0
 76
     1
 77
     6
 78
     2
 67
     7
 79
     5
170
     0
171
     0
290
     0
174
     0
 93
        1
 44
-50.0
173
     0
291
     1
 45
0.0
1001
ACAD
1000
AcDbSavedByObjectVersion
1070
     0
  0
VISUALSTYLE
  5
D0
102
{ACAD_REACTORS
330
BD
102
}
102
{ACAD_XDICTIONARY
360
3BA
102
}
330
BD
100
AcDbVisualStyle
  2
EdgeColorOff
 70
    22
 71
     2
 72
     2
 73
     0
 90
        0
 40
0.6
 41
30.0
 62
     5
 63
     7
 74
     1
 91
        4
 64
     7
 65
   257
 75
     1
175
     1
 42
1.0
 92
        8
 66
     7
 43
1.0
 76
     1
 77
     6
 78
     2
 67
     7
 79
     5
170
     0
171
     0
290
     0
174
     0
 93
        1
 44
0.0
173
     0
291
     1
 45
0.0
1001
ACAD
1000
AcDbSavedByObjectVersion
1070
     0
  0
VISUALSTYLE
  5
CC
102
{ACAD_REACTORS
330
BD
102
}
102
{ACAD_XDICTIONARY
360
3B2
102
}
330
BD
100
AcDbVisualStyle
  2
Facepattern
 70
    15
 71
     2
 72
     2
 73
     0
 90
        0
 40
0.6
 41
30.0
 62
     5
 63
     7
 74
     1
 91
        4
 64
     7
 65
   257
 75
     1
175
     1
 42
1.0
 92
        8
 66
     7
 43
1.0
 76
     1
 77
     6
 78
     2
 67
     7
 79
     5
170
     0
171
     0
290
     0
174
     0
 93
        1
 44
0.0
173
     0
291
     1
 45
0.0
1001
ACAD
1000
AcDbSavedByObjectVersion
1070
     0
  0
VISUALSTYLE
  5
BE
102
{ACAD_REACTORS
330
BD
102
}
102
{ACAD_XDICTIONARY
360
396
102
}
330
BD
100
AcDbVisualStyle
  2
Flat
 70
     0
 71
     2
 72
     1
 73
     1
 90
        2
 40
0.6
 41
30.0
 62
     5
 63
     7
 74
     0
 91
        0
 64
     7
 65
   257
 75
     1
175
     1
 42
1.0
 92
        8
 66
     7
 43
1.0
 76
     1
 77
     6
 78
     2
 67
     7
 79
     5
170
     0
171
     0
290
     0
174
     0
 93
       13
 44
0.0
173
     0
291
     1
 45
0.0
1001
ACAD
1000
AcDbSavedByObjectVersion
1070
     0
  0
VISUALSTYLE
  5
BF
102
{ACAD_REACTORS
330
BD
102
}
102
{ACAD_XDICTIONARY
360
398
102
}
330
BD
100
AcDbVisualStyle
  2
FlatWithEdges
 70
     1
 71
     2
 72
     1
 73
     1
 90
        2
 40
0.6
 41
30.0
 62
     5
 63
     7
 74
     1
 91
        0
 64
     7
 65
   257
 75
     1
175
     1
 42
1.0
 92
        0
 66
   257
 43
1.0
 76
     1
 77
     6
 78
     2
 67
     7
 79
     5
170
     0
171
     0
290
     0
174
     0
 93
       13
 44
0.0
173
     0
291
     1
 45
0.0
1001
ACAD
1000
AcDbSavedByObjectVersion
1070
     0
  0
VISUALSTYLE
  5
C0
102
{ACAD_REACTORS
330
BD
102
}
102
{ACAD_XDICTIONARY
360
39A
102
}
330
BD
100
AcDbVisualStyle
  2
Gouraud
 70
     2
 71
     2
 72
     2
 73
     1
 90
        2
 40
0.6
 41
30.0
 62
     5
 63
     7
 74
     0
 91
        0
 64
     7
 65
   257
 75
     1
175
     1
 42
1.0
 92
        0
 66
     7
 43
1.0
 76
     1
 77
     6
 78
     2
 67
     7
 79
     5
170
     0
171
     0
290
     0
174
     0
 93
       13
 44
0.0
173
     0
291
     1
 45
0.0
1001
ACAD
1000
AcDbSavedByObjectVersion
1070
     0
  0
VISUALSTYLE
  5
C1
102
{ACAD_REACTORS
330
BD
102
}
102
{ACAD_XDICTIONARY
360
39C
102
}
330
BD
100
AcDbVisualStyle
  2
GouraudWithEdges
 70
     3
 71
     2
 72
     2
 73
     1
 90
        2
 40
0.6
 41
30.0
 62
     5
 63
     7
 74
     1
 91
        0
 64
     7
 65
   257
 75
     1
175
     1
 42
1.0
 92
        0
 66
   257
 43
1.0
 76
     1
 77
     6
 78
     2
 67
     7
 79
     5
170
     0
171
     0
290
     0
174
     0
 93
       13
 44
0.0
173
     0
291
     1
 45
0.0
1001
ACAD
1000
AcDbSavedByObjectVersion
1070
     0
  0
VISUALSTYLE
  5
C4
102
{ACAD_REACTORS
330
BD
102
}
102
{ACAD_XDICTIONARY
360
3A2
102
}
330
BD
100
AcDbVisualStyle
  2
Hidden
 70
     6
 71
     1
 72
     2
 73
     2
 90
        0
 40
0.6
 41
30.0
 62
     5
 63
     7
 74
     2
 91
        2
 64
     7
 65
   257
 75
     2
175
     1
 42
40.0
 92
        0
 66
   257
 43
1.0
 76
     1
 77
     6
 78
     2
 67
     7
 79
     3
170
     0
171
     0
290
     0
174
     0
 93
        1
 44
0.0
173
     0
291
     0
 45
0.0
1001
ACAD
1000
AcDbSavedByObjectVersion
1070
     0
  0
VISUALSTYLE
  5
CE
102
{ACAD_REACTORS
330
BD
102
}
102
{ACAD_XDICTIONARY
360
3B6
102
}
330
BD
100
AcDbVisualStyle
  2
JitterOff
 70
    20
 71
     2
 72
     2
 73
     0
 90
        0
 40
0.6
 41
30.0
 62
     5
 63
     7
 74
     1
 91
        4
 64
     7
 65
   257
 75
     1
175
     1
 42
1.0
 92
       10
 66
     7
 43
1.0
 76
     1
 77
     6
 78
     2
 67
     7
 79
     5
170
     0
171
     0
290
     0
174
     0
 93
        1
 44
0.0
173
     0
291
     1
 45
0.0
1001
ACAD
1000
AcDbSavedByObjectVersion
1070
     0
  0
VISUALSTYLE
  5
CB
102
{ACAD_REACTORS
330
BD
102
}
102
{ACAD_XDICTIONARY
360
3B0
102
}
330
BD
100
AcDbVisualStyle
  2
Linepattern
 70
    14
 71
     2
 72
     2
 73
     0
 90
        0
 40
0.6
 41
30.0
 62
     5
 63
     7
 74
     1
 91
        4
 64
     7
 65
   257
 75
     7
175
     7
 42
1.0
 92
        8
 66
     7
 43
1.0
 76
     1
 77
     6
 78
     2
 67
     7
 79
     5
170
     0
171
     0
290
     0
174
     0
 93
        1
 44
0.0
173
     0
291
     1
 45
0.0
1001
ACAD
1000
AcDbSavedByObjectVersion
1070
     0
  0
VISUALSTYLE
  5
CF
102
{ACAD_REACTORS
330
BD
102
}
102
{ACAD_XDICTIONARY
360
3B8
102
}
330
BD
100
AcDbVisualStyle
  2
OverhangOff
 70
    21
 71
     2
 72
     2
 73
     0
 90
        0
 40
0.6
 41
30.0
 62
     5
 63
     7
 74
     1
 91
        4
 64
     7
 65
   257
 75
     1
175
     1
 42
1.0
 92
        9
 66
     7
 43
1.0
 76
     1
 77
     6
 78
     2
 67
     7
 79
     5
170
     0
171
     0
290
     0
174
     0
 93
        1
 44
0.0
173
     0
291
     1
 45
0.0
1001
ACAD
1000
AcDbSavedByObjectVersion
1070
     0
  0
VISUALSTYLE
  5
C6
102
{ACAD_REACTORS
330
BD
102
}
102
{ACAD_XDICTIONARY
360
3A6
102
}
330
BD
100
AcDbVisualStyle
  2
Realistic
 70
     8
 71
     2
 72
     3
 73
     0
 90
        2
 40
0.6
 41
30.0
 62
     5
 63
     7
 74
     0
 91
        0
 64
     7
 65
   257
 75
     1
175
     1
 42
1.0
 92
        8
 66
   257
 43
1.0
 76
     1
 77
     6
 78
     2
 67
     7
 79
     3
170
     0
171
     0
290
     0
174
     0
 93
       13
 44
0.0
173
     0
291
     0
 45
0.0
1001
ACAD
1000
AcDbSavedByObjectVersion
1070
     0
  0
VISUALSTYLE
  5
D5
102
{ACAD_REACTORS
330
BD
102
}
102
{ACAD_XDICTIONARY
360
3C4
102
}
330
BD
100
AcDbVisualStyle
  2
Shaded
 70
    27
 71
     2
 72
     2
 73
     1
 90
        2
 40
0.6
 41
30.0
 62
     5
 63
     7
 74
     0
 91
        4
 64
     7
 65
   257
 75
     1
175
     1
 42
1.0
 92
        8
 66
   257
 43
1.0
 76
     1
 77
     6
 78
     2
 67
     8
 79
     3
170
     0
171
     0
290
     0
174
     0
 93
        5
 44
0.0
173
     0
291
     0
 45
0.0
1001
ACAD
1000
AcDbSavedByObjectVersion
1070
     0
  0
VISUALSTYLE
  5
D4
102
{ACAD_REACTORS
330
BD
102
}
102
{ACAD_XDICTIONARY
360
3C2
102
}
330
BD
100
AcDbVisualStyle
  2
Shaded with edges
 70
    26
 71
     2
 72
     2
 73
     1
 90
        2
 40
0.6
 41
30.0
 62
     5
 63
     7
 74
     1
 91
       10
 64
     7
 65
   257
 75
     2
175
     1
 42
1.0
 92
        8
 66
   257
 43
1.0
 76
     1
 77
     6
 78
     2
 67
     7
 79
     3
170
     0
171
     0
290
     0
174
     0
 93
        5
 44
0.0
173
     0
291
     0
 45
0.0
1001
ACAD
1000
AcDbSavedByObjectVersion
1070
     0
  0
VISUALSTYLE
  5
D1
102
{ACAD_REACTORS
330
BD
102
}
102
{ACAD_XDICTIONARY
360
3BC
102
}
330
BD
100
AcDbVisualStyle
  2
Shades of Gray
 70
    23
 71
     2
 72
     2
 73
     3
 90
        0
 40
0.6
 41
30.0
 62
     5
 63
     7
 74
     2
 91
        2
 64
     7
 65
     7
 75
     1
175
     1
 42
40.0
 92
        8
 66
     7
 43
1.0
 76
     1
 77
     6
 78
     2
 67
     7
 79
     3
170
     0
171
     0
290
     0
174
     0
 93
        1
 44
0.0
173
     0
291
     0
 45
0.0
1001
ACAD
1000
AcDbSavedByObjectVersion
1070
     0
  0
VISUALSTYLE
  5
D2
102
{ACAD_REACTORS
330
BD
102
}
102
{ACAD_XDICTIONARY
360
3BE
102
}
330
BD
100
AcDbVisualStyle
  2
Sketchy
 70
    24
 71
     1
 72
     2
 73
     2
 90
        0
 40
0.6
 41
30.0
 62
     5
 63
     7
 74
     2
 91
        2
 64
     7
 65
     7
 75
     1
175
     1
 42
40.0
 92
       11
 66
     7
 43
1.0
 76
     1
 77
     6
 78
     2
 67
     7
 79
     6
170
     0
171
     0
290
     0
174
     0
 93
        1
 44
0.0
173
     0
291
     0
 45
0.0
1001
ACAD
1000
AcDbSavedByObjectVersion
1070
     0
  0
VISUALSTYLE
  5
CA
102
{ACAD_REACTORS
330
BD
102
}
102
{ACAD_XDICTIONARY
360
3AE
102
}
330
BD
100
AcDbVisualStyle
  2
Thicken
 70
    13
 71
     2
 72
     2
 73
     0
 90
        0
 40
0.6
 41
30.0
 62
     5
 63
     7
 74
     1
 91
        4
 64
     7
 65
   257
 75
     1
175
     1
 42
1.0
 92
       12
 66
     7
 43
1.0
 76
     1
 77
     6
 78
     2
 67
     7
 79
     5
170
     0
171
     0
290
     0
174
     0
 93
        1
 44
0.0
173
     0
291
     1
 45
0.0
1001
ACAD
1000
AcDbSavedByObjectVersion
1070
     0
  0
VISUALSTYLE
  5
C3
102
{ACAD_REACTORS
330
BD
102
}
102
{ACAD_XDICTIONARY
360
3A0
102
}
330
BD
100
AcDbVisualStyle
  2
Wireframe
 70
     5
 71
     0
 72
     2
 73
     0
 90
        0
 40
0.6
 41
30.0
 62
     5
 63
     7
 74
     1
 91
        4
 64
     7
 65
   257
 75
     1
175
     1
 42
1.0
 92
        0
 66
   257
 43
1.0
 76
     1
 77
     6
 78
     2
 67
     7
 79
     3
170
     0
171
     0
290
     0
174
     0
 93
        1
 44
0.0
173
     0
291
     0
 45
0.0
1001
ACAD
1000
AcDbSavedByObjectVersion
1070
     0
  0
VISUALSTYLE
  5
D3
102
{ACAD_REACTORS
330
BD
102
}
102
{ACAD_XDICTIONARY
360
3C0
102
}
330
BD
100
AcDbVisualStyle
  2
X-Ray
 70
    25
 71
     2
 72
     2
 73
     1
 90
        1
 40
0.5
 41
30.0
 62
     5
 63
     7
 74
     1
 91
        0
 64
     7
 65
   257
 75
     1
175
     1
 42
1.0
 92
        8
 66
     7
 43
1.0
 76
     1
 77
     6
 78
     2
 67
     7
 79
     3
170
     0
171
     0
290
     0
174
     0
 93
       13
 44
0.0
173
     0
291
     0
 45
0.0
1001
ACAD
1000
AcDbSavedByObjectVersion
1070
     0
  0
XRECORD
  5
38B
102
{ACAD_REACTORS
330
38A
102
}
330
38A
100
AcDbXrecord
280
     1
340
6B
  0
XRECORD
  5
38C
102
{ACAD_REACTORS
330
38A
102
}
330
38A
100
AcDbXrecord
280
     1
340
6A
  0
DICTIONARYVAR
  5
38F
102
{ACAD_REACTORS
330
5E
102
}
330
5E
100
DictionaryVariables
280
     0
  1
1:1
  0
DICTIONARYVAR
  5
386
102
{ACAD_REACTORS
330
5E
102
}
330
5E
100
DictionaryVariables
280
     0
  1
Standard
  0
DICTIONARYVAR
  5
385
102
{ACAD_REACTORS
330
5E
102
}
330
5E
100
DictionaryVariables
280
     0
  1
Standard
  0
DICTIONARYVAR
  5
5F
102
{ACAD_REACTORS
330
5E
102
}
330
5E
100
DictionaryVariables
280
     0
  1
2
  0
DICTIONARYVAR
  5
63
102
{ACAD_REACTORS
330
5E
102
}
330
5E
100
DictionaryVariables
280
     0
  1
1
  0
DICTIONARYVAR
  5
387
102
{ACAD_REACTORS
330
5E
102
}
330
5E
100
DictionaryVariables
280
     0
  1
0
  0
DICTIONARYVAR
  5
89
102
{ACAD_REACTORS
330
5E
102
}
330
5E
100
DictionaryVariables
280
     0
  1

  0
DICTIONARY
  5
392
330
BB
100
AcDbDictionary
280
     1
281
     1
  3
ACAD_XREC_ROUNDTRIP
360
393
  0
DICTIONARY
  5
390
330
BA
100
AcDbDictionary
280
     1
281
     1
  3
ACAD_XREC_ROUNDTRIP
360
391
  0
DICTIONARY
  5
394
330
BC
100
AcDbDictionary
280
     1
281
     1
  3
ACAD_XREC_ROUNDTRIP
360
395
  0
DICTIONARY
  5
3C7
330
D9
100
AcDbDictionary
280
     1
281
     1
  3
ACAD_XREC_ROUNDTRIP
360
3C8
  0
DICTIONARY
  5
39E
330
C2
100
AcDbDictionary
280
     1
281
     1
  3
ACAD_XREC_ROUNDTRIP
360
39F
  0
DICTIONARY
  5
3A4
330
C5
100
AcDbDictionary
280
     1
281
     1
  3
ACAD_XREC_ROUNDTRIP
360
3A5
  0
DICTIONARY
  5
3AC
330
C9
100
AcDbDictionary
280
     1
281
     1
  3
ACAD_XREC_ROUNDTRIP
360
3AD
  0
DICTIONARY
  5
3B4
330
CD
100
AcDbDictionary
280
     1
281
     1
  3
ACAD_XREC_ROUNDTRIP
360
3B5
  0
DICTIONARY
  5
3A8
330
C7
100
AcDbDictionary
280
     1
281
     1
  3
ACAD_XREC_ROUNDTRIP
360
3A9
  0
DICTIONARY
  5
3AA
330
C8
100
AcDbDictionary
280
     1
281
     1
  3
ACAD_XREC_ROUNDTRIP
360
3AB
  0
DICTIONARY
  5
3BA
330
D0
100
AcDbDictionary
280
     1
281
     1
  3
ACAD_XREC_ROUNDTRIP
360
3BB
  0
DICTIONARY
  5
3B2
330
CC
100
AcDbDictionary
280
     1
281
     1
  3
ACAD_XREC_ROUNDTRIP
360
3B3
  0
DICTIONARY
  5
396
330
BE
100
AcDbDictionary
280
     1
281
     1
  3
ACAD_XREC_ROUNDTRIP
360
397
  0
DICTIONARY
  5
398
330
BF
100
AcDbDictionary
280
     1
281
     1
  3
ACAD_XREC_ROUNDTRIP
360
399
  0
DICTIONARY
  5
39A
330
C0
100
AcDbDictionary
280
     1
281
     1
  3
ACAD_XREC_ROUNDTRIP
360
39B
  0
DICTIONARY
  5
39C
330
C1
100
AcDbDictionary
280
     1
281
     1
  3
ACAD_XREC_ROUNDTRIP
360
39D
  0
DICTIONARY
  5
3A2
330
C4
100
AcDbDictionary
280
     1
281
     1
  3
ACAD_XREC_ROUNDTRIP
360
3A3
  0
DICTIONARY
  5
3B6
330
CE
100
AcDbDictionary
280
     1
281
     1
  3
ACAD_XREC_ROUNDTRIP
360
3B7
  0
DICTIONARY
  5
3B0
330
CB
100
AcDbDictionary
280
     1
281
     1
  3
ACAD_XREC_ROUNDTRIP
360
3B1
  0
DICTIONARY
  5
3B8
330
CF
100
AcDbDictionary
280
     1
281
     1
  3
ACAD_XREC_ROUNDTRIP
360
3B9
  0
DICTIONARY
  5
3A6
330
C6
100
AcDbDictionary
280
     1
281
     1
  3
ACAD_XREC_ROUNDTRIP
360
3A7
  0
DICTIONARY
  5
3C4
330
D5
100
AcDbDictionary
280
     1
281
     1
  3
ACAD_XREC_ROUNDTRIP
360
3C5
  0
DICTIONARY
  5
3C2
330
D4
100
AcDbDictionary
280
     1
281
     1
  3
ACAD_XREC_ROUNDTRIP
360
3C3
  0
DICTIONARY
  5
3BC
330
D1
100
AcDbDictionary
280
     1
281
     1
  3
ACAD_XREC_ROUNDTRIP
360
3BD
  0
DICTIONARY
  5
3BE
330
D2
100
AcDbDictionary
280
     1
281
     1
  3
ACAD_XREC_ROUNDTRIP
360
3BF
  0
DICTIONARY
  5
3AE
330
CA
100
AcDbDictionary
280
     1
281
     1
  3
ACAD_XREC_ROUNDTRIP
360
3AF
  0
DICTIONARY
  5
3A0
330
C3
100
AcDbDictionary
280
     1
281
     1
  3
ACAD_XREC_ROUNDTRIP
360
3A1
  0
DICTIONARY
  5
3C0
330
D3
100
AcDbDictionary
280
     1
281
     1
  3
ACAD_XREC_ROUNDTRIP
360
3C1
  0
XRECORD
  5
393
102
{ACAD_REACTORS
330
392
102
}
330
392
100
AcDbXrecord
280
     1
102
MATERIAL
148
0.0
149
0.0
149
0.0
 93
        0
 94
      127
282
     0
 72
     1
 77
     1
171
     1
175
     1
179
     1
273
     0
  0
XRECORD
  5
391
102
{ACAD_REACTORS
330
390
102
}
330
390
100
AcDbXrecord
280
     1
102
MATERIAL
148
0.0
149
0.0
149
0.0
 93
        0
 94
      127
282
     0
 72
     1
 77
     1
171
     1
175
     1
179
     1
273
     0
  0
XRECORD
  5
395
102
{ACAD_REACTORS
330
394
102
}
330
394
100
AcDbXrecord
280
     1
102
MATERIAL
148
0.0
149
0.0
149
0.0
 93
        0
 94
      127
282
     0
 72
     1
 77
     1
171
     1
175
     1
179
     1
273
     0
  0
XRECORD
  5
3C8
102
{ACAD_REACTORS
330
3C7
102
}
330
3C7
100
AcDbXrecord
280
     1
102
ACAD_ROUNDTRIP_2010_MLEADER_STYLE
  0
XRECORD
  5
39F
102
{ACAD_REACTORS
330
39E
102
}
330
39E
100
AcDbXrecord
280
     1
102
RTVSPropertyOp0
 70
     1
102
RTVSPropertyOp1
 70
     1
102
RTVSPropertyOp2
 70
     1
102
RTVSPropertyOp3
 70
     1
102
RTVSPropertyOp4
 70
     1
102
RTVSPropertyOp5
 70
     1
102
RTVSPropertyOp6
 70
     1
102
RTVSPropertyOp7
 70
     1
102
RTVSPropertyOp8
 70
     1
102
RTVSPropertyOp9
 70
     1
102
RTVSPropertyOp10
 70
     1
102
RTVSPropertyOp11
 70
     1
102
RTVSPropertyOp12
 70
     1
102
RTVSPropertyOp13
 70
     1
102
RTVSPropertyOp14
 70
     1
102
RTVSPropertyOp15
 70
     1
102
RTVSPropertyOp16
 70
     1
102
RTVSPropertyOp17
 70
     1
102
RTVSPropertyOp18
 70
     1
102
RTVSPropertyOp19
 70
     1
102
RTVSPropertyOp20
 70
     1
102
RTVSPropertyOp21
 70
     1
102
RTVSPropertyOp22
 70
     1
102
RTVSPropertyOp23
 70
     1
102
RTVSPropertyOp24
 70
     1
102
RTVSPropertyOp25
 70
     1
102
RTVSPropertyOp26
 70
     1
102
RTVSPropertyOp27
 70
     1
102
RTVSPropertyOp28
 70
     1
102
RTVSPropertyOp29
 70
     1
102
RTVSPropertyOp30
 70
     1
102
RTVSPropertyOp31
 70
     1
102
RTVSPropertyOp32
 70
     1
102
RTVSPropertyOp33
 70
     1
102
RTVSPropertyOp34
 70
     1
102
RTVSPropertyOp35
 70
     1
102
RTVSPropertyOp36
 70
     1
102
RTVSPropertyOp37
 70
     1
102
RTVSPropertyOp38
 70
     1
102
RTVSPropertyOp39
 70
     1
102
RTVSPropertyOp40
 70
     1
102
RTVSPropertyOp41
 70
     1
102
RTVSPropertyOp42
 70
     1
102
RTVSPropertyOp43
 70
     1
102
RTVSPropertyOp44
 70
     1
102
RTVSPropertyOp45
 70
     1
102
RTVSPropertyOp46
 70
     1
102
RTVSPropertyOp47
 70
     1
102
RTVSPropertyOp48
 70
     1
102
RTVSPropertyOp49
 70
     1
102
RTVSPropertyOp50
 70
     1
102
RTVSPropertyOp51
 70
     0
102
RTVSPropertyOp52
 70
     0
102
RTVSPropertyOp53
 70
     1
102
RTVSPropertyOp54
 70
     1
102
RTVSPropertyOp55
 70
     1
102
RTVSPropertyOp56
 70
     1
102
RTVSPropertyOp57
 70
     1
102
RTVSPost2010Prop28
280
     1
102
RTVSPost2010PropOp28
 70
     1
102
RTVSPost2010Prop29
280
     1
102
RTVSPost2010PropOp29
 70
     1
102
RTVSPost2010Prop30
280
     0
102
RTVSPost2010PropOp30
 70
     1
102
RTVSPost2010Prop31
280
     0
102
RTVSPost2010PropOp31
 70
     1
102
RTVSPost2010Prop32
280
     0
102
RTVSPost2010PropOp32
 70
     1
102
RTVSPost2010Prop33
280
     0
102
RTVSPost2010PropOp33
 70
     1
102
RTVSPost2010Prop34
280
     0
102
RTVSPost2010PropOp34
 70
     1
102
RTVSPost2010Prop35
280
     0
102
RTVSPost2010PropOp35
 70
     1
102
RTVSPost2010Prop36
280
     0
102
RTVSPost2010PropOp36
 70
     1
102
RTVSPost2010Prop37
 90
       50
102
RTVSPost2010PropOp37
 70
     1
102
RTVSPost2010Prop38
140
0.0
102
RTVSPost2010PropOp38
 70
     1
102
RTVSPost2010Prop39
140
1.0
102
RTVSPost2010PropOp39
 70
     1
102
RTVSPost2010Prop40
 90
        0
102
RTVSPost2010PropOp40
 70
     1
102
RTVSPost2010Prop41ColorIndex
 90
       18
102
RTVSPost2010Prop41ColorRGB
 90
        0
102
RTVSPost2010PropOp41
 70
     1
102
RTVSPost2010Prop42
 90
       50
102
RTVSPost2010PropOp42
 70
     1
102
RTVSPost2010Prop43
 90
        3
102
RTVSPost2010PropOp43
 70
     1
102
RTVSPost2010Prop44ColorIndex
 90
        5
102
RTVSPost2010Prop44ColorRGB
 90
      255
102
RTVSPost2010PropOp44
 70
     1
102
RTVSPost2010Prop45
280
     0
102
RTVSPost2010PropOp45
 70
     1
102
RTVSPost2010Prop46
 90
       50
102
RTVSPost2010PropOp46
 70
     1
102
RTVSPost2010Prop47
 90
       50
102
RTVSPost2010PropOp47
 70
     1
102
RTVSPost2010Prop48
 90
       50
102
RTVSPost2010PropOp48
 70
     1
102
RTVSPost2010Prop49
280
     0
102
RTVSPost2010PropOp49
 70
     1
102
RTVSPost2010Prop50
 90
       50
102
RTVSPost2010PropOp50
 70
     1
102
RTVSPost2010Prop51ColorIndex
 90
      256
102
RTVSPost2010Prop51ColorRGB
 90
-16777216
102
RTVSPost2010PropOp51
 70
     0
102
RTVSPost2010Prop52
140
1.0
102
RTVSPost2010PropOp52
 70
     0
102
RTVSPost2010Prop53
 90
        2
102
RTVSPost2010PropOp53
 70
     1
102
RTVSPost2010Prop54
  1
strokes_ogs.tif
102
RTVSPost2010PropOp54
 70
     1
102
RTVSPost2010Prop55
280
     0
102
RTVSPost2010PropOp55
 70
     1
102
RTVSPost2010Prop56
140
1.0
102
RTVSPost2010PropOp56
 70
     1
102
RTVSPost2010Prop57
140
1.0
102
RTVSPost2010PropOp57
 70
     1
  0
XRECORD
  5
3A5
102
{ACAD_REACTORS
330
3A4
102
}
330
3A4
100
AcDbXrecord
280
     1
102
RTVSPropertyOp0
 70
     1
102
RTVSPropertyOp1
 70
     1
102
RTVSPropertyOp2
 70
     1
102
RTVSPropertyOp3
 70
     1
102
RTVSPropertyOp4
 70
     1
102
RTVSPropertyOp5
 70
     1
102
RTVSPropertyOp6
 70
     1
102
RTVSPropertyOp7
 70
     1
102
RTVSPropertyOp8
 70
     1
102
RTVSPropertyOp9
 70
     1
102
RTVSPropertyOp10
 70
     1
102
RTVSPropertyOp11
 70
     1
102
RTVSPropertyOp12
 70
     1
102
RTVSPropertyOp13
 70
     1
102
RTVSPropertyOp14
 70
     1
102
RTVSPropertyOp15
 70
     1
102
RTVSPropertyOp16
 70
     1
102
RTVSPropertyOp17
 70
     1
102
RTVSPropertyOp18
 70
     1
102
RTVSPropertyOp19
 70
     1
102
RTVSPropertyOp20
 70
     1
102
RTVSPropertyOp21
 70
     1
102
RTVSPropertyOp22
 70
     1
102
RTVSPropertyOp23
 70
     1
102
RTVSPropertyOp24
 70
     1
102
RTVSPropertyOp25
 70
     1
102
RTVSPropertyOp26
 70
     1
102
RTVSPropertyOp27
 70
     1
102
RTVSPropertyOp28
 70
     1
102
RTVSPropertyOp29
 70
     1
102
RTVSPropertyOp30
 70
     1
102
RTVSPropertyOp31
 70
     1
102
RTVSPropertyOp32
 70
     1
102
RTVSPropertyOp33
 70
     1
102
RTVSPropertyOp34
 70
     1
102
RTVSPropertyOp35
 70
     1
102
RTVSPropertyOp36
 70
     1
102
RTVSPropertyOp37
 70
     1
102
RTVSPropertyOp38
 70
     1
102
RTVSPropertyOp39
 70
     1
102
RTVSPropertyOp40
 70
     1
102
RTVSPropertyOp41
 70
     1
102
RTVSPropertyOp42
 70
     1
102
RTVSPropertyOp43
 70
     1
102
RTVSPropertyOp44
 70
     1
102
RTVSPropertyOp45
 70
     1
102
RTVSPropertyOp46
 70
     1
102
RTVSPropertyOp47
 70
     1
102
RTVSPropertyOp48
 70
     1
102
RTVSPropertyOp49
 70
     1
102
RTVSPropertyOp50
 70
     1
102
RTVSPropertyOp51
 70
     0
102
RTVSPropertyOp52
 70
     0
102
RTVSPropertyOp53
 70
     1
102
RTVSPropertyOp54
 70
     1
102
RTVSPropertyOp55
 70
     1
102
RTVSPropertyOp56
 70
     1
102
RTVSPropertyOp57
 70
     1
102
RTVSPost2010Prop28
280
     0
102
RTVSPost2010PropOp28
 70
     1
102
RTVSPost2010Prop29
280
     1
102
RTVSPost2010PropOp29
 70
     1
102
RTVSPost2010Prop30
280
     1
102
RTVSPost2010PropOp30
 70
     1
102
RTVSPost2010Prop31
280
     0
102
RTVSPost2010PropOp31
 70
     1
102
RTVSPost2010Prop32
280
     0
102
RTVSPost2010PropOp32
 70
     1
102
RTVSPost2010Prop33
280
     0
102
RTVSPost2010PropOp33
 70
     1
102
RTVSPost2010Prop34
280
     0
102
RTVSPost2010PropOp34
 70
     1
102
RTVSPost2010Prop35
280
     0
102
RTVSPost2010PropOp35
 70
     1
102
RTVSPost2010Prop36
280
     0
102
RTVSPost2010PropOp36
 70
     1
102
RTVSPost2010Prop37
 90
       50
102
RTVSPost2010PropOp37
 70
     1
102
RTVSPost2010Prop38
140
0.0
102
RTVSPost2010PropOp38
 70
     1
102
RTVSPost2010Prop39
140
1.0
102
RTVSPost2010PropOp39
 70
     1
102
RTVSPost2010Prop40
 90
        0
102
RTVSPost2010PropOp40
 70
     1
102
RTVSPost2010Prop41ColorIndex
 90
       18
102
RTVSPost2010Prop41ColorRGB
 90
        0
102
RTVSPost2010PropOp41
 70
     1
102
RTVSPost2010Prop42
 90
       50
102
RTVSPost2010PropOp42
 70
     1
102
RTVSPost2010Prop43
 90
        3
102
RTVSPost2010PropOp43
 70
     1
102
RTVSPost2010Prop44ColorIndex
 90
        5
102
RTVSPost2010Prop44ColorRGB
 90
      255
102
RTVSPost2010PropOp44
 70
     1
102
RTVSPost2010Prop45
280
     0
102
RTVSPost2010PropOp45
 70
     1
102
RTVSPost2010Prop46
 90
       50
102
RTVSPost2010PropOp46
 70
     1
102
RTVSPost2010Prop47
 90
       50
102
RTVSPost2010PropOp47
 70
     1
102
RTVSPost2010Prop48
 90
       50
102
RTVSPost2010PropOp48
 70
     1
102
RTVSPost2010Prop49
280
     0
102
RTVSPost2010PropOp49
 70
     1
102
RTVSPost2010Prop50
 90
       50
102
RTVSPost2010PropOp50
 70
     1
102
RTVSPost2010Prop51ColorIndex
 90
      256
102
RTVSPost2010Prop51ColorRGB
 90
-16777216
102
RTVSPost2010PropOp51
 70
     0
102
RTVSPost2010Prop52
140
1.0
102
RTVSPost2010PropOp52
 70
     0
102
RTVSPost2010Prop53
 90
        2
102
RTVSPost2010PropOp53
 70
     1
102
RTVSPost2010Prop54
  1
strokes_ogs.tif
102
RTVSPost2010PropOp54
 70
     1
102
RTVSPost2010Prop55
280
     0
102
RTVSPost2010PropOp55
 70
     1
102
RTVSPost2010Prop56
140
1.0
102
RTVSPost2010PropOp56
 70
     1
102
RTVSPost2010Prop57
140
1.0
102
RTVSPost2010PropOp57
 70
     1
  0
XRECORD
  5
3AD
102
{ACAD_REACTORS
330
3AC
102
}
330
3AC
100
AcDbXrecord
280
     1
102
RTVSPropertyOp0
 70
     1
102
RTVSPropertyOp1
 70
     1
102
RTVSPropertyOp2
 70
     1
102
RTVSPropertyOp3
 70
     1
102
RTVSPropertyOp4
 70
     1
102
RTVSPropertyOp5
 70
     1
102
RTVSPropertyOp6
 70
     1
102
RTVSPropertyOp7
 70
     1
102
RTVSPropertyOp8
 70
     1
102
RTVSPropertyOp9
 70
     1
102
RTVSPropertyOp10
 70
     1
102
RTVSPropertyOp11
 70
     1
102
RTVSPropertyOp12
 70
     1
102
RTVSPropertyOp13
 70
     1
102
RTVSPropertyOp14
 70
     1
102
RTVSPropertyOp15
 70
     1
102
RTVSPropertyOp16
 70
     1
102
RTVSPropertyOp17
 70
     1
102
RTVSPropertyOp18
 70
     1
102
RTVSPropertyOp19
 70
     1
102
RTVSPropertyOp20
 70
     1
102
RTVSPropertyOp21
 70
     1
102
RTVSPropertyOp22
 70
     1
102
RTVSPropertyOp23
 70
     1
102
RTVSPropertyOp24
 70
     1
102
RTVSPropertyOp25
 70
     1
102
RTVSPropertyOp26
 70
     1
102
RTVSPropertyOp27
 70
     1
102
RTVSPropertyOp28
 70
     1
102
RTVSPropertyOp29
 70
     1
102
RTVSPropertyOp30
 70
     1
102
RTVSPropertyOp31
 70
     1
102
RTVSPropertyOp32
 70
     1
102
RTVSPropertyOp33
 70
     1
102
RTVSPropertyOp34
 70
     1
102
RTVSPropertyOp35
 70
     1
102
RTVSPropertyOp36
 70
     1
102
RTVSPropertyOp37
 70
     1
102
RTVSPropertyOp38
 70
     1
102
RTVSPropertyOp39
 70
     1
102
RTVSPropertyOp40
 70
     1
102
RTVSPropertyOp41
 70
     1
102
RTVSPropertyOp42
 70
     1
102
RTVSPropertyOp43
 70
     1
102
RTVSPropertyOp44
 70
     1
102
RTVSPropertyOp45
 70
     1
102
RTVSPropertyOp46
 70
     1
102
RTVSPropertyOp47
 70
     1
102
RTVSPropertyOp48
 70
     1
102
RTVSPropertyOp49
 70
     1
102
RTVSPropertyOp50
 70
     1
102
RTVSPropertyOp51
 70
     0
102
RTVSPropertyOp52
 70
     0
102
RTVSPropertyOp53
 70
     1
102
RTVSPropertyOp54
 70
     1
102
RTVSPropertyOp55
 70
     1
102
RTVSPropertyOp56
 70
     1
102
RTVSPropertyOp57
 70
     1
102
RTVSPost2010Prop28
280
     0
102
RTVSPost2010PropOp28
 70
     1
102
RTVSPost2010Prop29
280
     1
102
RTVSPost2010PropOp29
 70
     1
102
RTVSPost2010Prop30
280
     1
102
RTVSPost2010PropOp30
 70
     1
102
RTVSPost2010Prop31
280
     0
102
RTVSPost2010PropOp31
 70
     1
102
RTVSPost2010Prop32
280
     0
102
RTVSPost2010PropOp32
 70
     1
102
RTVSPost2010Prop33
280
     0
102
RTVSPost2010PropOp33
 70
     1
102
RTVSPost2010Prop34
280
     0
102
RTVSPost2010PropOp34
 70
     1
102
RTVSPost2010Prop35
280
     0
102
RTVSPost2010PropOp35
 70
     1
102
RTVSPost2010Prop36
280
     0
102
RTVSPost2010PropOp36
 70
     1
102
RTVSPost2010Prop37
 90
       50
102
RTVSPost2010PropOp37
 70
     1
102
RTVSPost2010Prop38
140
0.0
102
RTVSPost2010PropOp38
 70
     1
102
RTVSPost2010Prop39
140
1.0
102
RTVSPost2010PropOp39
 70
     1
102
RTVSPost2010Prop40
 90
        0
102
RTVSPost2010PropOp40
 70
     1
102
RTVSPost2010Prop41ColorIndex
 90
       18
102
RTVSPost2010Prop41ColorRGB
 90
        0
102
RTVSPost2010PropOp41
 70
     1
102
RTVSPost2010Prop42
 90
       50
102
RTVSPost2010PropOp42
 70
     1
102
RTVSPost2010Prop43
 90
        3
102
RTVSPost2010PropOp43
 70
     1
102
RTVSPost2010Prop44ColorIndex
 90
        5
102
RTVSPost2010Prop44ColorRGB
 90
      255
102
RTVSPost2010PropOp44
 70
     1
102
RTVSPost2010Prop45
280
     0
102
RTVSPost2010PropOp45
 70
     1
102
RTVSPost2010Prop46
 90
       50
102
RTVSPost2010PropOp46
 70
     1
102
RTVSPost2010Prop47
 90
       50
102
RTVSPost2010PropOp47
 70
     1
102
RTVSPost2010Prop48
 90
       50
102
RTVSPost2010PropOp48
 70
     1
102
RTVSPost2010Prop49
280
     0
102
RTVSPost2010PropOp49
 70
     1
102
RTVSPost2010Prop50
 90
       50
102
RTVSPost2010PropOp50
 70
     1
102
RTVSPost2010Prop51ColorIndex
 90
      256
102
RTVSPost2010Prop51ColorRGB
 90
-16777216
102
RTVSPost2010PropOp51
 70
     0
102
RTVSPost2010Prop52
140
1.0
102
RTVSPost2010PropOp52
 70
     0
102
RTVSPost2010Prop53
 90
        2
102
RTVSPost2010PropOp53
 70
     1
102
RTVSPost2010Prop54
  1
strokes_ogs.tif
102
RTVSPost2010PropOp54
 70
     1
102
RTVSPost2010Prop55
280
     0
102
RTVSPost2010PropOp55
 70
     1
102
RTVSPost2010Prop56
140
1.0
102
RTVSPost2010PropOp56
 70
     1
102
RTVSPost2010Prop57
140
1.0
102
RTVSPost2010PropOp57
 70
     1
  0
XRECORD
  5
3B5
102
{ACAD_REACTORS
330
3B4
102
}
330
3B4
100
AcDbXrecord
280
     1
102
RTVSPropertyOp0
 70
     1
102
RTVSPropertyOp1
 70
     1
102
RTVSPropertyOp2
 70
     1
102
RTVSPropertyOp3
 70
     1
102
RTVSPropertyOp4
 70
     1
102
RTVSPropertyOp5
 70
     1
102
RTVSPropertyOp6
 70
     1
102
RTVSPropertyOp7
 70
     1
102
RTVSPropertyOp8
 70
     1
102
RTVSPropertyOp9
 70
     1
102
RTVSPropertyOp10
 70
     1
102
RTVSPropertyOp11
 70
     1
102
RTVSPropertyOp12
 70
     1
102
RTVSPropertyOp13
 70
     1
102
RTVSPropertyOp14
 70
     1
102
RTVSPropertyOp15
 70
     1
102
RTVSPropertyOp16
 70
     1
102
RTVSPropertyOp17
 70
     1
102
RTVSPropertyOp18
 70
     1
102
RTVSPropertyOp19
 70
     1
102
RTVSPropertyOp20
 70
     1
102
RTVSPropertyOp21
 70
     1
102
RTVSPropertyOp22
 70
     1
102
RTVSPropertyOp23
 70
     1
102
RTVSPropertyOp24
 70
     1
102
RTVSPropertyOp25
 70
     1
102
RTVSPropertyOp26
 70
     1
102
RTVSPropertyOp27
 70
     1
102
RTVSPropertyOp28
 70
     1
102
RTVSPropertyOp29
 70
     1
102
RTVSPropertyOp30
 70
     1
102
RTVSPropertyOp31
 70
     1
102
RTVSPropertyOp32
 70
     1
102
RTVSPropertyOp33
 70
     1
102
RTVSPropertyOp34
 70
     1
102
RTVSPropertyOp35
 70
     1
102
RTVSPropertyOp36
 70
     1
102
RTVSPropertyOp37
 70
     1
102
RTVSPropertyOp38
 70
     1
102
RTVSPropertyOp39
 70
     1
102
RTVSPropertyOp40
 70
     1
102
RTVSPropertyOp41
 70
     1
102
RTVSPropertyOp42
 70
     1
102
RTVSPropertyOp43
 70
     1
102
RTVSPropertyOp44
 70
     1
102
RTVSPropertyOp45
 70
     1
102
RTVSPropertyOp46
 70
     1
102
RTVSPropertyOp47
 70
     1
102
RTVSPropertyOp48
 70
     1
102
RTVSPropertyOp49
 70
     1
102
RTVSPropertyOp50
 70
     1
102
RTVSPropertyOp51
 70
     0
102
RTVSPropertyOp52
 70
     0
102
RTVSPropertyOp53
 70
     1
102
RTVSPropertyOp54
 70
     1
102
RTVSPropertyOp55
 70
     1
102
RTVSPropertyOp56
 70
     1
102
RTVSPropertyOp57
 70
     1
102
RTVSPost2010Prop28
280
     0
102
RTVSPost2010PropOp28
 70
     1
102
RTVSPost2010Prop29
280
     1
102
RTVSPost2010PropOp29
 70
     1
102
RTVSPost2010Prop30
280
     1
102
RTVSPost2010PropOp30
 70
     1
102
RTVSPost2010Prop31
280
     0
102
RTVSPost2010PropOp31
 70
     1
102
RTVSPost2010Prop32
280
     0
102
RTVSPost2010PropOp32
 70
     1
102
RTVSPost2010Prop33
280
     0
102
RTVSPost2010PropOp33
 70
     1
102
RTVSPost2010Prop34
280
     0
102
RTVSPost2010PropOp34
 70
     1
102
RTVSPost2010Prop35
280
     0
102
RTVSPost2010PropOp35
 70
     1
102
RTVSPost2010Prop36
280
     0
102
RTVSPost2010PropOp36
 70
     1
102
RTVSPost2010Prop37
 90
       50
102
RTVSPost2010PropOp37
 70
     1
102
RTVSPost2010Prop38
140
0.0
102
RTVSPost2010PropOp38
 70
     1
102
RTVSPost2010Prop39
140
1.0
102
RTVSPost2010PropOp39
 70
     1
102
RTVSPost2010Prop40
 90
        0
102
RTVSPost2010PropOp40
 70
     1
102
RTVSPost2010Prop41ColorIndex
 90
       18
102
RTVSPost2010Prop41ColorRGB
 90
        0
102
RTVSPost2010PropOp41
 70
     1
102
RTVSPost2010Prop42
 90
       50
102
RTVSPost2010PropOp42
 70
     1
102
RTVSPost2010Prop43
 90
        3
102
RTVSPost2010PropOp43
 70
     1
102
RTVSPost2010Prop44ColorIndex
 90
        5
102
RTVSPost2010Prop44ColorRGB
 90
      255
102
RTVSPost2010PropOp44
 70
     1
102
RTVSPost2010Prop45
280
     0
102
RTVSPost2010PropOp45
 70
     1
102
RTVSPost2010Prop46
 90
       50
102
RTVSPost2010PropOp46
 70
     1
102
RTVSPost2010Prop47
 90
       50
102
RTVSPost2010PropOp47
 70
     1
102
RTVSPost2010Prop48
 90
       50
102
RTVSPost2010PropOp48
 70
     1
102
RTVSPost2010Prop49
280
     0
102
RTVSPost2010PropOp49
 70
     1
102
RTVSPost2010Prop50
 90
       50
102
RTVSPost2010PropOp50
 70
     1
102
RTVSPost2010Prop51ColorIndex
 90
      256
102
RTVSPost2010Prop51ColorRGB
 90
-16777216
102
RTVSPost2010PropOp51
 70
     0
102
RTVSPost2010Prop52
140
1.0
102
RTVSPost2010PropOp52
 70
     0
102
RTVSPost2010Prop53
 90
        2
102
RTVSPost2010PropOp53
 70
     1
102
RTVSPost2010Prop54
  1
strokes_ogs.tif
102
RTVSPost2010PropOp54
 70
     1
102
RTVSPost2010Prop55
280
     0
102
RTVSPost2010PropOp55
 70
     1
102
RTVSPost2010Prop56
140
1.0
102
RTVSPost2010PropOp56
 70
     1
102
RTVSPost2010Prop57
140
1.0
102
RTVSPost2010PropOp57
 70
     1
  0
XRECORD
  5
3A9
102
{ACAD_REACTORS
330
3A8
102
}
330
3A8
100
AcDbXrecord
280
     1
102
RTVSPropertyOp0
 70
     1
102
RTVSPropertyOp1
 70
     1
102
RTVSPropertyOp2
 70
     1
102
RTVSPropertyOp3
 70
     1
102
RTVSPropertyOp4
 70
     1
102
RTVSPropertyOp5
 70
     1
102
RTVSPropertyOp6
 70
     1
102
RTVSPropertyOp7
 70
     1
102
RTVSPropertyOp8
 70
     1
102
RTVSPropertyOp9
 70
     1
102
RTVSPropertyOp10
 70
     1
102
RTVSPropertyOp11
 70
     1
102
RTVSPropertyOp12
 70
     1
102
RTVSPropertyOp13
 70
     1
102
RTVSPropertyOp14
 70
     1
102
RTVSPropertyOp15
 70
     1
102
RTVSPropertyOp16
 70
     1
102
RTVSPropertyOp17
 70
     1
102
RTVSPropertyOp18
 70
     1
102
RTVSPropertyOp19
 70
     1
102
RTVSPropertyOp20
 70
     1
102
RTVSPropertyOp21
 70
     1
102
RTVSPropertyOp22
 70
     1
102
RTVSPropertyOp23
 70
     1
102
RTVSPropertyOp24
 70
     1
102
RTVSPropertyOp25
 70
     1
102
RTVSPropertyOp26
 70
     1
102
RTVSPropertyOp27
 70
     1
102
RTVSPropertyOp28
 70
     1
102
RTVSPropertyOp29
 70
     1
102
RTVSPropertyOp30
 70
     1
102
RTVSPropertyOp31
 70
     1
102
RTVSPropertyOp32
 70
     1
102
RTVSPropertyOp33
 70
     1
102
RTVSPropertyOp34
 70
     1
102
RTVSPropertyOp35
 70
     1
102
RTVSPropertyOp36
 70
     1
102
RTVSPropertyOp37
 70
     1
102
RTVSPropertyOp38
 70
     1
102
RTVSPropertyOp39
 70
     1
102
RTVSPropertyOp40
 70
     1
102
RTVSPropertyOp41
 70
     1
102
RTVSPropertyOp42
 70
     1
102
RTVSPropertyOp43
 70
     1
102
RTVSPropertyOp44
 70
     1
102
RTVSPropertyOp45
 70
     1
102
RTVSPropertyOp46
 70
     1
102
RTVSPropertyOp47
 70
     1
102
RTVSPropertyOp48
 70
     1
102
RTVSPropertyOp49
 70
     1
102
RTVSPropertyOp50
 70
     1
102
RTVSPropertyOp51
 70
     0
102
RTVSPropertyOp52
 70
     0
102
RTVSPropertyOp53
 70
     1
102
RTVSPropertyOp54
 70
     1
102
RTVSPropertyOp55
 70
     1
102
RTVSPropertyOp56
 70
     1
102
RTVSPropertyOp57
 70
     1
102
RTVSPost2010Prop28
280
     0
102
RTVSPost2010PropOp28
 70
     1
102
RTVSPost2010Prop29
280
     1
102
RTVSPost2010PropOp29
 70
     1
102
RTVSPost2010Prop30
280
     1
102
RTVSPost2010PropOp30
 70
     1
102
RTVSPost2010Prop31
280
     0
102
RTVSPost2010PropOp31
 70
     1
102
RTVSPost2010Prop32
280
     0
102
RTVSPost2010PropOp32
 70
     1
102
RTVSPost2010Prop33
280
     0
102
RTVSPost2010PropOp33
 70
     1
102
RTVSPost2010Prop34
280
     0
102
RTVSPost2010PropOp34
 70
     1
102
RTVSPost2010Prop35
280
     0
102
RTVSPost2010PropOp35
 70
     1
102
RTVSPost2010Prop36
280
     0
102
RTVSPost2010PropOp36
 70
     1
102
RTVSPost2010Prop37
 90
       50
102
RTVSPost2010PropOp37
 70
     1
102
RTVSPost2010Prop38
140
0.0
102
RTVSPost2010PropOp38
 70
     1
102
RTVSPost2010Prop39
140
1.0
102
RTVSPost2010PropOp39
 70
     1
102
RTVSPost2010Prop40
 90
        0
102
RTVSPost2010PropOp40
 70
     1
102
RTVSPost2010Prop41ColorIndex
 90
       18
102
RTVSPost2010Prop41ColorRGB
 90
        0
102
RTVSPost2010PropOp41
 70
     1
102
RTVSPost2010Prop42
 90
       50
102
RTVSPost2010PropOp42
 70
     1
102
RTVSPost2010Prop43
 90
        3
102
RTVSPost2010PropOp43
 70
     1
102
RTVSPost2010Prop44ColorIndex
 90
        5
102
RTVSPost2010Prop44ColorRGB
 90
      255
102
RTVSPost2010PropOp44
 70
     1
102
RTVSPost2010Prop45
280
     0
102
RTVSPost2010PropOp45
 70
     1
102
RTVSPost2010Prop46
 90
       50
102
RTVSPost2010PropOp46
 70
     1
102
RTVSPost2010Prop47
 90
       50
102
RTVSPost2010PropOp47
 70
     1
102
RTVSPost2010Prop48
 90
       50
102
RTVSPost2010PropOp48
 70
     1
102
RTVSPost2010Prop49
280
     0
102
RTVSPost2010PropOp49
 70
     1
102
RTVSPost2010Prop50
 90
       50
102
RTVSPost2010PropOp50
 70
     1
102
RTVSPost2010Prop51ColorIndex
 90
      256
102
RTVSPost2010Prop51ColorRGB
 90
-16777216
102
RTVSPost2010PropOp51
 70
     0
102
RTVSPost2010Prop52
140
1.0
102
RTVSPost2010PropOp52
 70
     0
102
RTVSPost2010Prop53
 90
        2
102
RTVSPost2010PropOp53
 70
     1
102
RTVSPost2010Prop54
  1
strokes_ogs.tif
102
RTVSPost2010PropOp54
 70
     1
102
RTVSPost2010Prop55
280
     0
102
RTVSPost2010PropOp55
 70
     1
102
RTVSPost2010Prop56
140
1.0
102
RTVSPost2010PropOp56
 70
     1
102
RTVSPost2010Prop57
140
1.0
102
RTVSPost2010PropOp57
 70
     1
  0
XRECORD
  5
3AB
102
{ACAD_REACTORS
330
3AA
102
}
330
3AA
100
AcDbXrecord
280
     1
102
RTVSPropertyOp0
 70
     1
102
RTVSPropertyOp1
 70
     1
102
RTVSPropertyOp2
 70
     1
102
RTVSPropertyOp3
 70
     1
102
RTVSPropertyOp4
 70
     1
102
RTVSPropertyOp5
 70
     1
102
RTVSPropertyOp6
 70
     1
102
RTVSPropertyOp7
 70
     1
102
RTVSPropertyOp8
 70
     1
102
RTVSPropertyOp9
 70
     1
102
RTVSPropertyOp10
 70
     1
102
RTVSPropertyOp11
 70
     1
102
RTVSPropertyOp12
 70
     1
102
RTVSPropertyOp13
 70
     1
102
RTVSPropertyOp14
 70
     1
102
RTVSPropertyOp15
 70
     1
102
RTVSPropertyOp16
 70
     1
102
RTVSPropertyOp17
 70
     1
102
RTVSPropertyOp18
 70
     1
102
RTVSPropertyOp19
 70
     1
102
RTVSPropertyOp20
 70
     1
102
RTVSPropertyOp21
 70
     1
102
RTVSPropertyOp22
 70
     1
102
RTVSPropertyOp23
 70
     1
102
RTVSPropertyOp24
 70
     1
102
RTVSPropertyOp25
 70
     1
102
RTVSPropertyOp26
 70
     1
102
RTVSPropertyOp27
 70
     1
102
RTVSPropertyOp28
 70
     1
102
RTVSPropertyOp29
 70
     1
102
RTVSPropertyOp30
 70
     1
102
RTVSPropertyOp31
 70
     1
102
RTVSPropertyOp32
 70
     1
102
RTVSPropertyOp33
 70
     1
102
RTVSPropertyOp34
 70
     1
102
RTVSPropertyOp35
 70
     1
102
RTVSPropertyOp36
 70
     1
102
RTVSPropertyOp37
 70
     1
102
RTVSPropertyOp38
 70
     1
102
RTVSPropertyOp39
 70
     1
102
RTVSPropertyOp40
 70
     1
102
RTVSPropertyOp41
 70
     1
102
RTVSPropertyOp42
 70
     1
102
RTVSPropertyOp43
 70
     1
102
RTVSPropertyOp44
 70
     1
102
RTVSPropertyOp45
 70
     1
102
RTVSPropertyOp46
 70
     1
102
RTVSPropertyOp47
 70
     1
102
RTVSPropertyOp48
 70
     1
102
RTVSPropertyOp49
 70
     1
102
RTVSPropertyOp50
 70
     1
102
RTVSPropertyOp51
 70
     0
102
RTVSPropertyOp52
 70
     0
102
RTVSPropertyOp53
 70
     1
102
RTVSPropertyOp54
 70
     1
102
RTVSPropertyOp55
 70
     1
102
RTVSPropertyOp56
 70
     1
102
RTVSPropertyOp57
 70
     1
102
RTVSPost2010Prop28
280
     0
102
RTVSPost2010PropOp28
 70
     1
102
RTVSPost2010Prop29
280
     1
102
RTVSPost2010PropOp29
 70
     1
102
RTVSPost2010Prop30
280
     1
102
RTVSPost2010PropOp30
 70
     1
102
RTVSPost2010Prop31
280
     0
102
RTVSPost2010PropOp31
 70
     1
102
RTVSPost2010Prop32
280
     0
102
RTVSPost2010PropOp32
 70
     1
102
RTVSPost2010Prop33
280
     0
102
RTVSPost2010PropOp33
 70
     1
102
RTVSPost2010Prop34
280
     0
102
RTVSPost2010PropOp34
 70
     1
102
RTVSPost2010Prop35
280
     0
102
RTVSPost2010PropOp35
 70
     1
102
RTVSPost2010Prop36
280
     0
102
RTVSPost2010PropOp36
 70
     1
102
RTVSPost2010Prop37
 90
       50
102
RTVSPost2010PropOp37
 70
     1
102
RTVSPost2010Prop38
140
0.0
102
RTVSPost2010PropOp38
 70
     1
102
RTVSPost2010Prop39
140
1.0
102
RTVSPost2010PropOp39
 70
     1
102
RTVSPost2010Prop40
 90
        0
102
RTVSPost2010PropOp40
 70
     1
102
RTVSPost2010Prop41ColorIndex
 90
       18
102
RTVSPost2010Prop41ColorRGB
 90
        0
102
RTVSPost2010PropOp41
 70
     1
102
RTVSPost2010Prop42
 90
       50
102
RTVSPost2010PropOp42
 70
     1
102
RTVSPost2010Prop43
 90
        3
102
RTVSPost2010PropOp43
 70
     1
102
RTVSPost2010Prop44ColorIndex
 90
        5
102
RTVSPost2010Prop44ColorRGB
 90
      255
102
RTVSPost2010PropOp44
 70
     1
102
RTVSPost2010Prop45
280
     0
102
RTVSPost2010PropOp45
 70
     1
102
RTVSPost2010Prop46
 90
       50
102
RTVSPost2010PropOp46
 70
     1
102
RTVSPost2010Prop47
 90
       50
102
RTVSPost2010PropOp47
 70
     1
102
RTVSPost2010Prop48
 90
       50
102
RTVSPost2010PropOp48
 70
     1
102
RTVSPost2010Prop49
280
     0
102
RTVSPost2010PropOp49
 70
     1
102
RTVSPost2010Prop50
 90
       50
102
RTVSPost2010PropOp50
 70
     1
102
RTVSPost2010Prop51ColorIndex
 90
      256
102
RTVSPost2010Prop51ColorRGB
 90
-16777216
102
RTVSPost2010PropOp51
 70
     0
102
RTVSPost2010Prop52
140
1.0
102
RTVSPost2010PropOp52
 70
     0
102
RTVSPost2010Prop53
 90
        2
102
RTVSPost2010PropOp53
 70
     1
102
RTVSPost2010Prop54
  1
strokes_ogs.tif
102
RTVSPost2010PropOp54
 70
     1
102
RTVSPost2010Prop55
280
     0
102
RTVSPost2010PropOp55
 70
     1
102
RTVSPost2010Prop56
140
1.0
102
RTVSPost2010PropOp56
 70
     1
102
RTVSPost2010Prop57
140
1.0
102
RTVSPost2010PropOp57
 70
     1
  0
XRECORD
  5
3BB
102
{ACAD_REACTORS
330
3BA
102
}
330
3BA
100
AcDbXrecord
280
     1
102
RTVSPropertyOp0
 70
     0
102
RTVSPropertyOp1
 70
     0
102
RTVSPropertyOp2
 70
     0
102
RTVSPropertyOp3
 70
     0
102
RTVSPropertyOp4
 70
     0
102
RTVSPropertyOp5
 70
     0
102
RTVSPropertyOp6
 70
     0
102
RTVSPropertyOp7
 70
     0
102
RTVSPropertyOp8
 70
     0
102
RTVSPropertyOp9
 70
     0
102
RTVSPropertyOp10
 70
     0
102
RTVSPropertyOp11
 70
     0
102
RTVSPropertyOp12
 70
     0
102
RTVSPropertyOp13
 70
     0
102
RTVSPropertyOp14
 70
     2
102
RTVSPropertyOp15
 70
     0
102
RTVSPropertyOp16
 70
     0
102
RTVSPropertyOp17
 70
     0
102
RTVSPropertyOp18
 70
     0
102
RTVSPropertyOp19
 70
     0
102
RTVSPropertyOp20
 70
     0
102
RTVSPropertyOp21
 70
     0
102
RTVSPropertyOp22
 70
     0
102
RTVSPropertyOp23
 70
     0
102
RTVSPropertyOp24
 70
     0
102
RTVSPropertyOp25
 70
     0
102
RTVSPropertyOp26
 70
     0
102
RTVSPropertyOp27
 70
     0
102
RTVSPropertyOp28
 70
     0
102
RTVSPropertyOp29
 70
     0
102
RTVSPropertyOp30
 70
     0
102
RTVSPropertyOp31
 70
     0
102
RTVSPropertyOp32
 70
     0
102
RTVSPropertyOp33
 70
     0
102
RTVSPropertyOp34
 70
     0
102
RTVSPropertyOp35
 70
     0
102
RTVSPropertyOp36
 70
     0
102
RTVSPropertyOp37
 70
     0
102
RTVSPropertyOp38
 70
     0
102
RTVSPropertyOp39
 70
     0
102
RTVSPropertyOp40
 70
     0
102
RTVSPropertyOp41
 70
     0
102
RTVSPropertyOp42
 70
     0
102
RTVSPropertyOp43
 70
     0
102
RTVSPropertyOp44
 70
     0
102
RTVSPropertyOp45
 70
     0
102
RTVSPropertyOp46
 70
     0
102
RTVSPropertyOp47
 70
     0
102
RTVSPropertyOp48
 70
     0
102
RTVSPropertyOp49
 70
     0
102
RTVSPropertyOp50
 70
     0
102
RTVSPropertyOp51
 70
     0
102
RTVSPropertyOp52
 70
     0
102
RTVSPropertyOp53
 70
     0
102
RTVSPropertyOp54
 70
     0
102
RTVSPropertyOp55
 70
     0
102
RTVSPropertyOp56
 70
     0
102
RTVSPropertyOp57
 70
     0
102
RTVSPost2010Prop28
280
     0
102
RTVSPost2010PropOp28
 70
     0
102
RTVSPost2010Prop29
280
     1
102
RTVSPost2010PropOp29
 70
     0
102
RTVSPost2010Prop30
280
     1
102
RTVSPost2010PropOp30
 70
     0
102
RTVSPost2010Prop31
280
     0
102
RTVSPost2010PropOp31
 70
     0
102
RTVSPost2010Prop32
280
     0
102
RTVSPost2010PropOp32
 70
     0
102
RTVSPost2010Prop33
280
     0
102
RTVSPost2010PropOp33
 70
     0
102
RTVSPost2010Prop34
280
     0
102
RTVSPost2010PropOp34
 70
     0
102
RTVSPost2010Prop35
280
     0
102
RTVSPost2010PropOp35
 70
     0
102
RTVSPost2010Prop36
280
     0
102
RTVSPost2010PropOp36
 70
     0
102
RTVSPost2010Prop37
 90
       50
102
RTVSPost2010PropOp37
 70
     0
102
RTVSPost2010Prop38
140
0.0
102
RTVSPost2010PropOp38
 70
     0
102
RTVSPost2010Prop39
140
1.0
102
RTVSPost2010PropOp39
 70
     0
102
RTVSPost2010Prop40
 90
        0
102
RTVSPost2010PropOp40
 70
     0
102
RTVSPost2010Prop41ColorIndex
 90
       18
102
RTVSPost2010Prop41ColorRGB
 90
        0
102
RTVSPost2010PropOp41
 70
     0
102
RTVSPost2010Prop42
 90
       50
102
RTVSPost2010PropOp42
 70
     0
102
RTVSPost2010Prop43
 90
        3
102
RTVSPost2010PropOp43
 70
     0
102
RTVSPost2010Prop44ColorIndex
 90
        5
102
RTVSPost2010Prop44ColorRGB
 90
      255
102
RTVSPost2010PropOp44
 70
     0
102
RTVSPost2010Prop45
280
     0
102
RTVSPost2010PropOp45
 70
     0
102
RTVSPost2010Prop46
 90
       50
102
RTVSPost2010PropOp46
 70
     0
102
RTVSPost2010Prop47
 90
       50
102
RTVSPost2010PropOp47
 70
     0
102
RTVSPost2010Prop48
 90
       50
102
RTVSPost2010PropOp48
 70
     0
102
RTVSPost2010Prop49
280
     0
102
RTVSPost2010PropOp49
 70
     0
102
RTVSPost2010Prop50
 90
       50
102
RTVSPost2010PropOp50
 70
     0
102
RTVSPost2010Prop51ColorIndex
 90
      256
102
RTVSPost2010Prop51ColorRGB
 90
-16777216
102
RTVSPost2010PropOp51
 70
     0
102
RTVSPost2010Prop52
140
1.0
102
RTVSPost2010PropOp52
 70
     0
102
RTVSPost2010Prop53
 90
        2
102
RTVSPost2010PropOp53
 70
     0
102
RTVSPost2010Prop54
  1
strokes_ogs.tif
102
RTVSPost2010PropOp54
 70
     0
102
RTVSPost2010Prop55
280
     0
102
RTVSPost2010PropOp55
 70
     0
102
RTVSPost2010Prop56
140
1.0
102
RTVSPost2010PropOp56
 70
     0
102
RTVSPost2010Prop57
140
1.0
102
RTVSPost2010PropOp57
 70
     0
  0
XRECORD
  5
3B3
102
{ACAD_REACTORS
330
3B2
102
}
330
3B2
100
AcDbXrecord
280
     1
102
RTVSPropertyOp0
 70
     1
102
RTVSPropertyOp1
 70
     1
102
RTVSPropertyOp2
 70
     1
102
RTVSPropertyOp3
 70
     1
102
RTVSPropertyOp4
 70
     1
102
RTVSPropertyOp5
 70
     1
102
RTVSPropertyOp6
 70
     1
102
RTVSPropertyOp7
 70
     1
102
RTVSPropertyOp8
 70
     1
102
RTVSPropertyOp9
 70
     1
102
RTVSPropertyOp10
 70
     1
102
RTVSPropertyOp11
 70
     1
102
RTVSPropertyOp12
 70
     1
102
RTVSPropertyOp13
 70
     1
102
RTVSPropertyOp14
 70
     1
102
RTVSPropertyOp15
 70
     1
102
RTVSPropertyOp16
 70
     1
102
RTVSPropertyOp17
 70
     1
102
RTVSPropertyOp18
 70
     1
102
RTVSPropertyOp19
 70
     1
102
RTVSPropertyOp20
 70
     1
102
RTVSPropertyOp21
 70
     1
102
RTVSPropertyOp22
 70
     1
102
RTVSPropertyOp23
 70
     1
102
RTVSPropertyOp24
 70
     1
102
RTVSPropertyOp25
 70
     1
102
RTVSPropertyOp26
 70
     1
102
RTVSPropertyOp27
 70
     1
102
RTVSPropertyOp28
 70
     1
102
RTVSPropertyOp29
 70
     1
102
RTVSPropertyOp30
 70
     1
102
RTVSPropertyOp31
 70
     1
102
RTVSPropertyOp32
 70
     1
102
RTVSPropertyOp33
 70
     1
102
RTVSPropertyOp34
 70
     1
102
RTVSPropertyOp35
 70
     1
102
RTVSPropertyOp36
 70
     1
102
RTVSPropertyOp37
 70
     1
102
RTVSPropertyOp38
 70
     1
102
RTVSPropertyOp39
 70
     1
102
RTVSPropertyOp40
 70
     1
102
RTVSPropertyOp41
 70
     1
102
RTVSPropertyOp42
 70
     1
102
RTVSPropertyOp43
 70
     1
102
RTVSPropertyOp44
 70
     1
102
RTVSPropertyOp45
 70
     1
102
RTVSPropertyOp46
 70
     1
102
RTVSPropertyOp47
 70
     1
102
RTVSPropertyOp48
 70
     1
102
RTVSPropertyOp49
 70
     1
102
RTVSPropertyOp50
 70
     1
102
RTVSPropertyOp51
 70
     0
102
RTVSPropertyOp52
 70
     0
102
RTVSPropertyOp53
 70
     1
102
RTVSPropertyOp54
 70
     1
102
RTVSPropertyOp55
 70
     1
102
RTVSPropertyOp56
 70
     1
102
RTVSPropertyOp57
 70
     1
102
RTVSPost2010Prop28
280
     0
102
RTVSPost2010PropOp28
 70
     1
102
RTVSPost2010Prop29
280
     1
102
RTVSPost2010PropOp29
 70
     1
102
RTVSPost2010Prop30
280
     1
102
RTVSPost2010PropOp30
 70
     1
102
RTVSPost2010Prop31
280
     0
102
RTVSPost2010PropOp31
 70
     1
102
RTVSPost2010Prop32
280
     0
102
RTVSPost2010PropOp32
 70
     1
102
RTVSPost2010Prop33
280
     0
102
RTVSPost2010PropOp33
 70
     1
102
RTVSPost2010Prop34
280
     0
102
RTVSPost2010PropOp34
 70
     1
102
RTVSPost2010Prop35
280
     0
102
RTVSPost2010PropOp35
 70
     1
102
RTVSPost2010Prop36
280
     0
102
RTVSPost2010PropOp36
 70
     1
102
RTVSPost2010Prop37
 90
       50
102
RTVSPost2010PropOp37
 70
     1
102
RTVSPost2010Prop38
140
0.0
102
RTVSPost2010PropOp38
 70
     1
102
RTVSPost2010Prop39
140
1.0
102
RTVSPost2010PropOp39
 70
     1
102
RTVSPost2010Prop40
 90
        0
102
RTVSPost2010PropOp40
 70
     1
102
RTVSPost2010Prop41ColorIndex
 90
       18
102
RTVSPost2010Prop41ColorRGB
 90
        0
102
RTVSPost2010PropOp41
 70
     1
102
RTVSPost2010Prop42
 90
       50
102
RTVSPost2010PropOp42
 70
     1
102
RTVSPost2010Prop43
 90
        3
102
RTVSPost2010PropOp43
 70
     1
102
RTVSPost2010Prop44ColorIndex
 90
        5
102
RTVSPost2010Prop44ColorRGB
 90
      255
102
RTVSPost2010PropOp44
 70
     1
102
RTVSPost2010Prop45
280
     0
102
RTVSPost2010PropOp45
 70
     1
102
RTVSPost2010Prop46
 90
       50
102
RTVSPost2010PropOp46
 70
     1
102
RTVSPost2010Prop47
 90
       50
102
RTVSPost2010PropOp47
 70
     1
102
RTVSPost2010Prop48
 90
       50
102
RTVSPost2010PropOp48
 70
     1
102
RTVSPost2010Prop49
280
     0
102
RTVSPost2010PropOp49
 70
     1
102
RTVSPost2010Prop50
 90
       50
102
RTVSPost2010PropOp50
 70
     1
102
RTVSPost2010Prop51ColorIndex
 90
      256
102
RTVSPost2010Prop51ColorRGB
 90
-16777216
102
RTVSPost2010PropOp51
 70
     0
102
RTVSPost2010Prop52
140
1.0
102
RTVSPost2010PropOp52
 70
     0
102
RTVSPost2010Prop53
 90
        2
102
RTVSPost2010PropOp53
 70
     1
102
RTVSPost2010Prop54
  1
strokes_ogs.tif
102
RTVSPost2010PropOp54
 70
     1
102
RTVSPost2010Prop55
280
     0
102
RTVSPost2010PropOp55
 70
     1
102
RTVSPost2010Prop56
140
1.0
102
RTVSPost2010PropOp56
 70
     1
102
RTVSPost2010Prop57
140
1.0
102
RTVSPost2010PropOp57
 70
     1
  0
XRECORD
  5
397
102
{ACAD_REACTORS
330
396
102
}
330
396
100
AcDbXrecord
280
     1
102
RTVSPropertyOp0
 70
     1
102
RTVSPropertyOp1
 70
     1
102
RTVSPropertyOp2
 70
     1
102
RTVSPropertyOp3
 70
     1
102
RTVSPropertyOp4
 70
     1
102
RTVSPropertyOp5
 70
     1
102
RTVSPropertyOp6
 70
     1
102
RTVSPropertyOp7
 70
     1
102
RTVSPropertyOp8
 70
     1
102
RTVSPropertyOp9
 70
     1
102
RTVSPropertyOp10
 70
     1
102
RTVSPropertyOp11
 70
     1
102
RTVSPropertyOp12
 70
     1
102
RTVSPropertyOp13
 70
     1
102
RTVSPropertyOp14
 70
     1
102
RTVSPropertyOp15
 70
     1
102
RTVSPropertyOp16
 70
     1
102
RTVSPropertyOp17
 70
     1
102
RTVSPropertyOp18
 70
     1
102
RTVSPropertyOp19
 70
     1
102
RTVSPropertyOp20
 70
     1
102
RTVSPropertyOp21
 70
     1
102
RTVSPropertyOp22
 70
     1
102
RTVSPropertyOp23
 70
     1
102
RTVSPropertyOp24
 70
     1
102
RTVSPropertyOp25
 70
     1
102
RTVSPropertyOp26
 70
     1
102
RTVSPropertyOp27
 70
     1
102
RTVSPropertyOp28
 70
     1
102
RTVSPropertyOp29
 70
     1
102
RTVSPropertyOp30
 70
     1
102
RTVSPropertyOp31
 70
     1
102
RTVSPropertyOp32
 70
     1
102
RTVSPropertyOp33
 70
     1
102
RTVSPropertyOp34
 70
     1
102
RTVSPropertyOp35
 70
     1
102
RTVSPropertyOp36
 70
     1
102
RTVSPropertyOp37
 70
     1
102
RTVSPropertyOp38
 70
     1
102
RTVSPropertyOp39
 70
     1
102
RTVSPropertyOp40
 70
     1
102
RTVSPropertyOp41
 70
     1
102
RTVSPropertyOp42
 70
     1
102
RTVSPropertyOp43
 70
     1
102
RTVSPropertyOp44
 70
     1
102
RTVSPropertyOp45
 70
     1
102
RTVSPropertyOp46
 70
     1
102
RTVSPropertyOp47
 70
     1
102
RTVSPropertyOp48
 70
     1
102
RTVSPropertyOp49
 70
     1
102
RTVSPropertyOp50
 70
     1
102
RTVSPropertyOp51
 70
     0
102
RTVSPropertyOp52
 70
     0
102
RTVSPropertyOp53
 70
     1
102
RTVSPropertyOp54
 70
     1
102
RTVSPropertyOp55
 70
     1
102
RTVSPropertyOp56
 70
     1
102
RTVSPropertyOp57
 70
     1
102
RTVSPost2010Prop28
280
     0
102
RTVSPost2010PropOp28
 70
     1
102
RTVSPost2010Prop29
280
     1
102
RTVSPost2010PropOp29
 70
     1
102
RTVSPost2010Prop30
280
     1
102
RTVSPost2010PropOp30
 70
     1
102
RTVSPost2010Prop31
280
     0
102
RTVSPost2010PropOp31
 70
     1
102
RTVSPost2010Prop32
280
     0
102
RTVSPost2010PropOp32
 70
     1
102
RTVSPost2010Prop33
280
     0
102
RTVSPost2010PropOp33
 70
     1
102
RTVSPost2010Prop34
280
     0
102
RTVSPost2010PropOp34
 70
     1
102
RTVSPost2010Prop35
280
     0
102
RTVSPost2010PropOp35
 70
     1
102
RTVSPost2010Prop36
280
     0
102
RTVSPost2010PropOp36
 70
     1
102
RTVSPost2010Prop37
 90
       50
102
RTVSPost2010PropOp37
 70
     1
102
RTVSPost2010Prop38
140
0.0
102
RTVSPost2010PropOp38
 70
     1
102
RTVSPost2010Prop39
140
1.0
102
RTVSPost2010PropOp39
 70
     1
102
RTVSPost2010Prop40
 90
        0
102
RTVSPost2010PropOp40
 70
     1
102
RTVSPost2010Prop41ColorIndex
 90
       18
102
RTVSPost2010Prop41ColorRGB
 90
        0
102
RTVSPost2010PropOp41
 70
     1
102
RTVSPost2010Prop42
 90
       50
102
RTVSPost2010PropOp42
 70
     1
102
RTVSPost2010Prop43
 90
        3
102
RTVSPost2010PropOp43
 70
     1
102
RTVSPost2010Prop44ColorIndex
 90
        5
102
RTVSPost2010Prop44ColorRGB
 90
      255
102
RTVSPost2010PropOp44
 70
     1
102
RTVSPost2010Prop45
280
     0
102
RTVSPost2010PropOp45
 70
     1
102
RTVSPost2010Prop46
 90
       50
102
RTVSPost2010PropOp46
 70
     1
102
RTVSPost2010Prop47
 90
       50
102
RTVSPost2010PropOp47
 70
     1
102
RTVSPost2010Prop48
 90
       50
102
RTVSPost2010PropOp48
 70
     1
102
RTVSPost2010Prop49
280
     0
102
RTVSPost2010PropOp49
 70
     1
102
RTVSPost2010Prop50
 90
       50
102
RTVSPost2010PropOp50
 70
     1
102
RTVSPost2010Prop51ColorIndex
 90
      256
102
RTVSPost2010Prop51ColorRGB
 90
-16777216
102
RTVSPost2010PropOp51
 70
     0
102
RTVSPost2010Prop52
140
1.0
102
RTVSPost2010PropOp52
 70
     0
102
RTVSPost2010Prop53
 90
        2
102
RTVSPost2010PropOp53
 70
     1
102
RTVSPost2010Prop54
  1
strokes_ogs.tif
102
RTVSPost2010PropOp54
 70
     1
102
RTVSPost2010Prop55
280
     0
102
RTVSPost2010PropOp55
 70
     1
102
RTVSPost2010Prop56
140
1.0
102
RTVSPost2010PropOp56
 70
     1
102
RTVSPost2010Prop57
140
1.0
102
RTVSPost2010PropOp57
 70
     1
  0
XRECORD
  5
399
102
{ACAD_REACTORS
330
398
102
}
330
398
100
AcDbXrecord
280
     1
102
RTVSPropertyOp0
 70
     1
102
RTVSPropertyOp1
 70
     1
102
RTVSPropertyOp2
 70
     1
102
RTVSPropertyOp3
 70
     1
102
RTVSPropertyOp4
 70
     1
102
RTVSPropertyOp5
 70
     1
102
RTVSPropertyOp6
 70
     1
102
RTVSPropertyOp7
 70
     1
102
RTVSPropertyOp8
 70
     1
102
RTVSPropertyOp9
 70
     1
102
RTVSPropertyOp10
 70
     1
102
RTVSPropertyOp11
 70
     1
102
RTVSPropertyOp12
 70
     1
102
RTVSPropertyOp13
 70
     1
102
RTVSPropertyOp14
 70
     1
102
RTVSPropertyOp15
 70
     1
102
RTVSPropertyOp16
 70
     1
102
RTVSPropertyOp17
 70
     1
102
RTVSPropertyOp18
 70
     1
102
RTVSPropertyOp19
 70
     1
102
RTVSPropertyOp20
 70
     1
102
RTVSPropertyOp21
 70
     1
102
RTVSPropertyOp22
 70
     1
102
RTVSPropertyOp23
 70
     1
102
RTVSPropertyOp24
 70
     1
102
RTVSPropertyOp25
 70
     1
102
RTVSPropertyOp26
 70
     1
102
RTVSPropertyOp27
 70
     1
102
RTVSPropertyOp28
 70
     1
102
RTVSPropertyOp29
 70
     1
102
RTVSPropertyOp30
 70
     1
102
RTVSPropertyOp31
 70
     1
102
RTVSPropertyOp32
 70
     1
102
RTVSPropertyOp33
 70
     1
102
RTVSPropertyOp34
 70
     1
102
RTVSPropertyOp35
 70
     1
102
RTVSPropertyOp36
 70
     1
102
RTVSPropertyOp37
 70
     1
102
RTVSPropertyOp38
 70
     1
102
RTVSPropertyOp39
 70
     1
102
RTVSPropertyOp40
 70
     1
102
RTVSPropertyOp41
 70
     1
102
RTVSPropertyOp42
 70
     1
102
RTVSPropertyOp43
 70
     1
102
RTVSPropertyOp44
 70
     1
102
RTVSPropertyOp45
 70
     1
102
RTVSPropertyOp46
 70
     1
102
RTVSPropertyOp47
 70
     1
102
RTVSPropertyOp48
 70
     1
102
RTVSPropertyOp49
 70
     1
102
RTVSPropertyOp50
 70
     1
102
RTVSPropertyOp51
 70
     0
102
RTVSPropertyOp52
 70
     0
102
RTVSPropertyOp53
 70
     1
102
RTVSPropertyOp54
 70
     1
102
RTVSPropertyOp55
 70
     1
102
RTVSPropertyOp56
 70
     1
102
RTVSPropertyOp57
 70
     1
102
RTVSPost2010Prop28
280
     0
102
RTVSPost2010PropOp28
 70
     1
102
RTVSPost2010Prop29
280
     1
102
RTVSPost2010PropOp29
 70
     1
102
RTVSPost2010Prop30
280
     1
102
RTVSPost2010PropOp30
 70
     1
102
RTVSPost2010Prop31
280
     0
102
RTVSPost2010PropOp31
 70
     1
102
RTVSPost2010Prop32
280
     0
102
RTVSPost2010PropOp32
 70
     1
102
RTVSPost2010Prop33
280
     0
102
RTVSPost2010PropOp33
 70
     1
102
RTVSPost2010Prop34
280
     0
102
RTVSPost2010PropOp34
 70
     1
102
RTVSPost2010Prop35
280
     0
102
RTVSPost2010PropOp35
 70
     1
102
RTVSPost2010Prop36
280
     0
102
RTVSPost2010PropOp36
 70
     1
102
RTVSPost2010Prop37
 90
       50
102
RTVSPost2010PropOp37
 70
     1
102
RTVSPost2010Prop38
140
0.0
102
RTVSPost2010PropOp38
 70
     1
102
RTVSPost2010Prop39
140
1.0
102
RTVSPost2010PropOp39
 70
     1
102
RTVSPost2010Prop40
 90
        0
102
RTVSPost2010PropOp40
 70
     1
102
RTVSPost2010Prop41ColorIndex
 90
       18
102
RTVSPost2010Prop41ColorRGB
 90
        0
102
RTVSPost2010PropOp41
 70
     1
102
RTVSPost2010Prop42
 90
       50
102
RTVSPost2010PropOp42
 70
     1
102
RTVSPost2010Prop43
 90
        3
102
RTVSPost2010PropOp43
 70
     1
102
RTVSPost2010Prop44ColorIndex
 90
        5
102
RTVSPost2010Prop44ColorRGB
 90
      255
102
RTVSPost2010PropOp44
 70
     1
102
RTVSPost2010Prop45
280
     0
102
RTVSPost2010PropOp45
 70
     1
102
RTVSPost2010Prop46
 90
       50
102
RTVSPost2010PropOp46
 70
     1
102
RTVSPost2010Prop47
 90
       50
102
RTVSPost2010PropOp47
 70
     1
102
RTVSPost2010Prop48
 90
       50
102
RTVSPost2010PropOp48
 70
     1
102
RTVSPost2010Prop49
280
     0
102
RTVSPost2010PropOp49
 70
     1
102
RTVSPost2010Prop50
 90
       50
102
RTVSPost2010PropOp50
 70
     1
102
RTVSPost2010Prop51ColorIndex
 90
      256
102
RTVSPost2010Prop51ColorRGB
 90
-16777216
102
RTVSPost2010PropOp51
 70
     0
102
RTVSPost2010Prop52
140
1.0
102
RTVSPost2010PropOp52
 70
     0
102
RTVSPost2010Prop53
 90
        2
102
RTVSPost2010PropOp53
 70
     1
102
RTVSPost2010Prop54
  1
strokes_ogs.tif
102
RTVSPost2010PropOp54
 70
     1
102
RTVSPost2010Prop55
280
     0
102
RTVSPost2010PropOp55
 70
     1
102
RTVSPost2010Prop56
140
1.0
102
RTVSPost2010PropOp56
 70
     1
102
RTVSPost2010Prop57
140
1.0
102
RTVSPost2010PropOp57
 70
     1
  0
XRECORD
  5
39B
102
{ACAD_REACTORS
330
39A
102
}
330
39A
100
AcDbXrecord
280
     1
102
RTVSPropertyOp0
 70
     1
102
RTVSPropertyOp1
 70
     1
102
RTVSPropertyOp2
 70
     1
102
RTVSPropertyOp3
 70
     1
102
RTVSPropertyOp4
 70
     1
102
RTVSPropertyOp5
 70
     1
102
RTVSPropertyOp6
 70
     1
102
RTVSPropertyOp7
 70
     1
102
RTVSPropertyOp8
 70
     1
102
RTVSPropertyOp9
 70
     1
102
RTVSPropertyOp10
 70
     1
102
RTVSPropertyOp11
 70
     1
102
RTVSPropertyOp12
 70
     1
102
RTVSPropertyOp13
 70
     1
102
RTVSPropertyOp14
 70
     1
102
RTVSPropertyOp15
 70
     1
102
RTVSPropertyOp16
 70
     1
102
RTVSPropertyOp17
 70
     1
102
RTVSPropertyOp18
 70
     1
102
RTVSPropertyOp19
 70
     1
102
RTVSPropertyOp20
 70
     1
102
RTVSPropertyOp21
 70
     1
102
RTVSPropertyOp22
 70
     1
102
RTVSPropertyOp23
 70
     1
102
RTVSPropertyOp24
 70
     1
102
RTVSPropertyOp25
 70
     1
102
RTVSPropertyOp26
 70
     1
102
RTVSPropertyOp27
 70
     1
102
RTVSPropertyOp28
 70
     1
102
RTVSPropertyOp29
 70
     1
102
RTVSPropertyOp30
 70
     1
102
RTVSPropertyOp31
 70
     1
102
RTVSPropertyOp32
 70
     1
102
RTVSPropertyOp33
 70
     1
102
RTVSPropertyOp34
 70
     1
102
RTVSPropertyOp35
 70
     1
102
RTVSPropertyOp36
 70
     1
102
RTVSPropertyOp37
 70
     1
102
RTVSPropertyOp38
 70
     1
102
RTVSPropertyOp39
 70
     1
102
RTVSPropertyOp40
 70
     1
102
RTVSPropertyOp41
 70
     1
102
RTVSPropertyOp42
 70
     1
102
RTVSPropertyOp43
 70
     1
102
RTVSPropertyOp44
 70
     1
102
RTVSPropertyOp45
 70
     1
102
RTVSPropertyOp46
 70
     1
102
RTVSPropertyOp47
 70
     1
102
RTVSPropertyOp48
 70
     1
102
RTVSPropertyOp49
 70
     1
102
RTVSPropertyOp50
 70
     1
102
RTVSPropertyOp51
 70
     0
102
RTVSPropertyOp52
 70
     0
102
RTVSPropertyOp53
 70
     1
102
RTVSPropertyOp54
 70
     1
102
RTVSPropertyOp55
 70
     1
102
RTVSPropertyOp56
 70
     1
102
RTVSPropertyOp57
 70
     1
102
RTVSPost2010Prop28
280
     0
102
RTVSPost2010PropOp28
 70
     1
102
RTVSPost2010Prop29
280
     1
102
RTVSPost2010PropOp29
 70
     1
102
RTVSPost2010Prop30
280
     1
102
RTVSPost2010PropOp30
 70
     1
102
RTVSPost2010Prop31
280
     0
102
RTVSPost2010PropOp31
 70
     1
102
RTVSPost2010Prop32
280
     0
102
RTVSPost2010PropOp32
 70
     1
102
RTVSPost2010Prop33
280
     0
102
RTVSPost2010PropOp33
 70
     1
102
RTVSPost2010Prop34
280
     0
102
RTVSPost2010PropOp34
 70
     1
102
RTVSPost2010Prop35
280
     0
102
RTVSPost2010PropOp35
 70
     1
102
RTVSPost2010Prop36
280
     0
102
RTVSPost2010PropOp36
 70
     1
102
RTVSPost2010Prop37
 90
       50
102
RTVSPost2010PropOp37
 70
     1
102
RTVSPost2010Prop38
140
0.0
102
RTVSPost2010PropOp38
 70
     1
102
RTVSPost2010Prop39
140
1.0
102
RTVSPost2010PropOp39
 70
     1
102
RTVSPost2010Prop40
 90
        0
102
RTVSPost2010PropOp40
 70
     1
102
RTVSPost2010Prop41ColorIndex
 90
       18
102
RTVSPost2010Prop41ColorRGB
 90
        0
102
RTVSPost2010PropOp41
 70
     1
102
RTVSPost2010Prop42
 90
       50
102
RTVSPost2010PropOp42
 70
     1
102
RTVSPost2010Prop43
 90
        3
102
RTVSPost2010PropOp43
 70
     1
102
RTVSPost2010Prop44ColorIndex
 90
        5
102
RTVSPost2010Prop44ColorRGB
 90
      255
102
RTVSPost2010PropOp44
 70
     1
102
RTVSPost2010Prop45
280
     0
102
RTVSPost2010PropOp45
 70
     1
102
RTVSPost2010Prop46
 90
       50
102
RTVSPost2010PropOp46
 70
     1
102
RTVSPost2010Prop47
 90
       50
102
RTVSPost2010PropOp47
 70
     1
102
RTVSPost2010Prop48
 90
       50
102
RTVSPost2010PropOp48
 70
     1
102
RTVSPost2010Prop49
280
     0
102
RTVSPost2010PropOp49
 70
     1
102
RTVSPost2010Prop50
 90
       50
102
RTVSPost2010PropOp50
 70
     1
102
RTVSPost2010Prop51ColorIndex
 90
      256
102
RTVSPost2010Prop51ColorRGB
 90
-16777216
102
RTVSPost2010PropOp51
 70
     0
102
RTVSPost2010Prop52
140
1.0
102
RTVSPost2010PropOp52
 70
     0
102
RTVSPost2010Prop53
 90
        2
102
RTVSPost2010PropOp53
 70
     1
102
RTVSPost2010Prop54
  1
strokes_ogs.tif
102
RTVSPost2010PropOp54
 70
     1
102
RTVSPost2010Prop55
280
     0
102
RTVSPost2010PropOp55
 70
     1
102
RTVSPost2010Prop56
140
1.0
102
RTVSPost2010PropOp56
 70
     1
102
RTVSPost2010Prop57
140
1.0
102
RTVSPost2010PropOp57
 70
     1
  0
XRECORD
  5
39D
102
{ACAD_REACTORS
330
39C
102
}
330
39C
100
AcDbXrecord
280
     1
102
RTVSPropertyOp0
 70
     1
102
RTVSPropertyOp1
 70
     1
102
RTVSPropertyOp2
 70
     1
102
RTVSPropertyOp3
 70
     1
102
RTVSPropertyOp4
 70
     1
102
RTVSPropertyOp5
 70
     1
102
RTVSPropertyOp6
 70
     1
102
RTVSPropertyOp7
 70
     1
102
RTVSPropertyOp8
 70
     1
102
RTVSPropertyOp9
 70
     1
102
RTVSPropertyOp10
 70
     1
102
RTVSPropertyOp11
 70
     1
102
RTVSPropertyOp12
 70
     1
102
RTVSPropertyOp13
 70
     1
102
RTVSPropertyOp14
 70
     1
102
RTVSPropertyOp15
 70
     1
102
RTVSPropertyOp16
 70
     1
102
RTVSPropertyOp17
 70
     1
102
RTVSPropertyOp18
 70
     1
102
RTVSPropertyOp19
 70
     1
102
RTVSPropertyOp20
 70
     1
102
RTVSPropertyOp21
 70
     1
102
RTVSPropertyOp22
 70
     1
102
RTVSPropertyOp23
 70
     1
102
RTVSPropertyOp24
 70
     1
102
RTVSPropertyOp25
 70
     1
102
RTVSPropertyOp26
 70
     1
102
RTVSPropertyOp27
 70
     1
102
RTVSPropertyOp28
 70
     1
102
RTVSPropertyOp29
 70
     1
102
RTVSPropertyOp30
 70
     1
102
RTVSPropertyOp31
 70
     1
102
RTVSPropertyOp32
 70
     1
102
RTVSPropertyOp33
 70
     1
102
RTVSPropertyOp34
 70
     1
102
RTVSPropertyOp35
 70
     1
102
RTVSPropertyOp36
 70
     1
102
RTVSPropertyOp37
 70
     1
102
RTVSPropertyOp38
 70
     1
102
RTVSPropertyOp39
 70
     1
102
RTVSPropertyOp40
 70
     1
102
RTVSPropertyOp41
 70
     1
102
RTVSPropertyOp42
 70
     1
102
RTVSPropertyOp43
 70
     1
102
RTVSPropertyOp44
 70
     1
102
RTVSPropertyOp45
 70
     1
102
RTVSPropertyOp46
 70
     1
102
RTVSPropertyOp47
 70
     1
102
RTVSPropertyOp48
 70
     1
102
RTVSPropertyOp49
 70
     1
102
RTVSPropertyOp50
 70
     1
102
RTVSPropertyOp51
 70
     0
102
RTVSPropertyOp52
 70
     0
102
RTVSPropertyOp53
 70
     1
102
RTVSPropertyOp54
 70
     1
102
RTVSPropertyOp55
 70
     1
102
RTVSPropertyOp56
 70
     1
102
RTVSPropertyOp57
 70
     1
102
RTVSPost2010Prop28
280
     0
102
RTVSPost2010PropOp28
 70
     1
102
RTVSPost2010Prop29
280
     1
102
RTVSPost2010PropOp29
 70
     1
102
RTVSPost2010Prop30
280
     1
102
RTVSPost2010PropOp30
 70
     1
102
RTVSPost2010Prop31
280
     0
102
RTVSPost2010PropOp31
 70
     1
102
RTVSPost2010Prop32
280
     0
102
RTVSPost2010PropOp32
 70
     1
102
RTVSPost2010Prop33
280
     0
102
RTVSPost2010PropOp33
 70
     1
102
RTVSPost2010Prop34
280
     0
102
RTVSPost2010PropOp34
 70
     1
102
RTVSPost2010Prop35
280
     0
102
RTVSPost2010PropOp35
 70
     1
102
RTVSPost2010Prop36
280
     0
102
RTVSPost2010PropOp36
 70
     1
102
RTVSPost2010Prop37
 90
       50
102
RTVSPost2010PropOp37
 70
     1
102
RTVSPost2010Prop38
140
0.0
102
RTVSPost2010PropOp38
 70
     1
102
RTVSPost2010Prop39
140
1.0
102
RTVSPost2010PropOp39
 70
     1
102
RTVSPost2010Prop40
 90
        0
102
RTVSPost2010PropOp40
 70
     1
102
RTVSPost2010Prop41ColorIndex
 90
       18
102
RTVSPost2010Prop41ColorRGB
 90
        0
102
RTVSPost2010PropOp41
 70
     1
102
RTVSPost2010Prop42
 90
       50
102
RTVSPost2010PropOp42
 70
     1
102
RTVSPost2010Prop43
 90
        3
102
RTVSPost2010PropOp43
 70
     1
102
RTVSPost2010Prop44ColorIndex
 90
        5
102
RTVSPost2010Prop44ColorRGB
 90
      255
102
RTVSPost2010PropOp44
 70
     1
102
RTVSPost2010Prop45
280
     0
102
RTVSPost2010PropOp45
 70
     1
102
RTVSPost2010Prop46
 90
       50
102
RTVSPost2010PropOp46
 70
     1
102
RTVSPost2010Prop47
 90
       50
102
RTVSPost2010PropOp47
 70
     1
102
RTVSPost2010Prop48
 90
       50
102
RTVSPost2010PropOp48
 70
     1
102
RTVSPost2010Prop49
280
     0
102
RTVSPost2010PropOp49
 70
     1
102
RTVSPost2010Prop50
 90
       50
102
RTVSPost2010PropOp50
 70
     1
102
RTVSPost2010Prop51ColorIndex
 90
      256
102
RTVSPost2010Prop51ColorRGB
 90
-16777216
102
RTVSPost2010PropOp51
 70
     0
102
RTVSPost2010Prop52
140
1.0
102
RTVSPost2010PropOp52
 70
     0
102
RTVSPost2010Prop53
 90
        2
102
RTVSPost2010PropOp53
 70
     1
102
RTVSPost2010Prop54
  1
strokes_ogs.tif
102
RTVSPost2010PropOp54
 70
     1
102
RTVSPost2010Prop55
280
     0
102
RTVSPost2010PropOp55
 70
     1
102
RTVSPost2010Prop56
140
1.0
102
RTVSPost2010PropOp56
 70
     1
102
RTVSPost2010Prop57
140
1.0
102
RTVSPost2010PropOp57
 70
     1
  0
XRECORD
  5
3A3
102
{ACAD_REACTORS
330
3A2
102
}
330
3A2
100
AcDbXrecord
280
     1
102
RTVSPropertyOp0
 70
     1
102
RTVSPropertyOp1
 70
     1
102
RTVSPropertyOp2
 70
     1
102
RTVSPropertyOp3
 70
     1
102
RTVSPropertyOp4
 70
     1
102
RTVSPropertyOp5
 70
     1
102
RTVSPropertyOp6
 70
     1
102
RTVSPropertyOp7
 70
     1
102
RTVSPropertyOp8
 70
     1
102
RTVSPropertyOp9
 70
     1
102
RTVSPropertyOp10
 70
     1
102
RTVSPropertyOp11
 70
     1
102
RTVSPropertyOp12
 70
     1
102
RTVSPropertyOp13
 70
     1
102
RTVSPropertyOp14
 70
     1
102
RTVSPropertyOp15
 70
     1
102
RTVSPropertyOp16
 70
     1
102
RTVSPropertyOp17
 70
     1
102
RTVSPropertyOp18
 70
     1
102
RTVSPropertyOp19
 70
     1
102
RTVSPropertyOp20
 70
     1
102
RTVSPropertyOp21
 70
     1
102
RTVSPropertyOp22
 70
     1
102
RTVSPropertyOp23
 70
     1
102
RTVSPropertyOp24
 70
     1
102
RTVSPropertyOp25
 70
     1
102
RTVSPropertyOp26
 70
     1
102
RTVSPropertyOp27
 70
     1
102
RTVSPropertyOp28
 70
     1
102
RTVSPropertyOp29
 70
     1
102
RTVSPropertyOp30
 70
     1
102
RTVSPropertyOp31
 70
     1
102
RTVSPropertyOp32
 70
     1
102
RTVSPropertyOp33
 70
     1
102
RTVSPropertyOp34
 70
     1
102
RTVSPropertyOp35
 70
     1
102
RTVSPropertyOp36
 70
     1
102
RTVSPropertyOp37
 70
     1
102
RTVSPropertyOp38
 70
     1
102
RTVSPropertyOp39
 70
     1
102
RTVSPropertyOp40
 70
     1
102
RTVSPropertyOp41
 70
     1
102
RTVSPropertyOp42
 70
     1
102
RTVSPropertyOp43
 70
     1
102
RTVSPropertyOp44
 70
     1
102
RTVSPropertyOp45
 70
     1
102
RTVSPropertyOp46
 70
     1
102
RTVSPropertyOp47
 70
     1
102
RTVSPropertyOp48
 70
     1
102
RTVSPropertyOp49
 70
     1
102
RTVSPropertyOp50
 70
     1
102
RTVSPropertyOp51
 70
     0
102
RTVSPropertyOp52
 70
     0
102
RTVSPropertyOp53
 70
     1
102
RTVSPropertyOp54
 70
     1
102
RTVSPropertyOp55
 70
     1
102
RTVSPropertyOp56
 70
     1
102
RTVSPropertyOp57
 70
     1
102
RTVSPost2010Prop28
280
     0
102
RTVSPost2010PropOp28
 70
     1
102
RTVSPost2010Prop29
280
     1
102
RTVSPost2010PropOp29
 70
     1
102
RTVSPost2010Prop30
280
     1
102
RTVSPost2010PropOp30
 70
     1
102
RTVSPost2010Prop31
280
     0
102
RTVSPost2010PropOp31
 70
     1
102
RTVSPost2010Prop32
280
     0
102
RTVSPost2010PropOp32
 70
     1
102
RTVSPost2010Prop33
280
     0
102
RTVSPost2010PropOp33
 70
     1
102
RTVSPost2010Prop34
280
     0
102
RTVSPost2010PropOp34
 70
     1
102
RTVSPost2010Prop35
280
     0
102
RTVSPost2010PropOp35
 70
     1
102
RTVSPost2010Prop36
280
     0
102
RTVSPost2010PropOp36
 70
     1
102
RTVSPost2010Prop37
 90
       50
102
RTVSPost2010PropOp37
 70
     1
102
RTVSPost2010Prop38
140
0.0
102
RTVSPost2010PropOp38
 70
     1
102
RTVSPost2010Prop39
140
1.0
102
RTVSPost2010PropOp39
 70
     1
102
RTVSPost2010Prop40
 90
        0
102
RTVSPost2010PropOp40
 70
     1
102
RTVSPost2010Prop41ColorIndex
 90
       18
102
RTVSPost2010Prop41ColorRGB
 90
        0
102
RTVSPost2010PropOp41
 70
     1
102
RTVSPost2010Prop42
 90
       50
102
RTVSPost2010PropOp42
 70
     1
102
RTVSPost2010Prop43
 90
        3
102
RTVSPost2010PropOp43
 70
     1
102
RTVSPost2010Prop44ColorIndex
 90
        5
102
RTVSPost2010Prop44ColorRGB
 90
      255
102
RTVSPost2010PropOp44
 70
     1
102
RTVSPost2010Prop45
280
     0
102
RTVSPost2010PropOp45
 70
     1
102
RTVSPost2010Prop46
 90
       50
102
RTVSPost2010PropOp46
 70
     1
102
RTVSPost2010Prop47
 90
       50
102
RTVSPost2010PropOp47
 70
     1
102
RTVSPost2010Prop48
 90
       50
102
RTVSPost2010PropOp48
 70
     1
102
RTVSPost2010Prop49
280
     0
102
RTVSPost2010PropOp49
 70
     1
102
RTVSPost2010Prop50
 90
       50
102
RTVSPost2010PropOp50
 70
     1
102
RTVSPost2010Prop51ColorIndex
 90
      256
102
RTVSPost2010Prop51ColorRGB
 90
-16777216
102
RTVSPost2010PropOp51
 70
     0
102
RTVSPost2010Prop52
140
1.0
102
RTVSPost2010PropOp52
 70
     0
102
RTVSPost2010Prop53
 90
        2
102
RTVSPost2010PropOp53
 70
     1
102
RTVSPost2010Prop54
  1
strokes_ogs.tif
102
RTVSPost2010PropOp54
 70
     1
102
RTVSPost2010Prop55
280
     0
102
RTVSPost2010PropOp55
 70
     1
102
RTVSPost2010Prop56
140
1.0
102
RTVSPost2010PropOp56
 70
     1
102
RTVSPost2010Prop57
140
1.0
102
RTVSPost2010PropOp57
 70
     1
  0
XRECORD
  5
3B7
102
{ACAD_REACTORS
330
3B6
102
}
330
3B6
100
AcDbXrecord
280
     1
102
RTVSPropertyOp0
 70
     0
102
RTVSPropertyOp1
 70
     0
102
RTVSPropertyOp2
 70
     0
102
RTVSPropertyOp3
 70
     0
102
RTVSPropertyOp4
 70
     0
102
RTVSPropertyOp5
 70
     0
102
RTVSPropertyOp6
 70
     0
102
RTVSPropertyOp7
 70
     0
102
RTVSPropertyOp8
 70
     0
102
RTVSPropertyOp9
 70
     0
102
RTVSPropertyOp10
 70
     0
102
RTVSPropertyOp11
 70
     0
102
RTVSPropertyOp12
 70
     0
102
RTVSPropertyOp13
 70
     0
102
RTVSPropertyOp14
 70
     2
102
RTVSPropertyOp15
 70
     0
102
RTVSPropertyOp16
 70
     0
102
RTVSPropertyOp17
 70
     0
102
RTVSPropertyOp18
 70
     0
102
RTVSPropertyOp19
 70
     0
102
RTVSPropertyOp20
 70
     0
102
RTVSPropertyOp21
 70
     0
102
RTVSPropertyOp22
 70
     0
102
RTVSPropertyOp23
 70
     0
102
RTVSPropertyOp24
 70
     0
102
RTVSPropertyOp25
 70
     0
102
RTVSPropertyOp26
 70
     0
102
RTVSPropertyOp27
 70
     0
102
RTVSPropertyOp28
 70
     0
102
RTVSPropertyOp29
 70
     0
102
RTVSPropertyOp30
 70
     0
102
RTVSPropertyOp31
 70
     0
102
RTVSPropertyOp32
 70
     0
102
RTVSPropertyOp33
 70
     0
102
RTVSPropertyOp34
 70
     0
102
RTVSPropertyOp35
 70
     0
102
RTVSPropertyOp36
 70
     0
102
RTVSPropertyOp37
 70
     0
102
RTVSPropertyOp38
 70
     0
102
RTVSPropertyOp39
 70
     0
102
RTVSPropertyOp40
 70
     0
102
RTVSPropertyOp41
 70
     0
102
RTVSPropertyOp42
 70
     0
102
RTVSPropertyOp43
 70
     0
102
RTVSPropertyOp44
 70
     0
102
RTVSPropertyOp45
 70
     0
102
RTVSPropertyOp46
 70
     0
102
RTVSPropertyOp47
 70
     0
102
RTVSPropertyOp48
 70
     0
102
RTVSPropertyOp49
 70
     0
102
RTVSPropertyOp50
 70
     0
102
RTVSPropertyOp51
 70
     0
102
RTVSPropertyOp52
 70
     0
102
RTVSPropertyOp53
 70
     0
102
RTVSPropertyOp54
 70
     0
102
RTVSPropertyOp55
 70
     0
102
RTVSPropertyOp56
 70
     0
102
RTVSPropertyOp57
 70
     0
102
RTVSPost2010Prop28
280
     0
102
RTVSPost2010PropOp28
 70
     0
102
RTVSPost2010Prop29
280
     1
102
RTVSPost2010PropOp29
 70
     0
102
RTVSPost2010Prop30
280
     1
102
RTVSPost2010PropOp30
 70
     0
102
RTVSPost2010Prop31
280
     0
102
RTVSPost2010PropOp31
 70
     0
102
RTVSPost2010Prop32
280
     0
102
RTVSPost2010PropOp32
 70
     0
102
RTVSPost2010Prop33
280
     0
102
RTVSPost2010PropOp33
 70
     0
102
RTVSPost2010Prop34
280
     0
102
RTVSPost2010PropOp34
 70
     0
102
RTVSPost2010Prop35
280
     0
102
RTVSPost2010PropOp35
 70
     0
102
RTVSPost2010Prop36
280
     0
102
RTVSPost2010PropOp36
 70
     0
102
RTVSPost2010Prop37
 90
       50
102
RTVSPost2010PropOp37
 70
     0
102
RTVSPost2010Prop38
140
0.0
102
RTVSPost2010PropOp38
 70
     0
102
RTVSPost2010Prop39
140
1.0
102
RTVSPost2010PropOp39
 70
     0
102
RTVSPost2010Prop40
 90
        0
102
RTVSPost2010PropOp40
 70
     0
102
RTVSPost2010Prop41ColorIndex
 90
       18
102
RTVSPost2010Prop41ColorRGB
 90
        0
102
RTVSPost2010PropOp41
 70
     0
102
RTVSPost2010Prop42
 90
       50
102
RTVSPost2010PropOp42
 70
     0
102
RTVSPost2010Prop43
 90
        3
102
RTVSPost2010PropOp43
 70
     0
102
RTVSPost2010Prop44ColorIndex
 90
        5
102
RTVSPost2010Prop44ColorRGB
 90
      255
102
RTVSPost2010PropOp44
 70
     0
102
RTVSPost2010Prop45
280
     0
102
RTVSPost2010PropOp45
 70
     0
102
RTVSPost2010Prop46
 90
       50
102
RTVSPost2010PropOp46
 70
     0
102
RTVSPost2010Prop47
 90
       50
102
RTVSPost2010PropOp47
 70
     0
102
RTVSPost2010Prop48
 90
       50
102
RTVSPost2010PropOp48
 70
     0
102
RTVSPost2010Prop49
280
     0
102
RTVSPost2010PropOp49
 70
     0
102
RTVSPost2010Prop50
 90
       50
102
RTVSPost2010PropOp50
 70
     0
102
RTVSPost2010Prop51ColorIndex
 90
      256
102
RTVSPost2010Prop51ColorRGB
 90
-16777216
102
RTVSPost2010PropOp51
 70
     0
102
RTVSPost2010Prop52
140
1.0
102
RTVSPost2010PropOp52
 70
     0
102
RTVSPost2010Prop53
 90
        2
102
RTVSPost2010PropOp53
 70
     0
102
RTVSPost2010Prop54
  1
strokes_ogs.tif
102
RTVSPost2010PropOp54
 70
     0
102
RTVSPost2010Prop55
280
     0
102
RTVSPost2010PropOp55
 70
     0
102
RTVSPost2010Prop56
140
1.0
102
RTVSPost2010PropOp56
 70
     0
102
RTVSPost2010Prop57
140
1.0
102
RTVSPost2010PropOp57
 70
     0
  0
XRECORD
  5
3B1
102
{ACAD_REACTORS
330
3B0
102
}
330
3B0
100
AcDbXrecord
280
     1
102
RTVSPropertyOp0
 70
     1
102
RTVSPropertyOp1
 70
     1
102
RTVSPropertyOp2
 70
     1
102
RTVSPropertyOp3
 70
     1
102
RTVSPropertyOp4
 70
     1
102
RTVSPropertyOp5
 70
     1
102
RTVSPropertyOp6
 70
     1
102
RTVSPropertyOp7
 70
     1
102
RTVSPropertyOp8
 70
     1
102
RTVSPropertyOp9
 70
     1
102
RTVSPropertyOp10
 70
     1
102
RTVSPropertyOp11
 70
     1
102
RTVSPropertyOp12
 70
     1
102
RTVSPropertyOp13
 70
     1
102
RTVSPropertyOp14
 70
     1
102
RTVSPropertyOp15
 70
     1
102
RTVSPropertyOp16
 70
     1
102
RTVSPropertyOp17
 70
     1
102
RTVSPropertyOp18
 70
     1
102
RTVSPropertyOp19
 70
     1
102
RTVSPropertyOp20
 70
     1
102
RTVSPropertyOp21
 70
     1
102
RTVSPropertyOp22
 70
     1
102
RTVSPropertyOp23
 70
     1
102
RTVSPropertyOp24
 70
     1
102
RTVSPropertyOp25
 70
     1
102
RTVSPropertyOp26
 70
     1
102
RTVSPropertyOp27
 70
     1
102
RTVSPropertyOp28
 70
     1
102
RTVSPropertyOp29
 70
     1
102
RTVSPropertyOp30
 70
     1
102
RTVSPropertyOp31
 70
     1
102
RTVSPropertyOp32
 70
     1
102
RTVSPropertyOp33
 70
     1
102
RTVSPropertyOp34
 70
     1
102
RTVSPropertyOp35
 70
     1
102
RTVSPropertyOp36
 70
     1
102
RTVSPropertyOp37
 70
     1
102
RTVSPropertyOp38
 70
     1
102
RTVSPropertyOp39
 70
     1
102
RTVSPropertyOp40
 70
     1
102
RTVSPropertyOp41
 70
     1
102
RTVSPropertyOp42
 70
     1
102
RTVSPropertyOp43
 70
     1
102
RTVSPropertyOp44
 70
     1
102
RTVSPropertyOp45
 70
     1
102
RTVSPropertyOp46
 70
     1
102
RTVSPropertyOp47
 70
     1
102
RTVSPropertyOp48
 70
     1
102
RTVSPropertyOp49
 70
     1
102
RTVSPropertyOp50
 70
     1
102
RTVSPropertyOp51
 70
     0
102
RTVSPropertyOp52
 70
     0
102
RTVSPropertyOp53
 70
     1
102
RTVSPropertyOp54
 70
     1
102
RTVSPropertyOp55
 70
     1
102
RTVSPropertyOp56
 70
     1
102
RTVSPropertyOp57
 70
     1
102
RTVSPost2010Prop28
280
     0
102
RTVSPost2010PropOp28
 70
     1
102
RTVSPost2010Prop29
280
     1
102
RTVSPost2010PropOp29
 70
     1
102
RTVSPost2010Prop30
280
     1
102
RTVSPost2010PropOp30
 70
     1
102
RTVSPost2010Prop31
280
     0
102
RTVSPost2010PropOp31
 70
     1
102
RTVSPost2010Prop32
280
     0
102
RTVSPost2010PropOp32
 70
     1
102
RTVSPost2010Prop33
280
     0
102
RTVSPost2010PropOp33
 70
     1
102
RTVSPost2010Prop34
280
     0
102
RTVSPost2010PropOp34
 70
     1
102
RTVSPost2010Prop35
280
     0
102
RTVSPost2010PropOp35
 70
     1
102
RTVSPost2010Prop36
280
     0
102
RTVSPost2010PropOp36
 70
     1
102
RTVSPost2010Prop37
 90
       50
102
RTVSPost2010PropOp37
 70
     1
102
RTVSPost2010Prop38
140
0.0
102
RTVSPost2010PropOp38
 70
     1
102
RTVSPost2010Prop39
140
1.0
102
RTVSPost2010PropOp39
 70
     1
102
RTVSPost2010Prop40
 90
        0
102
RTVSPost2010PropOp40
 70
     1
102
RTVSPost2010Prop41ColorIndex
 90
       18
102
RTVSPost2010Prop41ColorRGB
 90
        0
102
RTVSPost2010PropOp41
 70
     1
102
RTVSPost2010Prop42
 90
       50
102
RTVSPost2010PropOp42
 70
     1
102
RTVSPost2010Prop43
 90
        3
102
RTVSPost2010PropOp43
 70
     1
102
RTVSPost2010Prop44ColorIndex
 90
        5
102
RTVSPost2010Prop44ColorRGB
 90
      255
102
RTVSPost2010PropOp44
 70
     1
102
RTVSPost2010Prop45
280
     0
102
RTVSPost2010PropOp45
 70
     1
102
RTVSPost2010Prop46
 90
       50
102
RTVSPost2010PropOp46
 70
     1
102
RTVSPost2010Prop47
 90
       50
102
RTVSPost2010PropOp47
 70
     1
102
RTVSPost2010Prop48
 90
       50
102
RTVSPost2010PropOp48
 70
     1
102
RTVSPost2010Prop49
280
     0
102
RTVSPost2010PropOp49
 70
     1
102
RTVSPost2010Prop50
 90
       50
102
RTVSPost2010PropOp50
 70
     1
102
RTVSPost2010Prop51ColorIndex
 90
      256
102
RTVSPost2010Prop51ColorRGB
 90
-16777216
102
RTVSPost2010PropOp51
 70
     0
102
RTVSPost2010Prop52
140
1.0
102
RTVSPost2010PropOp52
 70
     0
102
RTVSPost2010Prop53
 90
        2
102
RTVSPost2010PropOp53
 70
     1
102
RTVSPost2010Prop54
  1
strokes_ogs.tif
102
RTVSPost2010PropOp54
 70
     1
102
RTVSPost2010Prop55
280
     0
102
RTVSPost2010PropOp55
 70
     1
102
RTVSPost2010Prop56
140
1.0
102
RTVSPost2010PropOp56
 70
     1
102
RTVSPost2010Prop57
140
1.0
102
RTVSPost2010PropOp57
 70
     1
  0
XRECORD
  5
3B9
102
{ACAD_REACTORS
330
3B8
102
}
330
3B8
100
AcDbXrecord
280
     1
102
RTVSPropertyOp0
 70
     0
102
RTVSPropertyOp1
 70
     0
102
RTVSPropertyOp2
 70
     0
102
RTVSPropertyOp3
 70
     0
102
RTVSPropertyOp4
 70
     0
102
RTVSPropertyOp5
 70
     0
102
RTVSPropertyOp6
 70
     0
102
RTVSPropertyOp7
 70
     0
102
RTVSPropertyOp8
 70
     0
102
RTVSPropertyOp9
 70
     0
102
RTVSPropertyOp10
 70
     0
102
RTVSPropertyOp11
 70
     0
102
RTVSPropertyOp12
 70
     0
102
RTVSPropertyOp13
 70
     0
102
RTVSPropertyOp14
 70
     2
102
RTVSPropertyOp15
 70
     0
102
RTVSPropertyOp16
 70
     0
102
RTVSPropertyOp17
 70
     0
102
RTVSPropertyOp18
 70
     0
102
RTVSPropertyOp19
 70
     0
102
RTVSPropertyOp20
 70
     0
102
RTVSPropertyOp21
 70
     0
102
RTVSPropertyOp22
 70
     0
102
RTVSPropertyOp23
 70
     0
102
RTVSPropertyOp24
 70
     0
102
RTVSPropertyOp25
 70
     0
102
RTVSPropertyOp26
 70
     0
102
RTVSPropertyOp27
 70
     0
102
RTVSPropertyOp28
 70
     0
102
RTVSPropertyOp29
 70
     0
102
RTVSPropertyOp30
 70
     0
102
RTVSPropertyOp31
 70
     0
102
RTVSPropertyOp32
 70
     0
102
RTVSPropertyOp33
 70
     0
102
RTVSPropertyOp34
 70
     0
102
RTVSPropertyOp35
 70
     0
102
RTVSPropertyOp36
 70
     0
102
RTVSPropertyOp37
 70
     0
102
RTVSPropertyOp38
 70
     0
102
RTVSPropertyOp39
 70
     0
102
RTVSPropertyOp40
 70
     0
102
RTVSPropertyOp41
 70
     0
102
RTVSPropertyOp42
 70
     0
102
RTVSPropertyOp43
 70
     0
102
RTVSPropertyOp44
 70
     0
102
RTVSPropertyOp45
 70
     0
102
RTVSPropertyOp46
 70
     0
102
RTVSPropertyOp47
 70
     0
102
RTVSPropertyOp48
 70
     0
102
RTVSPropertyOp49
 70
     0
102
RTVSPropertyOp50
 70
     0
102
RTVSPropertyOp51
 70
     0
102
RTVSPropertyOp52
 70
     0
102
RTVSPropertyOp53
 70
     0
102
RTVSPropertyOp54
 70
     0
102
RTVSPropertyOp55
 70
     0
102
RTVSPropertyOp56
 70
     0
102
RTVSPropertyOp57
 70
     0
102
RTVSPost2010Prop28
280
     0
102
RTVSPost2010PropOp28
 70
     0
102
RTVSPost2010Prop29
280
     1
102
RTVSPost2010PropOp29
 70
     0
102
RTVSPost2010Prop30
280
     1
102
RTVSPost2010PropOp30
 70
     0
102
RTVSPost2010Prop31
280
     0
102
RTVSPost2010PropOp31
 70
     0
102
RTVSPost2010Prop32
280
     0
102
RTVSPost2010PropOp32
 70
     0
102
RTVSPost2010Prop33
280
     0
102
RTVSPost2010PropOp33
 70
     0
102
RTVSPost2010Prop34
280
     0
102
RTVSPost2010PropOp34
 70
     0
102
RTVSPost2010Prop35
280
     0
102
RTVSPost2010PropOp35
 70
     0
102
RTVSPost2010Prop36
280
     0
102
RTVSPost2010PropOp36
 70
     0
102
RTVSPost2010Prop37
 90
       50
102
RTVSPost2010PropOp37
 70
     0
102
RTVSPost2010Prop38
140
0.0
102
RTVSPost2010PropOp38
 70
     0
102
RTVSPost2010Prop39
140
1.0
102
RTVSPost2010PropOp39
 70
     0
102
RTVSPost2010Prop40
 90
        0
102
RTVSPost2010PropOp40
 70
     0
102
RTVSPost2010Prop41ColorIndex
 90
       18
102
RTVSPost2010Prop41ColorRGB
 90
        0
102
RTVSPost2010PropOp41
 70
     0
102
RTVSPost2010Prop42
 90
       50
102
RTVSPost2010PropOp42
 70
     0
102
RTVSPost2010Prop43
 90
        3
102
RTVSPost2010PropOp43
 70
     0
102
RTVSPost2010Prop44ColorIndex
 90
        5
102
RTVSPost2010Prop44ColorRGB
 90
      255
102
RTVSPost2010PropOp44
 70
     0
102
RTVSPost2010Prop45
280
     0
102
RTVSPost2010PropOp45
 70
     0
102
RTVSPost2010Prop46
 90
       50
102
RTVSPost2010PropOp46
 70
     0
102
RTVSPost2010Prop47
 90
       50
102
RTVSPost2010PropOp47
 70
     0
102
RTVSPost2010Prop48
 90
       50
102
RTVSPost2010PropOp48
 70
     0
102
RTVSPost2010Prop49
280
     0
102
RTVSPost2010PropOp49
 70
     0
102
RTVSPost2010Prop50
 90
       50
102
RTVSPost2010PropOp50
 70
     0
102
RTVSPost2010Prop51ColorIndex
 90
      256
102
RTVSPost2010Prop51ColorRGB
 90
-16777216
102
RTVSPost2010PropOp51
 70
     0
102
RTVSPost2010Prop52
140
1.0
102
RTVSPost2010PropOp52
 70
     0
102
RTVSPost2010Prop53
 90
        2
102
RTVSPost2010PropOp53
 70
     0
102
RTVSPost2010Prop54
  1
strokes_ogs.tif
102
RTVSPost2010PropOp54
 70
     0
102
RTVSPost2010Prop55
280
     0
102
RTVSPost2010PropOp55
 70
     0
102
RTVSPost2010Prop56
140
1.0
102
RTVSPost2010PropOp56
 70
     0
102
RTVSPost2010Prop57
140
1.0
102
RTVSPost2010PropOp57
 70
     0
  0
XRECORD
  5
3A7
102
{ACAD_REACTORS
330
3A6
102
}
330
3A6
100
AcDbXrecord
280
     1
102
RTVSPropertyOp0
 70
     1
102
RTVSPropertyOp1
 70
     1
102
RTVSPropertyOp2
 70
     1
102
RTVSPropertyOp3
 70
     1
102
RTVSPropertyOp4
 70
     1
102
RTVSPropertyOp5
 70
     1
102
RTVSPropertyOp6
 70
     1
102
RTVSPropertyOp7
 70
     1
102
RTVSPropertyOp8
 70
     1
102
RTVSPropertyOp9
 70
     1
102
RTVSPropertyOp10
 70
     1
102
RTVSPropertyOp11
 70
     1
102
RTVSPropertyOp12
 70
     1
102
RTVSPropertyOp13
 70
     1
102
RTVSPropertyOp14
 70
     1
102
RTVSPropertyOp15
 70
     1
102
RTVSPropertyOp16
 70
     1
102
RTVSPropertyOp17
 70
     1
102
RTVSPropertyOp18
 70
     1
102
RTVSPropertyOp19
 70
     1
102
RTVSPropertyOp20
 70
     1
102
RTVSPropertyOp21
 70
     1
102
RTVSPropertyOp22
 70
     1
102
RTVSPropertyOp23
 70
     1
102
RTVSPropertyOp24
 70
     1
102
RTVSPropertyOp25
 70
     1
102
RTVSPropertyOp26
 70
     1
102
RTVSPropertyOp27
 70
     1
102
RTVSPropertyOp28
 70
     1
102
RTVSPropertyOp29
 70
     1
102
RTVSPropertyOp30
 70
     1
102
RTVSPropertyOp31
 70
     1
102
RTVSPropertyOp32
 70
     1
102
RTVSPropertyOp33
 70
     1
102
RTVSPropertyOp34
 70
     1
102
RTVSPropertyOp35
 70
     1
102
RTVSPropertyOp36
 70
     1
102
RTVSPropertyOp37
 70
     1
102
RTVSPropertyOp38
 70
     1
102
RTVSPropertyOp39
 70
     1
102
RTVSPropertyOp40
 70
     1
102
RTVSPropertyOp41
 70
     1
102
RTVSPropertyOp42
 70
     1
102
RTVSPropertyOp43
 70
     1
102
RTVSPropertyOp44
 70
     1
102
RTVSPropertyOp45
 70
     1
102
RTVSPropertyOp46
 70
     1
102
RTVSPropertyOp47
 70
     1
102
RTVSPropertyOp48
 70
     1
102
RTVSPropertyOp49
 70
     1
102
RTVSPropertyOp50
 70
     1
102
RTVSPropertyOp51
 70
     0
102
RTVSPropertyOp52
 70
     0
102
RTVSPropertyOp53
 70
     1
102
RTVSPropertyOp54
 70
     1
102
RTVSPropertyOp55
 70
     1
102
RTVSPropertyOp56
 70
     1
102
RTVSPropertyOp57
 70
     1
102
RTVSPost2010Prop28
280
     0
102
RTVSPost2010PropOp28
 70
     1
102
RTVSPost2010Prop29
280
     1
102
RTVSPost2010PropOp29
 70
     1
102
RTVSPost2010Prop30
280
     1
102
RTVSPost2010PropOp30
 70
     1
102
RTVSPost2010Prop31
280
     0
102
RTVSPost2010PropOp31
 70
     1
102
RTVSPost2010Prop32
280
     0
102
RTVSPost2010PropOp32
 70
     1
102
RTVSPost2010Prop33
280
     0
102
RTVSPost2010PropOp33
 70
     1
102
RTVSPost2010Prop34
280
     0
102
RTVSPost2010PropOp34
 70
     1
102
RTVSPost2010Prop35
280
     0
102
RTVSPost2010PropOp35
 70
     1
102
RTVSPost2010Prop36
280
     0
102
RTVSPost2010PropOp36
 70
     1
102
RTVSPost2010Prop37
 90
       50
102
RTVSPost2010PropOp37
 70
     1
102
RTVSPost2010Prop38
140
0.0
102
RTVSPost2010PropOp38
 70
     1
102
RTVSPost2010Prop39
140
1.0
102
RTVSPost2010PropOp39
 70
     1
102
RTVSPost2010Prop40
 90
        0
102
RTVSPost2010PropOp40
 70
     1
102
RTVSPost2010Prop41ColorIndex
 90
       18
102
RTVSPost2010Prop41ColorRGB
 90
        0
102
RTVSPost2010PropOp41
 70
     1
102
RTVSPost2010Prop42
 90
       50
102
RTVSPost2010PropOp42
 70
     1
102
RTVSPost2010Prop43
 90
        3
102
RTVSPost2010PropOp43
 70
     1
102
RTVSPost2010Prop44ColorIndex
 90
        5
102
RTVSPost2010Prop44ColorRGB
 90
      255
102
RTVSPost2010PropOp44
 70
     1
102
RTVSPost2010Prop45
280
     0
102
RTVSPost2010PropOp45
 70
     1
102
RTVSPost2010Prop46
 90
       50
102
RTVSPost2010PropOp46
 70
     1
102
RTVSPost2010Prop47
 90
       50
102
RTVSPost2010PropOp47
 70
     1
102
RTVSPost2010Prop48
 90
       50
102
RTVSPost2010PropOp48
 70
     1
102
RTVSPost2010Prop49
280
     0
102
RTVSPost2010PropOp49
 70
     1
102
RTVSPost2010Prop50
 90
       50
102
RTVSPost2010PropOp50
 70
     1
102
RTVSPost2010Prop51ColorIndex
 90
      256
102
RTVSPost2010Prop51ColorRGB
 90
-16777216
102
RTVSPost2010PropOp51
 70
     0
102
RTVSPost2010Prop52
140
1.0
102
RTVSPost2010PropOp52
 70
     0
102
RTVSPost2010Prop53
 90
        2
102
RTVSPost2010PropOp53
 70
     1
102
RTVSPost2010Prop54
  1
strokes_ogs.tif
102
RTVSPost2010PropOp54
 70
     1
102
RTVSPost2010Prop55
280
     0
102
RTVSPost2010PropOp55
 70
     1
102
RTVSPost2010Prop56
140
1.0
102
RTVSPost2010PropOp56
 70
     1
102
RTVSPost2010Prop57
140
1.0
102
RTVSPost2010PropOp57
 70
     1
  0
XRECORD
  5
3C5
102
{ACAD_REACTORS
330
3C4
102
}
330
3C4
100
AcDbXrecord
280
     1
102
RTVSPropertyOp0
 70
     1
102
RTVSPropertyOp1
 70
     1
102
RTVSPropertyOp2
 70
     1
102
RTVSPropertyOp3
 70
     1
102
RTVSPropertyOp4
 70
     1
102
RTVSPropertyOp5
 70
     1
102
RTVSPropertyOp6
 70
     1
102
RTVSPropertyOp7
 70
     1
102
RTVSPropertyOp8
 70
     1
102
RTVSPropertyOp9
 70
     1
102
RTVSPropertyOp10
 70
     1
102
RTVSPropertyOp11
 70
     1
102
RTVSPropertyOp12
 70
     1
102
RTVSPropertyOp13
 70
     1
102
RTVSPropertyOp14
 70
     1
102
RTVSPropertyOp15
 70
     1
102
RTVSPropertyOp16
 70
     1
102
RTVSPropertyOp17
 70
     1
102
RTVSPropertyOp18
 70
     1
102
RTVSPropertyOp19
 70
     1
102
RTVSPropertyOp20
 70
     1
102
RTVSPropertyOp21
 70
     1
102
RTVSPropertyOp22
 70
     1
102
RTVSPropertyOp23
 70
     1
102
RTVSPropertyOp24
 70
     1
102
RTVSPropertyOp25
 70
     1
102
RTVSPropertyOp26
 70
     1
102
RTVSPropertyOp27
 70
     1
102
RTVSPropertyOp28
 70
     1
102
RTVSPropertyOp29
 70
     1
102
RTVSPropertyOp30
 70
     1
102
RTVSPropertyOp31
 70
     1
102
RTVSPropertyOp32
 70
     1
102
RTVSPropertyOp33
 70
     1
102
RTVSPropertyOp34
 70
     1
102
RTVSPropertyOp35
 70
     1
102
RTVSPropertyOp36
 70
     1
102
RTVSPropertyOp37
 70
     1
102
RTVSPropertyOp38
 70
     1
102
RTVSPropertyOp39
 70
     1
102
RTVSPropertyOp40
 70
     1
102
RTVSPropertyOp41
 70
     1
102
RTVSPropertyOp42
 70
     1
102
RTVSPropertyOp43
 70
     1
102
RTVSPropertyOp44
 70
     1
102
RTVSPropertyOp45
 70
     1
102
RTVSPropertyOp46
 70
     1
102
RTVSPropertyOp47
 70
     1
102
RTVSPropertyOp48
 70
     1
102
RTVSPropertyOp49
 70
     1
102
RTVSPropertyOp50
 70
     1
102
RTVSPropertyOp51
 70
     0
102
RTVSPropertyOp52
 70
     0
102
RTVSPropertyOp53
 70
     1
102
RTVSPropertyOp54
 70
     1
102
RTVSPropertyOp55
 70
     1
102
RTVSPropertyOp56
 70
     1
102
RTVSPropertyOp57
 70
     1
102
RTVSPost2010Prop28
280
     0
102
RTVSPost2010PropOp28
 70
     1
102
RTVSPost2010Prop29
280
     1
102
RTVSPost2010PropOp29
 70
     1
102
RTVSPost2010Prop30
280
     1
102
RTVSPost2010PropOp30
 70
     1
102
RTVSPost2010Prop31
280
     0
102
RTVSPost2010PropOp31
 70
     1
102
RTVSPost2010Prop32
280
     0
102
RTVSPost2010PropOp32
 70
     1
102
RTVSPost2010Prop33
280
     0
102
RTVSPost2010PropOp33
 70
     1
102
RTVSPost2010Prop34
280
     0
102
RTVSPost2010PropOp34
 70
     1
102
RTVSPost2010Prop35
280
     0
102
RTVSPost2010PropOp35
 70
     1
102
RTVSPost2010Prop36
280
     0
102
RTVSPost2010PropOp36
 70
     1
102
RTVSPost2010Prop37
 90
       50
102
RTVSPost2010PropOp37
 70
     1
102
RTVSPost2010Prop38
140
0.0
102
RTVSPost2010PropOp38
 70
     1
102
RTVSPost2010Prop39
140
1.0
102
RTVSPost2010PropOp39
 70
     1
102
RTVSPost2010Prop40
 90
        0
102
RTVSPost2010PropOp40
 70
     1
102
RTVSPost2010Prop41ColorIndex
 90
       18
102
RTVSPost2010Prop41ColorRGB
 90
        0
102
RTVSPost2010PropOp41
 70
     1
102
RTVSPost2010Prop42
 90
       50
102
RTVSPost2010PropOp42
 70
     1
102
RTVSPost2010Prop43
 90
        3
102
RTVSPost2010PropOp43
 70
     1
102
RTVSPost2010Prop44ColorIndex
 90
        5
102
RTVSPost2010Prop44ColorRGB
 90
      255
102
RTVSPost2010PropOp44
 70
     1
102
RTVSPost2010Prop45
280
     0
102
RTVSPost2010PropOp45
 70
     1
102
RTVSPost2010Prop46
 90
       50
102
RTVSPost2010PropOp46
 70
     1
102
RTVSPost2010Prop47
 90
       50
102
RTVSPost2010PropOp47
 70
     1
102
RTVSPost2010Prop48
 90
       50
102
RTVSPost2010PropOp48
 70
     1
102
RTVSPost2010Prop49
280
     0
102
RTVSPost2010PropOp49
 70
     1
102
RTVSPost2010Prop50
 90
       50
102
RTVSPost2010PropOp50
 70
     1
102
RTVSPost2010Prop51ColorIndex
 90
      256
102
RTVSPost2010Prop51ColorRGB
 90
-16777216
102
RTVSPost2010PropOp51
 70
     0
102
RTVSPost2010Prop52
140
1.0
102
RTVSPost2010PropOp52
 70
     0
102
RTVSPost2010Prop53
 90
        2
102
RTVSPost2010PropOp53
 70
     1
102
RTVSPost2010Prop54
  1
strokes_ogs.tif
102
RTVSPost2010PropOp54
 70
     1
102
RTVSPost2010Prop55
280
     0
102
RTVSPost2010PropOp55
 70
     1
102
RTVSPost2010Prop56
140
1.0
102
RTVSPost2010PropOp56
 70
     1
102
RTVSPost2010Prop57
140
1.0
102
RTVSPost2010PropOp57
 70
     1
  0
XRECORD
  5
3C3
102
{ACAD_REACTORS
330
3C2
102
}
330
3C2
100
AcDbXrecord
280
     1
102
RTVSPropertyOp0
 70
     1
102
RTVSPropertyOp1
 70
     1
102
RTVSPropertyOp2
 70
     1
102
RTVSPropertyOp3
 70
     1
102
RTVSPropertyOp4
 70
     1
102
RTVSPropertyOp5
 70
     1
102
RTVSPropertyOp6
 70
     1
102
RTVSPropertyOp7
 70
     1
102
RTVSPropertyOp8
 70
     1
102
RTVSPropertyOp9
 70
     1
102
RTVSPropertyOp10
 70
     1
102
RTVSPropertyOp11
 70
     1
102
RTVSPropertyOp12
 70
     1
102
RTVSPropertyOp13
 70
     1
102
RTVSPropertyOp14
 70
     1
102
RTVSPropertyOp15
 70
     1
102
RTVSPropertyOp16
 70
     1
102
RTVSPropertyOp17
 70
     1
102
RTVSPropertyOp18
 70
     1
102
RTVSPropertyOp19
 70
     1
102
RTVSPropertyOp20
 70
     1
102
RTVSPropertyOp21
 70
     1
102
RTVSPropertyOp22
 70
     1
102
RTVSPropertyOp23
 70
     1
102
RTVSPropertyOp24
 70
     1
102
RTVSPropertyOp25
 70
     1
102
RTVSPropertyOp26
 70
     1
102
RTVSPropertyOp27
 70
     1
102
RTVSPropertyOp28
 70
     1
102
RTVSPropertyOp29
 70
     1
102
RTVSPropertyOp30
 70
     1
102
RTVSPropertyOp31
 70
     1
102
RTVSPropertyOp32
 70
     1
102
RTVSPropertyOp33
 70
     1
102
RTVSPropertyOp34
 70
     1
102
RTVSPropertyOp35
 70
     1
102
RTVSPropertyOp36
 70
     1
102
RTVSPropertyOp37
 70
     1
102
RTVSPropertyOp38
 70
     1
102
RTVSPropertyOp39
 70
     1
102
RTVSPropertyOp40
 70
     1
102
RTVSPropertyOp41
 70
     1
102
RTVSPropertyOp42
 70
     1
102
RTVSPropertyOp43
 70
     1
102
RTVSPropertyOp44
 70
     1
102
RTVSPropertyOp45
 70
     1
102
RTVSPropertyOp46
 70
     1
102
RTVSPropertyOp47
 70
     1
102
RTVSPropertyOp48
 70
     1
102
RTVSPropertyOp49
 70
     1
102
RTVSPropertyOp50
 70
     1
102
RTVSPropertyOp51
 70
     0
102
RTVSPropertyOp52
 70
     0
102
RTVSPropertyOp53
 70
     1
102
RTVSPropertyOp54
 70
     1
102
RTVSPropertyOp55
 70
     1
102
RTVSPropertyOp56
 70
     1
102
RTVSPropertyOp57
 70
     1
102
RTVSPost2010Prop28
280
     0
102
RTVSPost2010PropOp28
 70
     1
102
RTVSPost2010Prop29
280
     1
102
RTVSPost2010PropOp29
 70
     1
102
RTVSPost2010Prop30
280
     1
102
RTVSPost2010PropOp30
 70
     1
102
RTVSPost2010Prop31
280
     0
102
RTVSPost2010PropOp31
 70
     1
102
RTVSPost2010Prop32
280
     0
102
RTVSPost2010PropOp32
 70
     1
102
RTVSPost2010Prop33
280
     0
102
RTVSPost2010PropOp33
 70
     1
102
RTVSPost2010Prop34
280
     0
102
RTVSPost2010PropOp34
 70
     1
102
RTVSPost2010Prop35
280
     0
102
RTVSPost2010PropOp35
 70
     1
102
RTVSPost2010Prop36
280
     0
102
RTVSPost2010PropOp36
 70
     1
102
RTVSPost2010Prop37
 90
       50
102
RTVSPost2010PropOp37
 70
     1
102
RTVSPost2010Prop38
140
0.0
102
RTVSPost2010PropOp38
 70
     1
102
RTVSPost2010Prop39
140
1.0
102
RTVSPost2010PropOp39
 70
     1
102
RTVSPost2010Prop40
 90
        0
102
RTVSPost2010PropOp40
 70
     1
102
RTVSPost2010Prop41ColorIndex
 90
       18
102
RTVSPost2010Prop41ColorRGB
 90
        0
102
RTVSPost2010PropOp41
 70
     1
102
RTVSPost2010Prop42
 90
       50
102
RTVSPost2010PropOp42
 70
     1
102
RTVSPost2010Prop43
 90
        3
102
RTVSPost2010PropOp43
 70
     1
102
RTVSPost2010Prop44ColorIndex
 90
        5
102
RTVSPost2010Prop44ColorRGB
 90
      255
102
RTVSPost2010PropOp44
 70
     1
102
RTVSPost2010Prop45
280
     0
102
RTVSPost2010PropOp45
 70
     1
102
RTVSPost2010Prop46
 90
       50
102
RTVSPost2010PropOp46
 70
     1
102
RTVSPost2010Prop47
 90
       50
102
RTVSPost2010PropOp47
 70
     1
102
RTVSPost2010Prop48
 90
       50
102
RTVSPost2010PropOp48
 70
     1
102
RTVSPost2010Prop49
280
     0
102
RTVSPost2010PropOp49
 70
     1
102
RTVSPost2010Prop50
 90
       50
102
RTVSPost2010PropOp50
 70
     1
102
RTVSPost2010Prop51ColorIndex
 90
      256
102
RTVSPost2010Prop51ColorRGB
 90
-16777216
102
RTVSPost2010PropOp51
 70
     0
102
RTVSPost2010Prop52
140
1.0
102
RTVSPost2010PropOp52
 70
     0
102
RTVSPost2010Prop53
 90
        2
102
RTVSPost2010PropOp53
 70
     1
102
RTVSPost2010Prop54
  1
strokes_ogs.tif
102
RTVSPost2010PropOp54
 70
     1
102
RTVSPost2010Prop55
280
     0
102
RTVSPost2010PropOp55
 70
     1
102
RTVSPost2010Prop56
140
1.0
102
RTVSPost2010PropOp56
 70
     1
102
RTVSPost2010Prop57
140
1.0
102
RTVSPost2010PropOp57
 70
     1
  0
XRECORD
  5
3BD
102
{ACAD_REACTORS
330
3BC
102
}
330
3BC
100
AcDbXrecord
280
     1
102
RTVSPropertyOp0
 70
     1
102
RTVSPropertyOp1
 70
     1
102
RTVSPropertyOp2
 70
     1
102
RTVSPropertyOp3
 70
     1
102
RTVSPropertyOp4
 70
     1
102
RTVSPropertyOp5
 70
     1
102
RTVSPropertyOp6
 70
     1
102
RTVSPropertyOp7
 70
     1
102
RTVSPropertyOp8
 70
     1
102
RTVSPropertyOp9
 70
     1
102
RTVSPropertyOp10
 70
     1
102
RTVSPropertyOp11
 70
     1
102
RTVSPropertyOp12
 70
     1
102
RTVSPropertyOp13
 70
     1
102
RTVSPropertyOp14
 70
     1
102
RTVSPropertyOp15
 70
     1
102
RTVSPropertyOp16
 70
     1
102
RTVSPropertyOp17
 70
     1
102
RTVSPropertyOp18
 70
     1
102
RTVSPropertyOp19
 70
     1
102
RTVSPropertyOp20
 70
     1
102
RTVSPropertyOp21
 70
     1
102
RTVSPropertyOp22
 70
     1
102
RTVSPropertyOp23
 70
     1
102
RTVSPropertyOp24
 70
     1
102
RTVSPropertyOp25
 70
     1
102
RTVSPropertyOp26
 70
     1
102
RTVSPropertyOp27
 70
     1
102
RTVSPropertyOp28
 70
     1
102
RTVSPropertyOp29
 70
     1
102
RTVSPropertyOp30
 70
     1
102
RTVSPropertyOp31
 70
     1
102
RTVSPropertyOp32
 70
     1
102
RTVSPropertyOp33
 70
     1
102
RTVSPropertyOp34
 70
     1
102
RTVSPropertyOp35
 70
     1
102
RTVSPropertyOp36
 70
     1
102
RTVSPropertyOp37
 70
     1
102
RTVSPropertyOp38
 70
     1
102
RTVSPropertyOp39
 70
     1
102
RTVSPropertyOp40
 70
     1
102
RTVSPropertyOp41
 70
     1
102
RTVSPropertyOp42
 70
     1
102
RTVSPropertyOp43
 70
     1
102
RTVSPropertyOp44
 70
     1
102
RTVSPropertyOp45
 70
     1
102
RTVSPropertyOp46
 70
     1
102
RTVSPropertyOp47
 70
     1
102
RTVSPropertyOp48
 70
     1
102
RTVSPropertyOp49
 70
     1
102
RTVSPropertyOp50
 70
     1
102
RTVSPropertyOp51
 70
     0
102
RTVSPropertyOp52
 70
     0
102
RTVSPropertyOp53
 70
     1
102
RTVSPropertyOp54
 70
     1
102
RTVSPropertyOp55
 70
     1
102
RTVSPropertyOp56
 70
     1
102
RTVSPropertyOp57
 70
     1
102
RTVSPost2010Prop28
280
     0
102
RTVSPost2010PropOp28
 70
     1
102
RTVSPost2010Prop29
280
     1
102
RTVSPost2010PropOp29
 70
     1
102
RTVSPost2010Prop30
280
     1
102
RTVSPost2010PropOp30
 70
     1
102
RTVSPost2010Prop31
280
     0
102
RTVSPost2010PropOp31
 70
     1
102
RTVSPost2010Prop32
280
     0
102
RTVSPost2010PropOp32
 70
     1
102
RTVSPost2010Prop33
280
     0
102
RTVSPost2010PropOp33
 70
     1
102
RTVSPost2010Prop34
280
     0
102
RTVSPost2010PropOp34
 70
     1
102
RTVSPost2010Prop35
280
     0
102
RTVSPost2010PropOp35
 70
     1
102
RTVSPost2010Prop36
280
     0
102
RTVSPost2010PropOp36
 70
     1
102
RTVSPost2010Prop37
 90
       50
102
RTVSPost2010PropOp37
 70
     1
102
RTVSPost2010Prop38
140
0.0
102
RTVSPost2010PropOp38
 70
     1
102
RTVSPost2010Prop39
140
1.0
102
RTVSPost2010PropOp39
 70
     1
102
RTVSPost2010Prop40
 90
        0
102
RTVSPost2010PropOp40
 70
     1
102
RTVSPost2010Prop41ColorIndex
 90
       18
102
RTVSPost2010Prop41ColorRGB
 90
        0
102
RTVSPost2010PropOp41
 70
     1
102
RTVSPost2010Prop42
 90
       50
102
RTVSPost2010PropOp42
 70
     1
102
RTVSPost2010Prop43
 90
        3
102
RTVSPost2010PropOp43
 70
     1
102
RTVSPost2010Prop44ColorIndex
 90
        5
102
RTVSPost2010Prop44ColorRGB
 90
      255
102
RTVSPost2010PropOp44
 70
     1
102
RTVSPost2010Prop45
280
     0
102
RTVSPost2010PropOp45
 70
     1
102
RTVSPost2010Prop46
 90
       50
102
RTVSPost2010PropOp46
 70
     1
102
RTVSPost2010Prop47
 90
       50
102
RTVSPost2010PropOp47
 70
     1
102
RTVSPost2010Prop48
 90
       50
102
RTVSPost2010PropOp48
 70
     1
102
RTVSPost2010Prop49
280
     0
102
RTVSPost2010PropOp49
 70
     1
102
RTVSPost2010Prop50
 90
       50
102
RTVSPost2010PropOp50
 70
     1
102
RTVSPost2010Prop51ColorIndex
 90
      256
102
RTVSPost2010Prop51ColorRGB
 90
-16777216
102
RTVSPost2010PropOp51
 70
     0
102
RTVSPost2010Prop52
140
1.0
102
RTVSPost2010PropOp52
 70
     0
102
RTVSPost2010Prop53
 90
        2
102
RTVSPost2010PropOp53
 70
     1
102
RTVSPost2010Prop54
  1
strokes_ogs.tif
102
RTVSPost2010PropOp54
 70
     1
102
RTVSPost2010Prop55
280
     0
102
RTVSPost2010PropOp55
 70
     1
102
RTVSPost2010Prop56
140
1.0
102
RTVSPost2010PropOp56
 70
     1
102
RTVSPost2010Prop57
140
1.0
102
RTVSPost2010PropOp57
 70
     1
  0
XRECORD
  5
3BF
102
{ACAD_REACTORS
330
3BE
102
}
330
3BE
100
AcDbXrecord
280
     1
102
RTVSPropertyOp0
 70
     1
102
RTVSPropertyOp1
 70
     1
102
RTVSPropertyOp2
 70
     1
102
RTVSPropertyOp3
 70
     1
102
RTVSPropertyOp4
 70
     1
102
RTVSPropertyOp5
 70
     1
102
RTVSPropertyOp6
 70
     1
102
RTVSPropertyOp7
 70
     1
102
RTVSPropertyOp8
 70
     1
102
RTVSPropertyOp9
 70
     1
102
RTVSPropertyOp10
 70
     1
102
RTVSPropertyOp11
 70
     1
102
RTVSPropertyOp12
 70
     1
102
RTVSPropertyOp13
 70
     1
102
RTVSPropertyOp14
 70
     1
102
RTVSPropertyOp15
 70
     1
102
RTVSPropertyOp16
 70
     1
102
RTVSPropertyOp17
 70
     1
102
RTVSPropertyOp18
 70
     1
102
RTVSPropertyOp19
 70
     1
102
RTVSPropertyOp20
 70
     1
102
RTVSPropertyOp21
 70
     1
102
RTVSPropertyOp22
 70
     1
102
RTVSPropertyOp23
 70
     1
102
RTVSPropertyOp24
 70
     1
102
RTVSPropertyOp25
 70
     1
102
RTVSPropertyOp26
 70
     1
102
RTVSPropertyOp27
 70
     1
102
RTVSPropertyOp28
 70
     1
102
RTVSPropertyOp29
 70
     1
102
RTVSPropertyOp30
 70
     1
102
RTVSPropertyOp31
 70
     1
102
RTVSPropertyOp32
 70
     1
102
RTVSPropertyOp33
 70
     1
102
RTVSPropertyOp34
 70
     1
102
RTVSPropertyOp35
 70
     1
102
RTVSPropertyOp36
 70
     1
102
RTVSPropertyOp37
 70
     1
102
RTVSPropertyOp38
 70
     1
102
RTVSPropertyOp39
 70
     1
102
RTVSPropertyOp40
 70
     1
102
RTVSPropertyOp41
 70
     1
102
RTVSPropertyOp42
 70
     1
102
RTVSPropertyOp43
 70
     1
102
RTVSPropertyOp44
 70
     1
102
RTVSPropertyOp45
 70
     1
102
RTVSPropertyOp46
 70
     1
102
RTVSPropertyOp47
 70
     1
102
RTVSPropertyOp48
 70
     1
102
RTVSPropertyOp49
 70
     1
102
RTVSPropertyOp50
 70
     1
102
RTVSPropertyOp51
 70
     0
102
RTVSPropertyOp52
 70
     0
102
RTVSPropertyOp53
 70
     1
102
RTVSPropertyOp54
 70
     1
102
RTVSPropertyOp55
 70
     1
102
RTVSPropertyOp56
 70
     1
102
RTVSPropertyOp57
 70
     1
102
RTVSPost2010Prop28
280
     0
102
RTVSPost2010PropOp28
 70
     1
102
RTVSPost2010Prop29
280
     1
102
RTVSPost2010PropOp29
 70
     1
102
RTVSPost2010Prop30
280
     1
102
RTVSPost2010PropOp30
 70
     1
102
RTVSPost2010Prop31
280
     0
102
RTVSPost2010PropOp31
 70
     1
102
RTVSPost2010Prop32
280
     0
102
RTVSPost2010PropOp32
 70
     1
102
RTVSPost2010Prop33
280
     0
102
RTVSPost2010PropOp33
 70
     1
102
RTVSPost2010Prop34
280
     0
102
RTVSPost2010PropOp34
 70
     1
102
RTVSPost2010Prop35
280
     0
102
RTVSPost2010PropOp35
 70
     1
102
RTVSPost2010Prop36
280
     0
102
RTVSPost2010PropOp36
 70
     1
102
RTVSPost2010Prop37
 90
       50
102
RTVSPost2010PropOp37
 70
     1
102
RTVSPost2010Prop38
140
0.0
102
RTVSPost2010PropOp38
 70
     1
102
RTVSPost2010Prop39
140
1.0
102
RTVSPost2010PropOp39
 70
     1
102
RTVSPost2010Prop40
 90
        0
102
RTVSPost2010PropOp40
 70
     1
102
RTVSPost2010Prop41ColorIndex
 90
       18
102
RTVSPost2010Prop41ColorRGB
 90
        0
102
RTVSPost2010PropOp41
 70
     1
102
RTVSPost2010Prop42
 90
       50
102
RTVSPost2010PropOp42
 70
     1
102
RTVSPost2010Prop43
 90
        3
102
RTVSPost2010PropOp43
 70
     1
102
RTVSPost2010Prop44ColorIndex
 90
        5
102
RTVSPost2010Prop44ColorRGB
 90
      255
102
RTVSPost2010PropOp44
 70
     1
102
RTVSPost2010Prop45
280
     0
102
RTVSPost2010PropOp45
 70
     1
102
RTVSPost2010Prop46
 90
       50
102
RTVSPost2010PropOp46
 70
     1
102
RTVSPost2010Prop47
 90
       50
102
RTVSPost2010PropOp47
 70
     1
102
RTVSPost2010Prop48
 90
       50
102
RTVSPost2010PropOp48
 70
     1
102
RTVSPost2010Prop49
280
     0
102
RTVSPost2010PropOp49
 70
     1
102
RTVSPost2010Prop50
 90
       50
102
RTVSPost2010PropOp50
 70
     1
102
RTVSPost2010Prop51ColorIndex
 90
      256
102
RTVSPost2010Prop51ColorRGB
 90
-16777216
102
RTVSPost2010PropOp51
 70
     0
102
RTVSPost2010Prop52
140
1.0
102
RTVSPost2010PropOp52
 70
     0
102
RTVSPost2010Prop53
 90
        2
102
RTVSPost2010PropOp53
 70
     1
102
RTVSPost2010Prop54
  1
strokes_ogs.tif
102
RTVSPost2010PropOp54
 70
     1
102
RTVSPost2010Prop55
280
     0
102
RTVSPost2010PropOp55
 70
     1
102
RTVSPost2010Prop56
140
1.0
102
RTVSPost2010PropOp56
 70
     1
102
RTVSPost2010Prop57
140
1.0
102
RTVSPost2010PropOp57
 70
     1
  0
XRECORD
  5
3AF
102
{ACAD_REACTORS
330
3AE
102
}
330
3AE
100
AcDbXrecord
280
     1
102
RTVSPropertyOp0
 70
     1
102
RTVSPropertyOp1
 70
     1
102
RTVSPropertyOp2
 70
     1
102
RTVSPropertyOp3
 70
     1
102
RTVSPropertyOp4
 70
     1
102
RTVSPropertyOp5
 70
     1
102
RTVSPropertyOp6
 70
     1
102
RTVSPropertyOp7
 70
     1
102
RTVSPropertyOp8
 70
     1
102
RTVSPropertyOp9
 70
     1
102
RTVSPropertyOp10
 70
     1
102
RTVSPropertyOp11
 70
     1
102
RTVSPropertyOp12
 70
     1
102
RTVSPropertyOp13
 70
     1
102
RTVSPropertyOp14
 70
     1
102
RTVSPropertyOp15
 70
     1
102
RTVSPropertyOp16
 70
     1
102
RTVSPropertyOp17
 70
     1
102
RTVSPropertyOp18
 70
     1
102
RTVSPropertyOp19
 70
     1
102
RTVSPropertyOp20
 70
     1
102
RTVSPropertyOp21
 70
     1
102
RTVSPropertyOp22
 70
     1
102
RTVSPropertyOp23
 70
     1
102
RTVSPropertyOp24
 70
     1
102
RTVSPropertyOp25
 70
     1
102
RTVSPropertyOp26
 70
     1
102
RTVSPropertyOp27
 70
     1
102
RTVSPropertyOp28
 70
     1
102
RTVSPropertyOp29
 70
     1
102
RTVSPropertyOp30
 70
     1
102
RTVSPropertyOp31
 70
     1
102
RTVSPropertyOp32
 70
     1
102
RTVSPropertyOp33
 70
     1
102
RTVSPropertyOp34
 70
     1
102
RTVSPropertyOp35
 70
     1
102
RTVSPropertyOp36
 70
     1
102
RTVSPropertyOp37
 70
     1
102
RTVSPropertyOp38
 70
     1
102
RTVSPropertyOp39
 70
     1
102
RTVSPropertyOp40
 70
     1
102
RTVSPropertyOp41
 70
     1
102
RTVSPropertyOp42
 70
     1
102
RTVSPropertyOp43
 70
     1
102
RTVSPropertyOp44
 70
     1
102
RTVSPropertyOp45
 70
     1
102
RTVSPropertyOp46
 70
     1
102
RTVSPropertyOp47
 70
     1
102
RTVSPropertyOp48
 70
     1
102
RTVSPropertyOp49
 70
     1
102
RTVSPropertyOp50
 70
     1
102
RTVSPropertyOp51
 70
     0
102
RTVSPropertyOp52
 70
     0
102
RTVSPropertyOp53
 70
     1
102
RTVSPropertyOp54
 70
     1
102
RTVSPropertyOp55
 70
     1
102
RTVSPropertyOp56
 70
     1
102
RTVSPropertyOp57
 70
     1
102
RTVSPost2010Prop28
280
     0
102
RTVSPost2010PropOp28
 70
     1
102
RTVSPost2010Prop29
280
     1
102
RTVSPost2010PropOp29
 70
     1
102
RTVSPost2010Prop30
280
     1
102
RTVSPost2010PropOp30
 70
     1
102
RTVSPost2010Prop31
280
     0
102
RTVSPost2010PropOp31
 70
     1
102
RTVSPost2010Prop32
280
     0
102
RTVSPost2010PropOp32
 70
     1
102
RTVSPost2010Prop33
280
     0
102
RTVSPost2010PropOp33
 70
     1
102
RTVSPost2010Prop34
280
     0
102
RTVSPost2010PropOp34
 70
     1
102
RTVSPost2010Prop35
280
     0
102
RTVSPost2010PropOp35
 70
     1
102
RTVSPost2010Prop36
280
     0
102
RTVSPost2010PropOp36
 70
     1
102
RTVSPost2010Prop37
 90
       50
102
RTVSPost2010PropOp37
 70
     1
102
RTVSPost2010Prop38
140
0.0
102
RTVSPost2010PropOp38
 70
     1
102
RTVSPost2010Prop39
140
1.0
102
RTVSPost2010PropOp39
 70
     1
102
RTVSPost2010Prop40
 90
        0
102
RTVSPost2010PropOp40
 70
     1
102
RTVSPost2010Prop41ColorIndex
 90
       18
102
RTVSPost2010Prop41ColorRGB
 90
        0
102
RTVSPost2010PropOp41
 70
     1
102
RTVSPost2010Prop42
 90
       50
102
RTVSPost2010PropOp42
 70
     1
102
RTVSPost2010Prop43
 90
        3
102
RTVSPost2010PropOp43
 70
     1
102
RTVSPost2010Prop44ColorIndex
 90
        5
102
RTVSPost2010Prop44ColorRGB
 90
      255
102
RTVSPost2010PropOp44
 70
     1
102
RTVSPost2010Prop45
280
     0
102
RTVSPost2010PropOp45
 70
     1
102
RTVSPost2010Prop46
 90
       50
102
RTVSPost2010PropOp46
 70
     1
102
RTVSPost2010Prop47
 90
       50
102
RTVSPost2010PropOp47
 70
     1
102
RTVSPost2010Prop48
 90
       50
102
RTVSPost2010PropOp48
 70
     1
102
RTVSPost2010Prop49
280
     0
102
RTVSPost2010PropOp49
 70
     1
102
RTVSPost2010Prop50
 90
       50
102
RTVSPost2010PropOp50
 70
     1
102
RTVSPost2010Prop51ColorIndex
 90
      256
102
RTVSPost2010Prop51ColorRGB
 90
-16777216
102
RTVSPost2010PropOp51
 70
     0
102
RTVSPost2010Prop52
140
1.0
102
RTVSPost2010PropOp52
 70
     0
102
RTVSPost2010Prop53
 90
        2
102
RTVSPost2010PropOp53
 70
     1
102
RTVSPost2010Prop54
  1
strokes_ogs.tif
102
RTVSPost2010PropOp54
 70
     1
102
RTVSPost2010Prop55
280
     0
102
RTVSPost2010PropOp55
 70
     1
102
RTVSPost2010Prop56
140
1.0
102
RTVSPost2010PropOp56
 70
     1
102
RTVSPost2010Prop57
140
1.0
102
RTVSPost2010PropOp57
 70
     1
  0
XRECORD
  5
3A1
102
{ACAD_REACTORS
330
3A0
102
}
330
3A0
100
AcDbXrecord
280
     1
102
RTVSPropertyOp0
 70
     1
102
RTVSPropertyOp1
 70
     1
102
RTVSPropertyOp2
 70
     1
102
RTVSPropertyOp3
 70
     1
102
RTVSPropertyOp4
 70
     1
102
RTVSPropertyOp5
 70
     1
102
RTVSPropertyOp6
 70
     1
102
RTVSPropertyOp7
 70
     1
102
RTVSPropertyOp8
 70
     1
102
RTVSPropertyOp9
 70
     1
102
RTVSPropertyOp10
 70
     1
102
RTVSPropertyOp11
 70
     1
102
RTVSPropertyOp12
 70
     1
102
RTVSPropertyOp13
 70
     1
102
RTVSPropertyOp14
 70
     1
102
RTVSPropertyOp15
 70
     1
102
RTVSPropertyOp16
 70
     1
102
RTVSPropertyOp17
 70
     1
102
RTVSPropertyOp18
 70
     1
102
RTVSPropertyOp19
 70
     1
102
RTVSPropertyOp20
 70
     1
102
RTVSPropertyOp21
 70
     1
102
RTVSPropertyOp22
 70
     1
102
RTVSPropertyOp23
 70
     1
102
RTVSPropertyOp24
 70
     1
102
RTVSPropertyOp25
 70
     1
102
RTVSPropertyOp26
 70
     1
102
RTVSPropertyOp27
 70
     1
102
RTVSPropertyOp28
 70
     1
102
RTVSPropertyOp29
 70
     1
102
RTVSPropertyOp30
 70
     1
102
RTVSPropertyOp31
 70
     1
102
RTVSPropertyOp32
 70
     1
102
RTVSPropertyOp33
 70
     1
102
RTVSPropertyOp34
 70
     1
102
RTVSPropertyOp35
 70
     1
102
RTVSPropertyOp36
 70
     1
102
RTVSPropertyOp37
 70
     1
102
RTVSPropertyOp38
 70
     1
102
RTVSPropertyOp39
 70
     1
102
RTVSPropertyOp40
 70
     1
102
RTVSPropertyOp41
 70
     1
102
RTVSPropertyOp42
 70
     1
102
RTVSPropertyOp43
 70
     1
102
RTVSPropertyOp44
 70
     1
102
RTVSPropertyOp45
 70
     1
102
RTVSPropertyOp46
 70
     1
102
RTVSPropertyOp47
 70
     1
102
RTVSPropertyOp48
 70
     1
102
RTVSPropertyOp49
 70
     1
102
RTVSPropertyOp50
 70
     1
102
RTVSPropertyOp51
 70
     0
102
RTVSPropertyOp52
 70
     0
102
RTVSPropertyOp53
 70
     1
102
RTVSPropertyOp54
 70
     1
102
RTVSPropertyOp55
 70
     1
102
RTVSPropertyOp56
 70
     1
102
RTVSPropertyOp57
 70
     1
102
RTVSPost2010Prop28
280
     0
102
RTVSPost2010PropOp28
 70
     1
102
RTVSPost2010Prop29
280
     1
102
RTVSPost2010PropOp29
 70
     1
102
RTVSPost2010Prop30
280
     1
102
RTVSPost2010PropOp30
 70
     1
102
RTVSPost2010Prop31
280
     0
102
RTVSPost2010PropOp31
 70
     1
102
RTVSPost2010Prop32
280
     0
102
RTVSPost2010PropOp32
 70
     1
102
RTVSPost2010Prop33
280
     0
102
RTVSPost2010PropOp33
 70
     1
102
RTVSPost2010Prop34
280
     0
102
RTVSPost2010PropOp34
 70
     1
102
RTVSPost2010Prop35
280
     0
102
RTVSPost2010PropOp35
 70
     1
102
RTVSPost2010Prop36
280
     0
102
RTVSPost2010PropOp36
 70
     1
102
RTVSPost2010Prop37
 90
       50
102
RTVSPost2010PropOp37
 70
     1
102
RTVSPost2010Prop38
140
0.0
102
RTVSPost2010PropOp38
 70
     1
102
RTVSPost2010Prop39
140
1.0
102
RTVSPost2010PropOp39
 70
     1
102
RTVSPost2010Prop40
 90
        0
102
RTVSPost2010PropOp40
 70
     1
102
RTVSPost2010Prop41ColorIndex
 90
       18
102
RTVSPost2010Prop41ColorRGB
 90
        0
102
RTVSPost2010PropOp41
 70
     1
102
RTVSPost2010Prop42
 90
       50
102
RTVSPost2010PropOp42
 70
     1
102
RTVSPost2010Prop43
 90
        3
102
RTVSPost2010PropOp43
 70
     1
102
RTVSPost2010Prop44ColorIndex
 90
        5
102
RTVSPost2010Prop44ColorRGB
 90
      255
102
RTVSPost2010PropOp44
 70
     1
102
RTVSPost2010Prop45
280
     0
102
RTVSPost2010PropOp45
 70
     1
102
RTVSPost2010Prop46
 90
       50
102
RTVSPost2010PropOp46
 70
     1
102
RTVSPost2010Prop47
 90
       50
102
RTVSPost2010PropOp47
 70
     1
102
RTVSPost2010Prop48
 90
       50
102
RTVSPost2010PropOp48
 70
     1
102
RTVSPost2010Prop49
280
     0
102
RTVSPost2010PropOp49
 70
     1
102
RTVSPost2010Prop50
 90
       50
102
RTVSPost2010PropOp50
 70
     1
102
RTVSPost2010Prop51ColorIndex
 90
      256
102
RTVSPost2010Prop51ColorRGB
 90
-16777216
102
RTVSPost2010PropOp51
 70
     0
102
RTVSPost2010Prop52
140
1.0
102
RTVSPost2010PropOp52
 70
     0
102
RTVSPost2010Prop53
 90
        2
102
RTVSPost2010PropOp53
 70
     1
102
RTVSPost2010Prop54
  1
strokes_ogs.tif
102
RTVSPost2010PropOp54
 70
     1
102
RTVSPost2010Prop55
280
     0
102
RTVSPost2010PropOp55
 70
     1
102
RTVSPost2010Prop56
140
1.0
102
RTVSPost2010PropOp56
 70
     1
102
RTVSPost2010Prop57
140
1.0
102
RTVSPost2010PropOp57
 70
     1
  0
XRECORD
  5
3C1
102
{ACAD_REACTORS
330
3C0
102
}
330
3C0
100
AcDbXrecord
280
     1
102
RTVSPropertyOp0
 70
     1
102
RTVSPropertyOp1
 70
     1
102
RTVSPropertyOp2
 70
     1
102
RTVSPropertyOp3
 70
     1
102
RTVSPropertyOp4
 70
     1
102
RTVSPropertyOp5
 70
     1
102
RTVSPropertyOp6
 70
     1
102
RTVSPropertyOp7
 70
     1
102
RTVSPropertyOp8
 70
     1
102
RTVSPropertyOp9
 70
     1
102
RTVSPropertyOp10
 70
     1
102
RTVSPropertyOp11
 70
     1
102
RTVSPropertyOp12
 70
     1
102
RTVSPropertyOp13
 70
     1
102
RTVSPropertyOp14
 70
     1
102
RTVSPropertyOp15
 70
     1
102
RTVSPropertyOp16
 70
     1
102
RTVSPropertyOp17
 70
     1
102
RTVSPropertyOp18
 70
     1
102
RTVSPropertyOp19
 70
     1
102
RTVSPropertyOp20
 70
     1
102
RTVSPropertyOp21
 70
     1
102
RTVSPropertyOp22
 70
     1
102
RTVSPropertyOp23
 70
     1
102
RTVSPropertyOp24
 70
     1
102
RTVSPropertyOp25
 70
     1
102
RTVSPropertyOp26
 70
     1
102
RTVSPropertyOp27
 70
     1
102
RTVSPropertyOp28
 70
     1
102
RTVSPropertyOp29
 70
     1
102
RTVSPropertyOp30
 70
     1
102
RTVSPropertyOp31
 70
     1
102
RTVSPropertyOp32
 70
     1
102
RTVSPropertyOp33
 70
     1
102
RTVSPropertyOp34
 70
     1
102
RTVSPropertyOp35
 70
     1
102
RTVSPropertyOp36
 70
     1
102
RTVSPropertyOp37
 70
     1
102
RTVSPropertyOp38
 70
     1
102
RTVSPropertyOp39
 70
     1
102
RTVSPropertyOp40
 70
     1
102
RTVSPropertyOp41
 70
     1
102
RTVSPropertyOp42
 70
     1
102
RTVSPropertyOp43
 70
     1
102
RTVSPropertyOp44
 70
     1
102
RTVSPropertyOp45
 70
     1
102
RTVSPropertyOp46
 70
     1
102
RTVSPropertyOp47
 70
     1
102
RTVSPropertyOp48
 70
     1
102
RTVSPropertyOp49
 70
     1
102
RTVSPropertyOp50
 70
     1
102
RTVSPropertyOp51
 70
     0
102
RTVSPropertyOp52
 70
     0
102
RTVSPropertyOp53
 70
     1
102
RTVSPropertyOp54
 70
     1
102
RTVSPropertyOp55
 70
     1
102
RTVSPropertyOp56
 70
     1
102
RTVSPropertyOp57
 70
     1
102
RTVSPost2010Prop28
280
     0
102
RTVSPost2010PropOp28
 70
     1
102
RTVSPost2010Prop29
280
     1
102
RTVSPost2010PropOp29
 70
     1
102
RTVSPost2010Prop30
280
     1
102
RTVSPost2010PropOp30
 70
     1
102
RTVSPost2010Prop31
280
     0
102
RTVSPost2010PropOp31
 70
     1
102
RTVSPost2010Prop32
280
     0
102
RTVSPost2010PropOp32
 70
     1
102
RTVSPost2010Prop33
280
     0
102
RTVSPost2010PropOp33
 70
     1
102
RTVSPost2010Prop34
280
     0
102
RTVSPost2010PropOp34
 70
     1
102
RTVSPost2010Prop35
280
     0
102
RTVSPost2010PropOp35
 70
     1
102
RTVSPost2010Prop36
280
     0
102
RTVSPost2010PropOp36
 70
     1
102
RTVSPost2010Prop37
 90
       50
102
RTVSPost2010PropOp37
 70
     1
102
RTVSPost2010Prop38
140
0.0
102
RTVSPost2010PropOp38
 70
     1
102
RTVSPost2010Prop39
140
1.0
102
RTVSPost2010PropOp39
 70
     1
102
RTVSPost2010Prop40
 90
        0
102
RTVSPost2010PropOp40
 70
     1
102
RTVSPost2010Prop41ColorIndex
 90
       18
102
RTVSPost2010Prop41ColorRGB
 90
        0
102
RTVSPost2010PropOp41
 70
     1
102
RTVSPost2010Prop42
 90
       50
102
RTVSPost2010PropOp42
 70
     1
102
RTVSPost2010Prop43
 90
        3
102
RTVSPost2010PropOp43
 70
     1
102
RTVSPost2010Prop44ColorIndex
 90
        5
102
RTVSPost2010Prop44ColorRGB
 90
      255
102
RTVSPost2010PropOp44
 70
     1
102
RTVSPost2010Prop45
280
     0
102
RTVSPost2010PropOp45
 70
     1
102
RTVSPost2010Prop46
 90
       50
102
RTVSPost2010PropOp46
 70
     1
102
RTVSPost2010Prop47
 90
       50
102
RTVSPost2010PropOp47
 70
     1
102
RTVSPost2010Prop48
 90
       50
102
RTVSPost2010PropOp48
 70
     1
102
RTVSPost2010Prop49
280
     0
102
RTVSPost2010PropOp49
 70
     1
102
RTVSPost2010Prop50
 90
       50
102
RTVSPost2010PropOp50
 70
     1
102
RTVSPost2010Prop51ColorIndex
 90
      256
102
RTVSPost2010Prop51ColorRGB
 90
-16777216
102
RTVSPost2010PropOp51
 70
     0
102
RTVSPost2010Prop52
140
1.0
102
RTVSPost2010PropOp52
 70
     0
102
RTVSPost2010Prop53
 90
        2
102
RTVSPost2010PropOp53
 70
     1
102
RTVSPost2010Prop54
  1
strokes_ogs.tif
102
RTVSPost2010PropOp54
 70
     1
102
RTVSPost2010Prop55
280
     0
102
RTVSPost2010PropOp55
 70
     1
102
RTVSPost2010Prop56
140
1.0
102
RTVSPost2010PropOp56
 70
     1
102
RTVSPost2010Prop57
140
1.0
102
RTVSPost2010PropOp57
 70
     1
  0
ENDSEC
  0
EOF
