  0
SECTION
  2
HEADER
  9
$ACADVER
  1
AC1015
  9
$ACADMAINTVER
 70
     6
  9
$DWGCODEPAGE
  3
ANSI_1252
  9
$INSBASE
 10
0.0
 20
0.0
 30
0.0
  9
$EXTMIN
 10
1.000000E+20
 20
1.000000E+20
 30
1.000000E+20
  9
$EXTMAX
 10
-1.000000E+20
 20
-1.000000E+20
 30
-1.000000E+20
  9
$LIMMIN
 10
0.0
 20
0.0
  9
$LIMMAX
 10
215.9
 20
279.4
  9
$ORTHOMODE
 70
     0
  9
$REGENMODE
 70
     1
  9
$FILLMODE
 70
     1
  9
$QTEXTMODE
 70
     0
  9
$MIRRTEXT
 70
     0
  9
$LTSCALE
 40
1.0
  9
$ATTMODE
 70
     1
  9
$TEXTSIZE
 40
2.5
  9
$TRACEWID
 40
1.0
  9
$TEXTSTYLE
  7
Standard
  9
$CLAYER
  8
0
  9
$CELTYPE
  6
ByLayer
  9
$CECOLOR
 62
   256
  9
$CELTSCALE
 40
1.0
  9
$DISPSILH
 70
     0
  9
$DIMSCALE
 40
1.0
  9
$DIMASZ
 40
2.5
  9
$DIMEXO
 40
0.625
  9
$DIMDLI
 40
3.75
  9
$DIMRND
 40
0.0
  9
$DIMDLE
 40
0.0
  9
$DIMEXE
 40
1.25
  9
$DIMTP
 40
0.0
  9
$DIMTM
 40
0.0
  9
$DIMTXT
 40
2.5
  9
$DIMCEN
 40
2.5
  9
$DIMTSZ
 40
0.0
  9
$DIMTOL
 70
     0
  9
$DIMLIM
 70
     0
  9
$DIMTIH
 70
     0
  9
$DIMTOH
 70
     0
  9
$DIMSE1
 70
     0
  9
$DIMSE2
 70
     0
  9
$DIMTAD
 70
     1
  9
$DIMZIN
 70
     8
  9
$DIMBLK
  1

  9
$DIMASO
 70
     1
  9
$DIMSHO
 70
     1
  9
$DIMPOST
  1

  9
$DIMAPOST
  1

  9
$DIMALT
 70
     0
  9
$DIMALTD
 70
     3
  9
$DIMALTF
 40
0.03937
  9
$DIMLFAC
 40
1.0
  9
$DIMTOFL
 70
     1
  9
$DIMTVP
 40
0.0
  9
$DIMTIX
 70
     0
  9
$DIMSOXD
 70
     0
  9
$DIMSAH
 70
     0
  9
$DIMBLK1
  1

  9
$DIMBLK2
  1

  9
$DIMSTYLE
  2
ISO-25
  9
$DIMCLRD
 70
     0
  9
$DIMCLRE
 70
     0
  9
$DIMCLRT
 70
     0
  9
$DIMTFAC
 40
1.0
  9
$DIMGAP
 40
0.625
  9
$DIMJUST
 70
     0
  9
$DIMSD1
 70
     0
  9
$DIMSD2
 70
     0
  9
$DIMTOLJ
 70
     0
  9
$DIMTZIN
 70
     8
  9
$DIMALTZ
 70
     0
  9
$DIMALTTZ
 70
     0
  9
$DIMUPT
 70
     0
  9
$DIMDEC
 70
     2
  9
$DIMTDEC
 70
     2
  9
$DIMALTU
 70
     2
  9
$DIMALTTD
 70
     3
  9
$DIMTXSTY
  7
Standard
  9
$DIMAUNIT
 70
     0
  9
$DIMADEC
 70
     0
  9
$DIMALTRND
 40
0.0
  9
$DIMAZIN
 70
     0
  9
$DIMDSEP
 70
    44
  9
$DIMATFIT
 70
     3
  9
$DIMFRAC
 70
     0
  9
$DIMLDRBLK
  1

  9
$DIMLUNIT
 70
     2
  9
$DIMLWD
 70
    -2
  9
$DIMLWE
 70
    -2
  9
$DIMTMOVE
 70
     0
  9
$LUNITS
 70
     2
  9
$LUPREC
 70
     4
  9
$SKETCHINC
 40
1.0
  9
$FILLETRAD
 40
0.0
  9
$AUNITS
 70
     0
  9
$AUPREC
 70
     0
  9
$MENU
  1
.
  9
$ELEVATION
 40
0.0
  9
$PELEVATION
 40
0.0
  9
$THICKNESS
 40
0.0
  9
$LIMCHECK
 70
     0
  9
$CHAMFERA
 40
0.0
  9
$CHAMFERB
 40
0.0
  9
$CHAMFERC
 40
0.0
  9
$CHAMFERD
 40
0.0
  9
$SKPOLY
 70
     0
  9
$TDCREATE
 40
2453189.686266377
  9
$TDUCREATE
 40
2453189.894599711
  9
$TDUPDATE
 40
2458072.560584618
  9
$TDUUPDATE
 40
2458072.768917951
  9
$TDINDWG
 40
0.0012909606
  9
$TDUSRTIMER
 40
0.0012834259
  9
$USRTIMER
 70
     1
  9
$ANGBASE
 50
0.0
  9
$ANGDIR
 70
     0
  9
$PDMODE
 70
     0
  9
$PDSIZE
 40
0.0
  9
$PLINEWID
 40
0.0
  9
$SPLFRAME
 70
     0
  9
$SPLINETYPE
 70
     6
  9
$SPLINESEGS
 70
     8
  9
$HANDSEED
  5
5FB
  9
$SURFTAB1
 70
     6
  9
$SURFTAB2
 70
     6
  9
$SURFTYPE
 70
     6
  9
$SURFU
 70
     6
  9
$SURFV
 70
     6
  9
$UCSBASE
  2

  9
$UCSNAME
  2

  9
$UCSORG
 10
0.0
 20
0.0
 30
0.0
  9
$UCSXDIR
 10
1.0
 20
0.0
 30
0.0
  9
$UCSYDIR
 10
0.0
 20
1.0
 30
0.0
  9
$UCSORTHOREF
  2

  9
$UCSORTHOVIEW
 70
     0
  9
$UCSORGTOP
 10
0.0
 20
0.0
 30
0.0
  9
$UCSORGBOTTOM
 10
0.0
 20
0.0
 30
0.0
  9
$UCSORGLEFT
 10
0.0
 20
0.0
 30
0.0
  9
$UCSORGRIGHT
 10
0.0
 20
0.0
 30
0.0
  9
$UCSORGFRONT
 10
0.0
 20
0.0
 30
0.0
  9
$UCSORGBACK
 10
0.0
 20
0.0
 30
0.0
  9
$PUCSBASE
  2

  9
$PUCSNAME
  2

  9
$PUCSORG
 10
0.0
 20
0.0
 30
0.0
  9
$PUCSXDIR
 10
1.0
 20
0.0
 30
0.0
  9
$PUCSYDIR
 10
0.0
 20
1.0
 30
0.0
  9
$PUCSORTHOREF
  2

  9
$PUCSORTHOVIEW
 70
     0
  9
$PUCSORGTOP
 10
0.0
 20
0.0
 30
0.0
  9
$PUCSORGBOTTOM
 10
0.0
 20
0.0
 30
0.0
  9
$PUCSORGLEFT
 10
0.0
 20
0.0
 30
0.0
  9
$PUCSORGRIGHT
 10
0.0
 20
0.0
 30
0.0
  9
$PUCSORGFRONT
 10
0.0
 20
0.0
 30
0.0
  9
$PUCSORGBACK
 10
0.0
 20
0.0
 30
0.0
  9
$USERI1
 70
     0
  9
$USERI2
 70
     0
  9
$USERI3
 70
     0
  9
$USERI4
 70
     0
  9
$USERI5
 70
     0
  9
$USERR1
 40
0.0
  9
$USERR2
 40
0.0
  9
$USERR3
 40
0.0
  9
$USERR4
 40
0.0
  9
$USERR5
 40
0.0
  9
$WORLDVIEW
 70
     1
  9
$SHADEDGE
 70
     3
  9
$SHADEDIF
 70
    70
  9
$TILEMODE
 70
     1
  9
$MAXACTVP
 70
    64
  9
$PINSBASE
 10
0.0
 20
0.0
 30
0.0
  9
$PLIMCHECK
 70
     0
  9
$PEXTMIN
 10
0.0
 20
0.0
 30
0.0
  9
$PEXTMAX
 10
0.0
 20
0.0
 30
0.0
  9
$PLIMMIN
 10
0.0
 20
0.0
  9
$PLIMMAX
 10
12.0
 20
9.0
  9
$UNITMODE
 70
     0
  9
$VISRETAIN
 70
     1
  9
$PLINEGEN
 70
     0
  9
$PSLTSCALE
 70
     1
  9
$TREEDEPTH
 70
  3020
  9
$CMLSTYLE
  2
Standard
  9
$CMLJUST
 70
     0
  9
$CMLSCALE
 40
20.0
  9
$PROXYGRAPHICS
 70
     1
  9
$MEASUREMENT
 70
     1
  9
$CELWEIGHT
370
    -1
  9
$ENDCAPS
280
     0
  9
$JOINSTYLE
280
     0
  9
$LWDISPLAY
290
     0
  9
$INSUNITS
 70
     4
  9
$HYPERLINKBASE
  1

  9
$STYLESHEET
  1

  9
$XEDIT
290
     1
  9
$CEPSNTYPE
380
     0
  9
$PSTYLEMODE
290
     1
  9
$FINGERPRINTGUID
  2
{FDEAD578-A652-11D2-9A35-0060089B3A3F}
  9
$VERSIONGUID
  2
{A006E3F6-DACB-489E-8CBB-9F3E3708800C}
  9
$EXTNAMES
290
     1
  9
$PSVPSCALE
 40
0.0
  9
$OLESTARTUP
290
     0
  0
ENDSEC
  0
SECTION
  2
CLASSES
  0
CLASS
  1
ACDBDICTIONARYWDFLT
  2
AcDbDictionaryWithDefault
  3
ObjectDBX Classes
 90
        0
280
     0
281
     0
  0
CLASS
  1
ACDBPLACEHOLDER
  2
AcDbPlaceHolder
  3
ObjectDBX Classes
 90
        0
280
     0
281
     0
  0
CLASS
  1
LAYOUT
  2
AcDbLayout
  3
ObjectDBX Classes
 90
        0
280
     0
281
     0
  0
CLASS
  1
DICTIONARYVAR
  2
AcDbDictionaryVar
  3
ObjectDBX Classes
 90
        0
280
     0
281
     0
  0
CLASS
  1
RASTERVARIABLES
  2
AcDbRasterVariables
  3
ISM
 90
        0
280
     0
281
     0
  0
CLASS
  1
SCALE
  2
AcDbScale
  3
ObjectDBX Classes
 90
     1153
280
     0
281
     0
  0
CLASS
  1
MATERIAL
  2
AcDbMaterial
  3
ObjectDBX Classes
 90
     1153
280
     0
281
     0
  0
CLASS
  1
VISUALSTYLE
  2
AcDbVisualStyle
  3
ObjectDBX Classes
 90
     4095
280
     0
281
     0
  0
CLASS
  1
TABLESTYLE
  2
AcDbTableStyle
  3
ObjectDBX Classes
 90
     4095
280
     0
281
     0
  0
CLASS
  1
MLEADERSTYLE
  2
AcDbMLeaderStyle
  3
ACDB_MLEADERSTYLE_CLASS
 90
     4095
280
     0
281
     0
  0
CLASS
  1
SUN
  2
AcDbSun
  3
SCENEOE
 90
     1153
280
     0
281
     0
  0
ENDSEC
  0
SECTION
  2
TABLES
  0
TABLE
  2
VPORT
  5
8
102
{ACAD_XDICTIONARY
360
5BF
102
}
330
0
100
AcDbSymbolTable
 70
     2
  0
VPORT
  5
8E
330
8
100
AcDbSymbolTableRecord
100
AcDbViewportTableRecord
  2
*Active
 70
     0
 10
0.0
 20
0.0
 11
1.0
 21
1.0
 12
107.95
 22
139.7
 13
0.0
 23
0.0
 14
10.0
 24
10.0
 15
10.0
 25
10.0
 16
0.0
 26
0.0
 36
1.0
 17
0.0
 27
0.0
 37
0.0
 40
279.4
 41
0.772727
 42
50.0
 43
0.0
 44
0.0
 50
0.0
 51
0.0
 71
     0
 72
  1000
 73
     1
 74
     3
 75
     0
 76
     0
 77
     0
 78
     0
281
     0
 65
     1
110
0.0
120
0.0
130
0.0
111
1.0
121
0.0
131
0.0
112
0.0
122
1.0
132
0.0
 79
     0
146
0.0
  0
ENDTAB
  0
TABLE
  2
LTYPE
  5
5
330
0
100
AcDbSymbolTable
 70
     5
  0
LTYPE
  5
14
330
5
100
AcDbSymbolTableRecord
100
AcDbLinetypeTableRecord
  2
ByBlock
 70
     0
  3

 72
    65
 73
     0
 40
0.0
  0
LTYPE
  5
15
330
5
100
AcDbSymbolTableRecord
100
AcDbLinetypeTableRecord
  2
ByLayer
 70
     0
  3

 72
    65
 73
     0
 40
0.0
  0
LTYPE
  5
16
330
5
100
AcDbSymbolTableRecord
100
AcDbLinetypeTableRecord
  2
Continuous
 70
     0
  3
Solid line
 72
    65
 73
     0
 40
0.0
  0
LTYPE
  5
DB
330
5
100
AcDbSymbolTableRecord
100
AcDbLinetypeTableRecord
  2
CENTRE
 70
     0
  3
Centre ____ _ ____ _ ____ _ ____ _ ____ _ ____
 72
    65
 73
     4
 40
2.0
 49
1.25
 74
     0
 49
-0.25
 74
     0
 49
0.25
 74
     0
 49
-0.25
 74
     0
  0
LTYPE
  5
DC
330
5
100
AcDbSymbolTableRecord
100
AcDbLinetypeTableRecord
  2
DASHED
 70
     0
  3
Dashed __ __ __ __ __ __ __ __ __ __ __ __ __ _
 72
    65
 73
     2
 40
0.75
 49
0.5
 74
     0
 49
-0.25
 74
     0
  0
LTYPE
  5
DD
330
5
100
AcDbSymbolTableRecord
100
AcDbLinetypeTableRecord
  2
HIDDEN
 70
     0
  3
Hidden __ __ __ __ __ __ __ __ __ __ __ __ __ _
 72
    65
 73
     2
 40
0.375
 49
0.25
 74
     0
 49
-0.125
 74
     0
  0
LTYPE
  5
DE
330
5
100
AcDbSymbolTableRecord
100
AcDbLinetypeTableRecord
  2
PHANTOM
 70
     0
  3
Phantom ______  __  __  ______  __  __  ______ 
 72
    65
 73
     6
 40
2.5
 49
1.25
 74
     0
 49
-0.25
 74
     0
 49
0.25
 74
     0
 49
-0.25
 74
     0
 49
0.25
 74
     0
 49
-0.25
 74
     0
  0
ENDTAB
  0
TABLE
  2
LAYER
  5
2
330
0
100
AcDbSymbolTable
 70
     2
  0
LAYER
  5
10
330
2
100
AcDbSymbolTableRecord
100
AcDbLayerTableRecord
  2
0
 70
     0
 62
     7
  6
Continuous
370
    -3
390
F
  0
LAYER
  5
DF
330
2
100
AcDbSymbolTableRecord
100
AcDbLayerTableRecord
  2
Untitled
 70
     0
 62
     7
  6
Continuous
370
    -3
390
F
  0
ENDTAB
  0
TABLE
  2
STYLE
  5
3
330
0
100
AcDbSymbolTable
 70
     2
  0
STYLE
  5
11
330
3
100
AcDbSymbolTableRecord
100
AcDbTextStyleTableRecord
  2
Standard
 70
     0
 40
0.0
 41
1.0
 50
0.0
 71
     0
 42
2.5
  3
txt
  4

  0
STYLE
  5
E5
330
3
100
AcDbSymbolTableRecord
100
AcDbTextStyleTableRecord
  2
ARIAL_400_0
 70
     0
 40
1.0
 41
1.0
 50
0.0
 71
     0
 42
2.5
  3

  4

1001
ACAD
1000
Arial
1071
        0
  0
ENDTAB
  0
TABLE
  2
VIEW
  5
6
330
0
100
AcDbSymbolTable
 70
     0
  0
ENDTAB
  0
TABLE
  2
UCS
  5
7
330
0
100
AcDbSymbolTable
 70
     0
  0
ENDTAB
  0
TABLE
  2
APPID
  5
9
330
0
100
AcDbSymbolTable
 70
     2
  0
APPID
  5
12
330
9
100
AcDbSymbolTableRecord
100
AcDbRegAppTableRecord
  2
ACAD
 70
     0
  0
APPID
  5
5F8
330
9
100
AcDbSymbolTableRecord
100
AcDbRegAppTableRecord
  2
ACAD_MLEADERVER
 70
     0
  0
ENDTAB
  0
TABLE
  2
DIMSTYLE
  5
A
330
0
100
AcDbSymbolTable
 70
     1
100
AcDbDimStyleTable
  0
DIMSTYLE
105
27
330
A
100
AcDbSymbolTableRecord
100
AcDbDimStyleTableRecord
  2
ISO-25
 70
     0
 41
2.5
 42
0.625
 43
3.75
 44
1.25
 73
     0
 74
     0
 77
     1
 78
     8
140
2.5
141
2.5
143
0.03937
147
0.625
171
     3
172
     1
178
     0
271
     2
272
     2
274
     3
278
    44
283
     0
284
     8
340
11
  0
ENDTAB
  0
TABLE
  2
BLOCK_RECORD
  5
1
330
0
100
AcDbSymbolTable
 70
    35
  0
BLOCK_RECORD
  5
1F
330
1
100
AcDbSymbolTableRecord
100
AcDbBlockTableRecord
  2
*Model_Space
340
22
  0
BLOCK_RECORD
  5
50
330
1
100
AcDbSymbolTableRecord
100
AcDbBlockTableRecord
  2
*Paper_Space
340
51
  0
BLOCK_RECORD
  5
55
330
1
100
AcDbSymbolTableRecord
100
AcDbBlockTableRecord
  2
*Paper_Space0
340
56
  0
BLOCK_RECORD
  5
E0
330
1
100
AcDbSymbolTableRecord
100
AcDbBlockTableRecord
  2
Block1
340
0
102
{BLKREFS
331
E1
102
}
  0
BLOCK_RECORD
  5
E7
330
1
100
AcDbSymbolTableRecord
100
AcDbBlockTableRecord
  2
Block2
340
0
102
{BLKREFS
331
E8
102
}
  0
BLOCK_RECORD
  5
EF
330
1
100
AcDbSymbolTableRecord
100
AcDbBlockTableRecord
  2
Block3
340
0
102
{BLKREFS
331
F0
102
}
  0
BLOCK_RECORD
  5
F5
330
1
100
AcDbSymbolTableRecord
100
AcDbBlockTableRecord
  2
Block4
340
0
102
{BLKREFS
331
F6
102
}
  0
BLOCK_RECORD
  5
FD
330
1
100
AcDbSymbolTableRecord
100
AcDbBlockTableRecord
  2
Block5
340
0
102
{BLKREFS
331
FE
102
}
  0
BLOCK_RECORD
  5
103
330
1
100
AcDbSymbolTableRecord
100
AcDbBlockTableRecord
  2
Block6
340
0
102
{BLKREFS
331
104
102
}
  0
BLOCK_RECORD
  5
10B
330
1
100
AcDbSymbolTableRecord
100
AcDbBlockTableRecord
  2
Block7
340
0
102
{BLKREFS
331
10C
102
}
  0
BLOCK_RECORD
  5
111
330
1
100
AcDbSymbolTableRecord
100
AcDbBlockTableRecord
  2
Block8
340
0
102
{BLKREFS
331
112
102
}
  0
BLOCK_RECORD
  5
317
330
1
100
AcDbSymbolTableRecord
100
AcDbBlockTableRecord
  2
Block519
340
0
102
{BLKREFS
331
318
102
}
  0
BLOCK_RECORD
  5
4C5
330
1
100
AcDbSymbolTableRecord
100
AcDbBlockTableRecord
  2
Block942
340
0
102
{BLKREFS
331
4C6
102
}
  0
BLOCK_RECORD
  5
4CC
330
1
100
AcDbSymbolTableRecord
100
AcDbBlockTableRecord
  2
Block943
340
0
102
{BLKREFS
331
4CD
102
}
  0
BLOCK_RECORD
  5
4D3
330
1
100
AcDbSymbolTableRecord
100
AcDbBlockTableRecord
  2
Block944
340
0
102
{BLKREFS
331
4D4
102
}
  0
BLOCK_RECORD
  5
4DA
330
1
100
AcDbSymbolTableRecord
100
AcDbBlockTableRecord
  2
Block945
340
0
102
{BLKREFS
331
4DB
102
}
  0
BLOCK_RECORD
  5
4E1
330
1
100
AcDbSymbolTableRecord
100
AcDbBlockTableRecord
  2
Block946
340
0
102
{BLKREFS
331
4E2
102
}
  0
BLOCK_RECORD
  5
4E8
330
1
100
AcDbSymbolTableRecord
100
AcDbBlockTableRecord
  2
Block947
340
0
102
{BLKREFS
331
4E9
102
}
  0
BLOCK_RECORD
  5
4EF
330
1
100
AcDbSymbolTableRecord
100
AcDbBlockTableRecord
  2
Block948
340
0
102
{BLKREFS
331
4F0
102
}
  0
BLOCK_RECORD
  5
4F6
330
1
100
AcDbSymbolTableRecord
100
AcDbBlockTableRecord
  2
Block949
340
0
102
{BLKREFS
331
4F7
102
}
  0
BLOCK_RECORD
  5
4FD
330
1
100
AcDbSymbolTableRecord
100
AcDbBlockTableRecord
  2
Block950
340
0
102
{BLKREFS
331
4FE
102
}
  0
BLOCK_RECORD
  5
504
330
1
100
AcDbSymbolTableRecord
100
AcDbBlockTableRecord
  2
Block951
340
0
102
{BLKREFS
331
505
102
}
  0
BLOCK_RECORD
  5
50B
330
1
100
AcDbSymbolTableRecord
100
AcDbBlockTableRecord
  2
Block952
340
0
102
{BLKREFS
331
50C
102
}
  0
BLOCK_RECORD
  5
512
330
1
100
AcDbSymbolTableRecord
100
AcDbBlockTableRecord
  2
Block953
340
0
102
{BLKREFS
331
513
102
}
  0
BLOCK_RECORD
  5
519
330
1
100
AcDbSymbolTableRecord
100
AcDbBlockTableRecord
  2
Block954
340
0
102
{BLKREFS
331
51A
102
}
  0
BLOCK_RECORD
  5
520
330
1
100
AcDbSymbolTableRecord
100
AcDbBlockTableRecord
  2
Block955
340
0
102
{BLKREFS
331
521
102
}
  0
BLOCK_RECORD
  5
527
330
1
100
AcDbSymbolTableRecord
100
AcDbBlockTableRecord
  2
Block956
340
0
102
{BLKREFS
331
528
102
}
  0
BLOCK_RECORD
  5
52E
330
1
100
AcDbSymbolTableRecord
100
AcDbBlockTableRecord
  2
Block957
340
0
102
{BLKREFS
331
52F
102
}
  0
BLOCK_RECORD
  5
535
330
1
100
AcDbSymbolTableRecord
100
AcDbBlockTableRecord
  2
Block958
340
0
102
{BLKREFS
331
536
102
}
  0
BLOCK_RECORD
  5
53C
330
1
100
AcDbSymbolTableRecord
100
AcDbBlockTableRecord
  2
Block959
340
0
102
{BLKREFS
331
53D
102
}
  0
BLOCK_RECORD
  5
543
330
1
100
AcDbSymbolTableRecord
100
AcDbBlockTableRecord
  2
Block960
340
0
102
{BLKREFS
331
544
102
}
  0
BLOCK_RECORD
  5
54A
330
1
100
AcDbSymbolTableRecord
100
AcDbBlockTableRecord
  2
Block961
340
0
102
{BLKREFS
331
54B
102
}
  0
BLOCK_RECORD
  5
551
330
1
100
AcDbSymbolTableRecord
100
AcDbBlockTableRecord
  2
Block962
340
0
102
{BLKREFS
331
552
102
}
  0
BLOCK_RECORD
  5
558
330
1
100
AcDbSymbolTableRecord
100
AcDbBlockTableRecord
  2
Block963
340
0
102
{BLKREFS
331
559
102
}
  0
BLOCK_RECORD
  5
55F
330
1
100
AcDbSymbolTableRecord
100
AcDbBlockTableRecord
  2
Block964
340
0
102
{BLKREFS
331
560
102
}
  0
BLOCK_RECORD
  5
566
330
1
100
AcDbSymbolTableRecord
100
AcDbBlockTableRecord
  2
Block965
340
0
102
{BLKREFS
331
567
102
}
  0
BLOCK_RECORD
  5
56B
330
1
100
AcDbSymbolTableRecord
100
AcDbBlockTableRecord
  2
Block968
340
0
102
{BLKREFS
331
56C
102
}
  0
ENDTAB
  0
ENDSEC
  0
SECTION
  2
BLOCKS
  0
BLOCK
  5
20
330
1F
100
AcDbEntity
  8
0
100
AcDbBlockBegin
  2
*Model_Space
 70
     0
 10
0.0
 20
0.0
 30
0.0
  3
*Model_Space
  1

  0
ENDBLK
  5
21
330
1F
100
AcDbEntity
  8
0
100
AcDbBlockEnd
  0
BLOCK
  5
52
330
50
100
AcDbEntity
 67
     1
  8
0
100
AcDbBlockBegin
  2
*Paper_Space
 70
     0
 10
0.0
 20
0.0
 30
0.0
  3
*Paper_Space
  1

  0
ENDBLK
  5
53
330
50
100
AcDbEntity
 67
     1
  8
0
100
AcDbBlockEnd
  0
BLOCK
  5
57
330
55
100
AcDbEntity
  8
0
100
AcDbBlockBegin
  2
*Paper_Space0
 70
     0
 10
0.0
 20
0.0
 30
0.0
  3
*Paper_Space0
  1

  0
ENDBLK
  5
58
330
55
100
AcDbEntity
  8
0
100
AcDbBlockEnd
  0
BLOCK
  5
573
330
E0
100
AcDbEntity
  8
0
100
AcDbBlockBegin
  2
Block1
 70
     0
 10
0.0
 20
0.0
 30
0.0
  3
Block1
  1

  0
LINE
  5
E2
330
E0
100
AcDbEntity
  8
Untitled
 62
     7
370
     5
100
AcDbLine
 10
0.0
 20
0.0
 30
0.0
 11
-32.0
 21
0.0
 31
0.0
  0
LINE
  5
E3
330
E0
100
AcDbEntity
  8
Untitled
 62
     7
370
     5
100
AcDbLine
 10
-0.5
 20
-0.5
 30
0.0
 11
0.5
 21
0.5
 31
0.0
  0
LINE
  5
E4
330
E0
100
AcDbEntity
  8
Untitled
 62
     7
370
     5
100
AcDbLine
 10
-32.5
 20
-0.5
 30
0.0
 11
-31.5
 21
0.5
 31
0.0
  0
TEXT
  5
E6
330
E0
100
AcDbEntity
  8
Untitled
 62
     7
100
AcDbText
 10
-17.024
 20
0.6
 30
0.0
 40
1.0
  1
32"
  7
ARIAL_400_0
 72
     1
 11
-16.0
 21
0.6
 31
0.0
100
AcDbText
  0
ENDBLK
  5
574
330
E0
100
AcDbEntity
  8
0
100
AcDbBlockEnd
  0
BLOCK
  5
575
330
E7
100
AcDbEntity
  8
0
100
AcDbBlockBegin
  2
Block2
 70
     0
 10
0.0
 20
0.0
 30
0.0
  3
Block2
  1

  0
LINE
  5
E9
330
E7
100
AcDbEntity
  8
Untitled
 62
     7
370
     5
100
AcDbLine
 10
0.0
 20
0.0
 30
0.0
 11
0.0
 21
-32.0
 31
0.0
  0
LINE
  5
EA
330
E7
100
AcDbEntity
  8
Untitled
 62
     7
370
     5
100
AcDbLine
 10
2.98
 20
0.0
 30
0.0
 11
-1.0
 21
0.0
 31
0.0
  0
LINE
  5
EB
330
E7
100
AcDbEntity
  8
Untitled
 62
     7
370
     5
100
AcDbLine
 10
2.9475
 20
-32.0
 30
0.0
 11
-1.0
 21
-32.0
 31
0.0
  0
LINE
  5
EC
330
E7
100
AcDbEntity
  8
Untitled
 62
     7
370
     5
100
AcDbLine
 10
0.5
 20
-0.5
 30
0.0
 11
-0.5
 21
0.5
 31
0.0
  0
LINE
  5
ED
330
E7
100
AcDbEntity
  8
Untitled
 62
     7
370
     5
100
AcDbLine
 10
0.5
 20
-32.5
 30
0.0
 11
-0.5
 21
-31.5
 31
0.0
  0
TEXT
  5
EE
330
E7
100
AcDbEntity
  8
Untitled
 62
     7
100
AcDbText
 10
-0.6
 20
-17.024
 30
0.0
 40
1.0
  1
32"
 50
90.0
  7
ARIAL_400_0
 72
     1
 11
-0.6
 21
-16.0
 31
0.0
100
AcDbText
  0
ENDBLK
  5
576
330
E7
100
AcDbEntity
  8
0
100
AcDbBlockEnd
  0
BLOCK
  5
577
330
EF
100
AcDbEntity
  8
0
100
AcDbBlockBegin
  2
Block3
 70
     0
 10
0.0
 20
0.0
 30
0.0
  3
Block3
  1

  0
LINE
  5
F1
330
EF
100
AcDbEntity
  8
Untitled
 62
     7
370
     5
100
AcDbLine
 10
0.0
 20
0.0
 30
0.0
 11
-32.0
 21
0.0
 31
0.0
  0
LINE
  5
F2
330
EF
100
AcDbEntity
  8
Untitled
 62
     7
370
     5
100
AcDbLine
 10
-0.5
 20
-0.5
 30
0.0
 11
0.5
 21
0.5
 31
0.0
  0
LINE
  5
F3
330
EF
100
AcDbEntity
  8
Untitled
 62
     7
370
     5
100
AcDbLine
 10
-32.5
 20
-0.5
 30
0.0
 11
-31.5
 21
0.5
 31
0.0
  0
TEXT
  5
F4
330
EF
100
AcDbEntity
  8
Untitled
 62
     7
100
AcDbText
 10
-17.024
 20
0.6
 30
0.0
 40
1.0
  1
32"
  7
ARIAL_400_0
 72
     1
 11
-16.0
 21
0.6
 31
0.0
100
AcDbText
  0
ENDBLK
  5
578
330
EF
100
AcDbEntity
  8
0
100
AcDbBlockEnd
  0
BLOCK
  5
579
330
F5
100
AcDbEntity
  8
0
100
AcDbBlockBegin
  2
Block4
 70
     0
 10
0.0
 20
0.0
 30
0.0
  3
Block4
  1

  0
LINE
  5
F7
330
F5
100
AcDbEntity
  8
Untitled
 62
     7
370
     5
100
AcDbLine
 10
0.0
 20
0.0
 30
0.0
 11
0.0
 21
-32.0
 31
0.0
  0
LINE
  5
F8
330
F5
100
AcDbEntity
  8
Untitled
 62
     7
370
     5
100
AcDbLine
 10
2.98
 20
0.0
 30
0.0
 11
-1.0
 21
0.0
 31
0.0
  0
LINE
  5
F9
330
F5
100
AcDbEntity
  8
Untitled
 62
     7
370
     5
100
AcDbLine
 10
2.9475
 20
-32.0
 30
0.0
 11
-1.0
 21
-32.0
 31
0.0
  0
LINE
  5
FA
330
F5
100
AcDbEntity
  8
Untitled
 62
     7
370
     5
100
AcDbLine
 10
0.5
 20
-0.5
 30
0.0
 11
-0.5
 21
0.5
 31
0.0
  0
LINE
  5
FB
330
F5
100
AcDbEntity
  8
Untitled
 62
     7
370
     5
100
AcDbLine
 10
0.5
 20
-32.5
 30
0.0
 11
-0.5
 21
-31.5
 31
0.0
  0
TEXT
  5
FC
330
F5
100
AcDbEntity
  8
Untitled
 62
     7
100
AcDbText
 10
-0.6
 20
-17.024
 30
0.0
 40
1.0
  1
32"
 50
90.0
  7
ARIAL_400_0
 72
     1
 11
-0.6
 21
-16.0
 31
0.0
100
AcDbText
  0
ENDBLK
  5
57A
330
F5
100
AcDbEntity
  8
0
100
AcDbBlockEnd
  0
BLOCK
  5
57B
330
FD
100
AcDbEntity
  8
0
100
AcDbBlockBegin
  2
Block5
 70
     0
 10
0.0
 20
0.0
 30
0.0
  3
Block5
  1

  0
LINE
  5
FF
330
FD
100
AcDbEntity
  8
Untitled
 62
     7
370
     5
100
AcDbLine
 10
0.0
 20
0.0
 30
0.0
 11
-68.0
 21
0.0
 31
0.0
  0
LINE
  5
100
330
FD
100
AcDbEntity
  8
Untitled
 62
     7
370
     5
100
AcDbLine
 10
-0.5
 20
-0.5
 30
0.0
 11
0.5
 21
0.5
 31
0.0
  0
LINE
  5
101
330
FD
100
AcDbEntity
  8
Untitled
 62
     7
370
     5
100
AcDbLine
 10
-68.5
 20
-0.5
 30
0.0
 11
-67.5
 21
0.5
 31
0.0
  0
TEXT
  5
102
330
FD
100
AcDbEntity
  8
Untitled
 62
     7
100
AcDbText
 10
-37.934
 20
0.6
 30
0.0
 40
1.0
  1
               68"
  7
ARIAL_400_0
 72
     1
 11
-34.0
 21
0.6
 31
0.0
100
AcDbText
  0
ENDBLK
  5
57C
330
FD
100
AcDbEntity
  8
0
100
AcDbBlockEnd
  0
BLOCK
  5
57D
330
103
100
AcDbEntity
  8
0
100
AcDbBlockBegin
  2
Block6
 70
     0
 10
0.0
 20
0.0
 30
0.0
  3
Block6
  1

  0
LINE
  5
105
330
103
100
AcDbEntity
  8
Untitled
 62
     7
370
     5
100
AcDbLine
 10
0.0
 20
0.0
 30
0.0
 11
0.0
 21
-32.0
 31
0.0
  0
LINE
  5
106
330
103
100
AcDbEntity
  8
Untitled
 62
     7
370
     5
100
AcDbLine
 10
2.98
 20
0.0
 30
0.0
 11
-1.0
 21
0.0
 31
0.0
  0
LINE
  5
107
330
103
100
AcDbEntity
  8
Untitled
 62
     7
370
     5
100
AcDbLine
 10
2.9475
 20
-32.0
 30
0.0
 11
-1.0
 21
-32.0
 31
0.0
  0
LINE
  5
108
330
103
100
AcDbEntity
  8
Untitled
 62
     7
370
     5
100
AcDbLine
 10
0.5
 20
-0.5
 30
0.0
 11
-0.5
 21
0.5
 31
0.0
  0
LINE
  5
109
330
103
100
AcDbEntity
  8
Untitled
 62
     7
370
     5
100
AcDbLine
 10
0.5
 20
-32.5
 30
0.0
 11
-0.5
 21
-31.5
 31
0.0
  0
TEXT
  5
10A
330
103
100
AcDbEntity
  8
Untitled
 62
     7
100
AcDbText
 10
-0.6
 20
-17.024
 30
0.0
 40
1.0
  1
32"
 50
90.0
  7
ARIAL_400_0
 72
     1
 11
-0.6
 21
-16.0
 31
0.0
100
AcDbText
  0
ENDBLK
  5
57E
330
103
100
AcDbEntity
  8
0
100
AcDbBlockEnd
  0
BLOCK
  5
57F
330
10B
100
AcDbEntity
  8
0
100
AcDbBlockBegin
  2
Block7
 70
     0
 10
0.0
 20
0.0
 30
0.0
  3
Block7
  1

  0
LINE
  5
10D
330
10B
100
AcDbEntity
  8
Untitled
 62
     7
370
     5
100
AcDbLine
 10
0.0
 20
0.0
 30
0.0
 11
-68.0
 21
0.0
 31
0.0
  0
LINE
  5
10E
330
10B
100
AcDbEntity
  8
Untitled
 62
     7
370
     5
100
AcDbLine
 10
-0.5
 20
-0.5
 30
0.0
 11
0.5
 21
0.5
 31
0.0
  0
LINE
  5
10F
330
10B
100
AcDbEntity
  8
Untitled
 62
     7
370
     5
100
AcDbLine
 10
-68.5
 20
-0.5
 30
0.0
 11
-67.5
 21
0.5
 31
0.0
  0
TEXT
  5
110
330
10B
100
AcDbEntity
  8
Untitled
 62
     7
100
AcDbText
 10
-37.934
 20
0.6
 30
0.0
 40
1.0
  1
               68"
  7
ARIAL_400_0
 72
     1
 11
-34.0
 21
0.6
 31
0.0
100
AcDbText
  0
ENDBLK
  5
580
330
10B
100
AcDbEntity
  8
0
100
AcDbBlockEnd
  0
BLOCK
  5
581
330
111
100
AcDbEntity
  8
0
100
AcDbBlockBegin
  2
Block8
 70
     0
 10
0.0
 20
0.0
 30
0.0
  3
Block8
  1

  0
LINE
  5
113
330
111
100
AcDbEntity
  8
Untitled
 62
     7
370
     5
100
AcDbLine
 10
0.0
 20
0.0
 30
0.0
 11
0.0
 21
-32.0
 31
0.0
  0
LINE
  5
114
330
111
100
AcDbEntity
  8
Untitled
 62
     7
370
     5
100
AcDbLine
 10
2.98
 20
0.0
 30
0.0
 11
-1.0
 21
0.0
 31
0.0
  0
LINE
  5
115
330
111
100
AcDbEntity
  8
Untitled
 62
     7
370
     5
100
AcDbLine
 10
2.9475
 20
-32.0
 30
0.0
 11
-1.0
 21
-32.0
 31
0.0
  0
LINE
  5
116
330
111
100
AcDbEntity
  8
Untitled
 62
     7
370
     5
100
AcDbLine
 10
0.5
 20
-0.5
 30
0.0
 11
-0.5
 21
0.5
 31
0.0
  0
LINE
  5
117
330
111
100
AcDbEntity
  8
Untitled
 62
     7
370
     5
100
AcDbLine
 10
0.5
 20
-32.5
 30
0.0
 11
-0.5
 21
-31.5
 31
0.0
  0
TEXT
  5
118
330
111
100
AcDbEntity
  8
Untitled
 62
     7
100
AcDbText
 10
-0.6
 20
-17.024
 30
0.0
 40
1.0
  1
32"
 50
90.0
  7
ARIAL_400_0
 72
     1
 11
-0.6
 21
-16.0
 31
0.0
100
AcDbText
  0
ENDBLK
  5
582
330
111
100
AcDbEntity
  8
0
100
AcDbBlockEnd
  0
BLOCK
  5
583
330
317
100
AcDbEntity
  8
0
100
AcDbBlockBegin
  2
Block519
 70
     0
 10
0.0
 20
0.0
 30
0.0
  3
Block519
  1

  0
LINE
  5
319
330
317
100
AcDbEntity
  8
Untitled
 62
     7
370
     5
100
AcDbLine
 10
0.0
 20
0.0
 30
0.0
 11
0.0
 21
-32.0
 31
0.0
  0
LINE
  5
31A
330
317
100
AcDbEntity
  8
Untitled
 62
     7
370
     5
100
AcDbLine
 10
-2.98
 20
0.0
 30
0.0
 11
1.0
 21
0.0
 31
0.0
  0
LINE
  5
31B
330
317
100
AcDbEntity
  8
Untitled
 62
     7
370
     5
100
AcDbLine
 10
-2.9475
 20
-32.0
 30
0.0
 11
1.0
 21
-32.0
 31
0.0
  0
LINE
  5
31C
330
317
100
AcDbEntity
  8
Untitled
 62
     7
370
     5
100
AcDbLine
 10
0.5
 20
-0.5
 30
0.0
 11
-0.5
 21
0.5
 31
0.0
  0
LINE
  5
31D
330
317
100
AcDbEntity
  8
Untitled
 62
     7
370
     5
100
AcDbLine
 10
0.5
 20
-32.5
 30
0.0
 11
-0.5
 21
-31.5
 31
0.0
  0
TEXT
  5
31E
330
317
100
AcDbEntity
  8
Untitled
 62
     7
100
AcDbText
 10
-0.6
 20
-17.024
 30
0.0
 40
1.0
  1
32"
 50
90.0
  7
ARIAL_400_0
 72
     1
 11
-0.6
 21
-16.0
 31
0.0
100
AcDbText
  0
ENDBLK
  5
584
330
317
100
AcDbEntity
  8
0
100
AcDbBlockEnd
  0
BLOCK
  5
585
330
4C5
100
AcDbEntity
  8
0
100
AcDbBlockBegin
  2
Block942
 70
     0
 10
0.0
 20
0.0
 30
0.0
  3
Block942
  1

  0
LINE
  5
4C7
330
4C5
100
AcDbEntity
  8
Untitled
 62
     7
370
     5
100
AcDbLine
 10
0.0
 20
0.0
 30
0.0
 11
-2.0
 21
0.0
 31
0.0
  0
LINE
  5
4C8
330
4C5
100
AcDbEntity
  8
Untitled
 62
     7
370
     5
100
AcDbLine
 10
1.0
 20
0.0
 30
0.0
 11
3.0
 21
0.0
 31
0.0
  0
LINE
  5
4C9
330
4C5
100
AcDbEntity
  8
Untitled
 62
     7
370
     5
100
AcDbLine
 10
0.5
 20
0.5
 30
0.0
 11
-0.5
 21
-0.5
 31
0.0
  0
LINE
  5
4CA
330
4C5
100
AcDbEntity
  8
Untitled
 62
     7
370
     5
100
AcDbLine
 10
1.5
 20
0.5
 30
0.0
 11
0.5
 21
-0.5
 31
0.0
  0
TEXT
  5
4CB
330
4C5
100
AcDbEntity
  8
Untitled
 62
     7
100
AcDbText
 10
3.0
 20
0.3
 30
0.0
 40
1.0
  1
1"
  7
ARIAL_400_0
100
AcDbText
  0
ENDBLK
  5
586
330
4C5
100
AcDbEntity
  8
0
100
AcDbBlockEnd
  0
BLOCK
  5
587
330
4CC
100
AcDbEntity
  8
0
100
AcDbBlockBegin
  2
Block943
 70
     0
 10
0.0
 20
0.0
 30
0.0
  3
Block943
  1

  0
LINE
  5
4CE
330
4CC
100
AcDbEntity
  8
Untitled
 62
     7
370
     5
100
AcDbLine
 10
0.0
 20
0.0
 30
0.0
 11
-2.0
 21
0.0
 31
0.0
  0
LINE
  5
4CF
330
4CC
100
AcDbEntity
  8
Untitled
 62
     7
370
     5
100
AcDbLine
 10
1.0
 20
0.0
 30
0.0
 11
3.0
 21
0.0
 31
0.0
  0
LINE
  5
4D0
330
4CC
100
AcDbEntity
  8
Untitled
 62
     7
370
     5
100
AcDbLine
 10
0.5
 20
0.5
 30
0.0
 11
-0.5
 21
-0.5
 31
0.0
  0
LINE
  5
4D1
330
4CC
100
AcDbEntity
  8
Untitled
 62
     7
370
     5
100
AcDbLine
 10
1.5
 20
0.5
 30
0.0
 11
0.5
 21
-0.5
 31
0.0
  0
TEXT
  5
4D2
330
4CC
100
AcDbEntity
  8
Untitled
 62
     7
100
AcDbText
 10
-3.272
 20
0.3
 30
0.0
 40
1.0
  1
1"
  7
ARIAL_400_0
 72
     2
 11
-2.0
 21
0.3
 31
0.0
100
AcDbText
  0
ENDBLK
  5
588
330
4CC
100
AcDbEntity
  8
0
100
AcDbBlockEnd
  0
BLOCK
  5
589
330
4D3
100
AcDbEntity
  8
0
100
AcDbBlockBegin
  2
Block944
 70
     0
 10
0.0
 20
0.0
 30
0.0
  3
Block944
  1

  0
LINE
  5
4D5
330
4D3
100
AcDbEntity
  8
Untitled
 62
     7
370
     5
100
AcDbLine
 10
0.0
 20
0.0
 30
0.0
 11
-2.0
 21
0.0
 31
0.0
  0
LINE
  5
4D6
330
4D3
100
AcDbEntity
  8
Untitled
 62
     7
370
     5
100
AcDbLine
 10
1.0
 20
0.0
 30
0.0
 11
3.0
 21
0.0
 31
0.0
  0
LINE
  5
4D7
330
4D3
100
AcDbEntity
  8
Untitled
 62
     7
370
     5
100
AcDbLine
 10
0.5
 20
0.5
 30
0.0
 11
-0.5
 21
-0.5
 31
0.0
  0
LINE
  5
4D8
330
4D3
100
AcDbEntity
  8
Untitled
 62
     7
370
     5
100
AcDbLine
 10
1.5
 20
0.5
 30
0.0
 11
0.5
 21
-0.5
 31
0.0
  0
TEXT
  5
4D9
330
4D3
100
AcDbEntity
  8
Untitled
 62
     7
100
AcDbText
 10
3.0
 20
0.3
 30
0.0
 40
1.0
  1
1"
  7
ARIAL_400_0
100
AcDbText
  0
ENDBLK
  5
58A
330
4D3
100
AcDbEntity
  8
0
100
AcDbBlockEnd
  0
BLOCK
  5
58B
330
4DA
100
AcDbEntity
  8
0
100
AcDbBlockBegin
  2
Block945
 70
     0
 10
0.0
 20
0.0
 30
0.0
  3
Block945
  1

  0
LINE
  5
4DC
330
4DA
100
AcDbEntity
  8
Untitled
 62
     7
370
     5
100
AcDbLine
 10
0.0
 20
0.0
 30
0.0
 11
-2.0
 21
0.0
 31
0.0
  0
LINE
  5
4DD
330
4DA
100
AcDbEntity
  8
Untitled
 62
     7
370
     5
100
AcDbLine
 10
1.0
 20
0.0
 30
0.0
 11
3.0
 21
0.0
 31
0.0
  0
LINE
  5
4DE
330
4DA
100
AcDbEntity
  8
Untitled
 62
     7
370
     5
100
AcDbLine
 10
0.5
 20
0.5
 30
0.0
 11
-0.5
 21
-0.5
 31
0.0
  0
LINE
  5
4DF
330
4DA
100
AcDbEntity
  8
Untitled
 62
     7
370
     5
100
AcDbLine
 10
1.5
 20
0.5
 30
0.0
 11
0.5
 21
-0.5
 31
0.0
  0
TEXT
  5
4E0
330
4DA
100
AcDbEntity
  8
Untitled
 62
     7
100
AcDbText
 10
3.0
 20
0.3
 30
0.0
 40
1.0
  1
1"
  7
ARIAL_400_0
100
AcDbText
  0
ENDBLK
  5
58C
330
4DA
100
AcDbEntity
  8
0
100
AcDbBlockEnd
  0
BLOCK
  5
58D
330
4E1
100
AcDbEntity
  8
0
100
AcDbBlockBegin
  2
Block946
 70
     0
 10
0.0
 20
0.0
 30
0.0
  3
Block946
  1

  0
LINE
  5
4E3
330
4E1
100
AcDbEntity
  8
Untitled
 62
     7
370
     5
100
AcDbLine
 10
0.0
 20
0.0
 30
0.0
 11
-2.0
 21
0.0
 31
0.0
  0
LINE
  5
4E4
330
4E1
100
AcDbEntity
  8
Untitled
 62
     7
370
     5
100
AcDbLine
 10
1.0
 20
0.0
 30
0.0
 11
3.0
 21
0.0
 31
0.0
  0
LINE
  5
4E5
330
4E1
100
AcDbEntity
  8
Untitled
 62
     7
370
     5
100
AcDbLine
 10
0.5
 20
0.5
 30
0.0
 11
-0.5
 21
-0.5
 31
0.0
  0
LINE
  5
4E6
330
4E1
100
AcDbEntity
  8
Untitled
 62
     7
370
     5
100
AcDbLine
 10
1.5
 20
0.5
 30
0.0
 11
0.5
 21
-0.5
 31
0.0
  0
TEXT
  5
4E7
330
4E1
100
AcDbEntity
  8
Untitled
 62
     7
100
AcDbText
 10
-3.272
 20
0.3
 30
0.0
 40
1.0
  1
1"
  7
ARIAL_400_0
 72
     2
 11
-2.0
 21
0.3
 31
0.0
100
AcDbText
  0
ENDBLK
  5
58E
330
4E1
100
AcDbEntity
  8
0
100
AcDbBlockEnd
  0
BLOCK
  5
58F
330
4E8
100
AcDbEntity
  8
0
100
AcDbBlockBegin
  2
Block947
 70
     0
 10
0.0
 20
0.0
 30
0.0
  3
Block947
  1

  0
LINE
  5
4EA
330
4E8
100
AcDbEntity
  8
Untitled
 62
     7
370
     5
100
AcDbLine
 10
0.0
 20
0.0
 30
0.0
 11
0.0
 21
1.25
 31
0.0
  0
LINE
  5
4EB
330
4E8
100
AcDbEntity
  8
Untitled
 62
     7
370
     5
100
AcDbLine
 10
0.0
 20
-0.625
 30
0.0
 11
0.0
 21
-1.875
 31
0.0
  0
LINE
  5
4EC
330
4E8
100
AcDbEntity
  8
Untitled
 62
     7
370
     5
100
AcDbLine
 10
0.3125
 20
-0.3125
 30
0.0
 11
-0.3125
 21
0.3125
 31
0.0
  0
LINE
  5
4ED
330
4E8
100
AcDbEntity
  8
Untitled
 62
     7
370
     5
100
AcDbLine
 10
0.3125
 20
-0.9375
 30
0.0
 11
-0.3125
 21
-0.3125
 31
0.0
  0
TEXT
  5
4EE
330
4E8
100
AcDbEntity
  8
Untitled
 62
     7
100
AcDbText
 10
-0.3
 20
1.25
 30
0.0
 40
1.0
  1
5/8"
 50
90.0
  7
ARIAL_400_0
100
AcDbText
  0
ENDBLK
  5
590
330
4E8
100
AcDbEntity
  8
0
100
AcDbBlockEnd
  0
BLOCK
  5
591
330
4EF
100
AcDbEntity
  8
0
100
AcDbBlockBegin
  2
Block948
 70
     0
 10
0.0
 20
0.0
 30
0.0
  3
Block948
  1

  0
LINE
  5
4F1
330
4EF
100
AcDbEntity
  8
Untitled
 62
     7
370
     5
100
AcDbLine
 10
0.0
 20
0.0
 30
0.0
 11
0.0
 21
1.25
 31
0.0
  0
LINE
  5
4F2
330
4EF
100
AcDbEntity
  8
Untitled
 62
     7
370
     5
100
AcDbLine
 10
0.0
 20
-0.625
 30
0.0
 11
0.0
 21
-1.875
 31
0.0
  0
LINE
  5
4F3
330
4EF
100
AcDbEntity
  8
Untitled
 62
     7
370
     5
100
AcDbLine
 10
0.3125
 20
-0.3125
 30
0.0
 11
-0.3125
 21
0.3125
 31
0.0
  0
LINE
  5
4F4
330
4EF
100
AcDbEntity
  8
Untitled
 62
     7
370
     5
100
AcDbLine
 10
0.3125
 20
-0.9375
 30
0.0
 11
-0.3125
 21
-0.3125
 31
0.0
  0
TEXT
  5
4F5
330
4EF
100
AcDbEntity
  8
Untitled
 62
     7
100
AcDbText
 10
-0.3
 20
1.25
 30
0.0
 40
1.0
  1
5/8"
 50
90.0
  7
ARIAL_400_0
100
AcDbText
  0
ENDBLK
  5
592
330
4EF
100
AcDbEntity
  8
0
100
AcDbBlockEnd
  0
BLOCK
  5
593
330
4F6
100
AcDbEntity
  8
0
100
AcDbBlockBegin
  2
Block949
 70
     0
 10
0.0
 20
0.0
 30
0.0
  3
Block949
  1

  0
LINE
  5
4F8
330
4F6
100
AcDbEntity
  8
Untitled
 62
     7
370
     5
100
AcDbLine
 10
0.0
 20
0.0
 30
0.0
 11
0.0
 21
1.25
 31
0.0
  0
LINE
  5
4F9
330
4F6
100
AcDbEntity
  8
Untitled
 62
     7
370
     5
100
AcDbLine
 10
0.0
 20
-0.625
 30
0.0
 11
0.0
 21
-1.875
 31
0.0
  0
LINE
  5
4FA
330
4F6
100
AcDbEntity
  8
Untitled
 62
     7
370
     5
100
AcDbLine
 10
0.3125
 20
-0.3125
 30
0.0
 11
-0.3125
 21
0.3125
 31
0.0
  0
LINE
  5
4FB
330
4F6
100
AcDbEntity
  8
Untitled
 62
     7
370
     5
100
AcDbLine
 10
0.3125
 20
-0.9375
 30
0.0
 11
-0.3125
 21
-0.3125
 31
0.0
  0
TEXT
  5
4FC
330
4F6
100
AcDbEntity
  8
Untitled
 62
     7
100
AcDbText
 10
-0.3
 20
1.25
 30
0.0
 40
1.0
  1
5/8"
 50
90.0
  7
ARIAL_400_0
100
AcDbText
  0
ENDBLK
  5
594
330
4F6
100
AcDbEntity
  8
0
100
AcDbBlockEnd
  0
BLOCK
  5
595
330
4FD
100
AcDbEntity
  8
0
100
AcDbBlockBegin
  2
Block950
 70
     0
 10
0.0
 20
0.0
 30
0.0
  3
Block950
  1

  0
LINE
  5
4FF
330
4FD
100
AcDbEntity
  8
Untitled
 62
     7
370
     5
100
AcDbLine
 10
0.0
 20
0.0
 30
0.0
 11
0.0
 21
1.25
 31
0.0
  0
LINE
  5
500
330
4FD
100
AcDbEntity
  8
Untitled
 62
     7
370
     5
100
AcDbLine
 10
0.0
 20
-0.625
 30
0.0
 11
0.0
 21
-1.875
 31
0.0
  0
LINE
  5
501
330
4FD
100
AcDbEntity
  8
Untitled
 62
     7
370
     5
100
AcDbLine
 10
0.3125
 20
-0.3125
 30
0.0
 11
-0.3125
 21
0.3125
 31
0.0
  0
LINE
  5
502
330
4FD
100
AcDbEntity
  8
Untitled
 62
     7
370
     5
100
AcDbLine
 10
0.3125
 20
-0.9375
 30
0.0
 11
-0.3125
 21
-0.3125
 31
0.0
  0
TEXT
  5
503
330
4FD
100
AcDbEntity
  8
Untitled
 62
     7
100
AcDbText
 10
-0.3
 20
1.25
 30
0.0
 40
1.0
  1
5/8"
 50
90.0
  7
ARIAL_400_0
100
AcDbText
  0
ENDBLK
  5
596
330
4FD
100
AcDbEntity
  8
0
100
AcDbBlockEnd
  0
BLOCK
  5
597
330
504
100
AcDbEntity
  8
0
100
AcDbBlockBegin
  2
Block951
 70
     0
 10
0.0
 20
0.0
 30
0.0
  3
Block951
  1

  0
LINE
  5
506
330
504
100
AcDbEntity
  8
Untitled
 62
     7
370
     5
100
AcDbLine
 10
0.0
 20
0.0
 30
0.0
 11
0.0
 21
-5.0
 31
0.0
  0
LINE
  5
507
330
504
100
AcDbEntity
  8
Untitled
 62
     7
370
     5
100
AcDbLine
 10
1.23
 20
0.0
 30
0.0
 11
-1.0
 21
0.0
 31
0.0
  0
LINE
  5
508
330
504
100
AcDbEntity
  8
Untitled
 62
     7
370
     5
100
AcDbLine
 10
0.5
 20
-0.5
 30
0.0
 11
-0.5
 21
0.5
 31
0.0
  0
LINE
  5
509
330
504
100
AcDbEntity
  8
Untitled
 62
     7
370
     5
100
AcDbLine
 10
0.5
 20
-5.5
 30
0.0
 11
-0.5
 21
-4.5
 31
0.0
  0
TEXT
  5
50A
330
504
100
AcDbEntity
  8
Untitled
 62
     7
100
AcDbText
 10
-0.6
 20
-3.136
 30
0.0
 40
1.0
  1
5"
 50
90.0
  7
ARIAL_400_0
 72
     1
 11
-0.6
 21
-2.5
 31
0.0
100
AcDbText
  0
ENDBLK
  5
598
330
504
100
AcDbEntity
  8
0
100
AcDbBlockEnd
  0
BLOCK
  5
599
330
50B
100
AcDbEntity
  8
0
100
AcDbBlockBegin
  2
Block952
 70
     0
 10
0.0
 20
0.0
 30
0.0
  3
Block952
  1

  0
LINE
  5
50D
330
50B
100
AcDbEntity
  8
Untitled
 62
     7
370
     5
100
AcDbLine
 10
0.0
 20
0.0
 30
0.0
 11
0.0
 21
-5.625
 31
0.0
  0
LINE
  5
50E
330
50B
100
AcDbEntity
  8
Untitled
 62
     7
370
     5
100
AcDbLine
 10
-2.23
 20
0.0
 30
0.0
 11
1.0
 21
0.0
 31
0.0
  0
LINE
  5
50F
330
50B
100
AcDbEntity
  8
Untitled
 62
     7
370
     5
100
AcDbLine
 10
0.5
 20
-0.5
 30
0.0
 11
-0.5
 21
0.5
 31
0.0
  0
LINE
  5
510
330
50B
100
AcDbEntity
  8
Untitled
 62
     7
370
     5
100
AcDbLine
 10
0.5
 20
-6.125
 30
0.0
 11
-0.5
 21
-5.125
 31
0.0
  0
TEXT
  5
511
330
50B
100
AcDbEntity
  8
Untitled
 62
     7
100
AcDbText
 10
-0.6
 20
-4.6125
 30
0.0
 40
1.0
  1
5 5/8"
 50
90.0
  7
ARIAL_400_0
 72
     1
 11
-0.6
 21
-2.8125
 31
0.0
100
AcDbText
  0
ENDBLK
  5
59A
330
50B
100
AcDbEntity
  8
0
100
AcDbBlockEnd
  0
BLOCK
  5
59B
330
512
100
AcDbEntity
  8
0
100
AcDbBlockBegin
  2
Block953
 70
     0
 10
0.0
 20
0.0
 30
0.0
  3
Block953
  1

  0
LINE
  5
514
330
512
100
AcDbEntity
  8
Untitled
 62
     7
370
     5
100
AcDbLine
 10
0.0
 20
0.0
 30
0.0
 11
0.0
 21
-5.625
 31
0.0
  0
LINE
  5
515
330
512
100
AcDbEntity
  8
Untitled
 62
     7
370
     5
100
AcDbLine
 10
-2.23
 20
0.0
 30
0.0
 11
1.0
 21
0.0
 31
0.0
  0
LINE
  5
516
330
512
100
AcDbEntity
  8
Untitled
 62
     7
370
     5
100
AcDbLine
 10
0.5
 20
-0.5
 30
0.0
 11
-0.5
 21
0.5
 31
0.0
  0
LINE
  5
517
330
512
100
AcDbEntity
  8
Untitled
 62
     7
370
     5
100
AcDbLine
 10
0.5
 20
-6.125
 30
0.0
 11
-0.5
 21
-5.125
 31
0.0
  0
TEXT
  5
518
330
512
100
AcDbEntity
  8
Untitled
 62
     7
100
AcDbText
 10
-0.6
 20
-4.6125
 30
0.0
 40
1.0
  1
5 5/8"
 50
90.0
  7
ARIAL_400_0
 72
     1
 11
-0.6
 21
-2.8125
 31
0.0
100
AcDbText
  0
ENDBLK
  5
59C
330
512
100
AcDbEntity
  8
0
100
AcDbBlockEnd
  0
BLOCK
  5
59D
330
519
100
AcDbEntity
  8
0
100
AcDbBlockBegin
  2
Block954
 70
     0
 10
0.0
 20
0.0
 30
0.0
  3
Block954
  1

  0
LINE
  5
51B
330
519
100
AcDbEntity
  8
Untitled
 62
     7
370
     5
100
AcDbLine
 10
0.0
 20
0.0
 30
0.0
 11
0.0
 21
-5.0
 31
0.0
  0
LINE
  5
51C
330
519
100
AcDbEntity
  8
Untitled
 62
     7
370
     5
100
AcDbLine
 10
1.23
 20
0.0
 30
0.0
 11
-1.0
 21
0.0
 31
0.0
  0
LINE
  5
51D
330
519
100
AcDbEntity
  8
Untitled
 62
     7
370
     5
100
AcDbLine
 10
0.5
 20
-0.5
 30
0.0
 11
-0.5
 21
0.5
 31
0.0
  0
LINE
  5
51E
330
519
100
AcDbEntity
  8
Untitled
 62
     7
370
     5
100
AcDbLine
 10
0.5
 20
-5.5
 30
0.0
 11
-0.5
 21
-4.5
 31
0.0
  0
TEXT
  5
51F
330
519
100
AcDbEntity
  8
Untitled
 62
     7
100
AcDbText
 10
-0.6
 20
-3.136
 30
0.0
 40
1.0
  1
5"
 50
90.0
  7
ARIAL_400_0
 72
     1
 11
-0.6
 21
-2.5
 31
0.0
100
AcDbText
  0
ENDBLK
  5
59E
330
519
100
AcDbEntity
  8
0
100
AcDbBlockEnd
  0
BLOCK
  5
59F
330
520
100
AcDbEntity
  8
0
100
AcDbBlockBegin
  2
Block955
 70
     0
 10
0.0
 20
0.0
 30
0.0
  3
Block955
  1

  0
LINE
  5
522
330
520
100
AcDbEntity
  8
Untitled
 62
     7
370
     5
100
AcDbLine
 10
0.0
 20
0.0
 30
0.0
 11
0.0
 21
-5.0
 31
0.0
  0
LINE
  5
523
330
520
100
AcDbEntity
  8
Untitled
 62
     7
370
     5
100
AcDbLine
 10
1.23
 20
0.0
 30
0.0
 11
-1.0
 21
0.0
 31
0.0
  0
LINE
  5
524
330
520
100
AcDbEntity
  8
Untitled
 62
     7
370
     5
100
AcDbLine
 10
0.5
 20
-0.5
 30
0.0
 11
-0.5
 21
0.5
 31
0.0
  0
LINE
  5
525
330
520
100
AcDbEntity
  8
Untitled
 62
     7
370
     5
100
AcDbLine
 10
0.5
 20
-5.5
 30
0.0
 11
-0.5
 21
-4.5
 31
0.0
  0
TEXT
  5
526
330
520
100
AcDbEntity
  8
Untitled
 62
     7
100
AcDbText
 10
-0.6
 20
-3.136
 30
0.0
 40
1.0
  1
5"
 50
90.0
  7
ARIAL_400_0
 72
     1
 11
-0.6
 21
-2.5
 31
0.0
100
AcDbText
  0
ENDBLK
  5
5A0
330
520
100
AcDbEntity
  8
0
100
AcDbBlockEnd
  0
BLOCK
  5
5A1
330
527
100
AcDbEntity
  8
0
100
AcDbBlockBegin
  2
Block956
 70
     0
 10
0.0
 20
0.0
 30
0.0
  3
Block956
  1

  0
LINE
  5
529
330
527
100
AcDbEntity
  8
Untitled
 62
     7
370
     5
100
AcDbLine
 10
0.0
 20
0.0
 30
0.0
 11
0.0
 21
-5.625
 31
0.0
  0
LINE
  5
52A
330
527
100
AcDbEntity
  8
Untitled
 62
     7
370
     5
100
AcDbLine
 10
-2.23
 20
0.0
 30
0.0
 11
1.0
 21
0.0
 31
0.0
  0
LINE
  5
52B
330
527
100
AcDbEntity
  8
Untitled
 62
     7
370
     5
100
AcDbLine
 10
0.5
 20
-0.5
 30
0.0
 11
-0.5
 21
0.5
 31
0.0
  0
LINE
  5
52C
330
527
100
AcDbEntity
  8
Untitled
 62
     7
370
     5
100
AcDbLine
 10
0.5
 20
-6.125
 30
0.0
 11
-0.5
 21
-5.125
 31
0.0
  0
TEXT
  5
52D
330
527
100
AcDbEntity
  8
Untitled
 62
     7
100
AcDbText
 10
-0.6
 20
-4.6125
 30
0.0
 40
1.0
  1
5 5/8"
 50
90.0
  7
ARIAL_400_0
 72
     1
 11
-0.6
 21
-2.8125
 31
0.0
100
AcDbText
  0
ENDBLK
  5
5A2
330
527
100
AcDbEntity
  8
0
100
AcDbBlockEnd
  0
BLOCK
  5
5A3
330
52E
100
AcDbEntity
  8
0
100
AcDbBlockBegin
  2
Block957
 70
     0
 10
0.0
 20
0.0
 30
0.0
  3
Block957
  1

  0
LINE
  5
530
330
52E
100
AcDbEntity
  8
Untitled
 62
     7
370
     5
100
AcDbLine
 10
0.0
 20
0.0
 30
0.0
 11
0.0
 21
-5.0
 31
0.0
  0
LINE
  5
531
330
52E
100
AcDbEntity
  8
Untitled
 62
     7
370
     5
100
AcDbLine
 10
1.23
 20
0.0
 30
0.0
 11
-1.0
 21
0.0
 31
0.0
  0
LINE
  5
532
330
52E
100
AcDbEntity
  8
Untitled
 62
     7
370
     5
100
AcDbLine
 10
0.5
 20
-0.5
 30
0.0
 11
-0.5
 21
0.5
 31
0.0
  0
LINE
  5
533
330
52E
100
AcDbEntity
  8
Untitled
 62
     7
370
     5
100
AcDbLine
 10
0.5
 20
-5.5
 30
0.0
 11
-0.5
 21
-4.5
 31
0.0
  0
TEXT
  5
534
330
52E
100
AcDbEntity
  8
Untitled
 62
     7
100
AcDbText
 10
-0.6
 20
-3.136
 30
0.0
 40
1.0
  1
5"
 50
90.0
  7
ARIAL_400_0
 72
     1
 11
-0.6
 21
-2.5
 31
0.0
100
AcDbText
  0
ENDBLK
  5
5A4
330
52E
100
AcDbEntity
  8
0
100
AcDbBlockEnd
  0
BLOCK
  5
5A5
330
535
100
AcDbEntity
  8
0
100
AcDbBlockBegin
  2
Block958
 70
     0
 10
0.0
 20
0.0
 30
0.0
  3
Block958
  1

  0
LINE
  5
537
330
535
100
AcDbEntity
  8
Untitled
 62
     7
370
     5
100
AcDbLine
 10
0.0
 20
0.0
 30
0.0
 11
0.0
 21
-5.625
 31
0.0
  0
LINE
  5
538
330
535
100
AcDbEntity
  8
Untitled
 62
     7
370
     5
100
AcDbLine
 10
-2.23
 20
0.0
 30
0.0
 11
1.0
 21
0.0
 31
0.0
  0
LINE
  5
539
330
535
100
AcDbEntity
  8
Untitled
 62
     7
370
     5
100
AcDbLine
 10
0.5
 20
-0.5
 30
0.0
 11
-0.5
 21
0.5
 31
0.0
  0
LINE
  5
53A
330
535
100
AcDbEntity
  8
Untitled
 62
     7
370
     5
100
AcDbLine
 10
0.5
 20
-6.125
 30
0.0
 11
-0.5
 21
-5.125
 31
0.0
  0
TEXT
  5
53B
330
535
100
AcDbEntity
  8
Untitled
 62
     7
100
AcDbText
 10
-0.6
 20
-4.6125
 30
0.0
 40
1.0
  1
5 5/8"
 50
90.0
  7
ARIAL_400_0
 72
     1
 11
-0.6
 21
-2.8125
 31
0.0
100
AcDbText
  0
ENDBLK
  5
5A6
330
535
100
AcDbEntity
  8
0
100
AcDbBlockEnd
  0
BLOCK
  5
5A7
330
53C
100
AcDbEntity
  8
0
100
AcDbBlockBegin
  2
Block959
 70
     0
 10
0.0
 20
0.0
 30
0.0
  3
Block959
  1

  0
LINE
  5
53E
330
53C
100
AcDbEntity
  8
Untitled
 62
     7
370
     5
100
AcDbLine
 10
0.0
 20
0.0
 30
0.0
 11
-22.0
 21
0.0
 31
0.0
  0
LINE
  5
53F
330
53C
100
AcDbEntity
  8
Untitled
 62
     7
370
     5
100
AcDbLine
 10
0.0
 20
4.744179
 30
0.0
 11
0.0
 21
-1.0
 31
0.0
  0
LINE
  5
540
330
53C
100
AcDbEntity
  8
Untitled
 62
     7
370
     5
100
AcDbLine
 10
-0.5
 20
-0.5
 30
0.0
 11
0.5
 21
0.5
 31
0.0
  0
LINE
  5
541
330
53C
100
AcDbEntity
  8
Untitled
 62
     7
370
     5
100
AcDbLine
 10
-22.5
 20
-0.5
 30
0.0
 11
-21.5
 21
0.5
 31
0.0
  0
TEXT
  5
542
330
53C
100
AcDbEntity
  8
Untitled
 62
     7
100
AcDbText
 10
-12.024
 20
0.6
 30
0.0
 40
1.0
  1
22"
  7
ARIAL_400_0
 72
     1
 11
-11.0
 21
0.6
 31
0.0
100
AcDbText
  0
ENDBLK
  5
5A8
330
53C
100
AcDbEntity
  8
0
100
AcDbBlockEnd
  0
BLOCK
  5
5A9
330
543
100
AcDbEntity
  8
0
100
AcDbBlockBegin
  2
Block960
 70
     0
 10
0.0
 20
0.0
 30
0.0
  3
Block960
  1

  0
LINE
  5
545
330
543
100
AcDbEntity
  8
Untitled
 62
     7
370
     5
100
AcDbLine
 10
0.0
 20
0.0
 30
0.0
 11
-22.0
 21
0.0
 31
0.0
  0
LINE
  5
546
330
543
100
AcDbEntity
  8
Untitled
 62
     7
370
     5
100
AcDbLine
 10
0.0
 20
4.744179
 30
0.0
 11
0.0
 21
-1.0
 31
0.0
  0
LINE
  5
547
330
543
100
AcDbEntity
  8
Untitled
 62
     7
370
     5
100
AcDbLine
 10
-0.5
 20
-0.5
 30
0.0
 11
0.5
 21
0.5
 31
0.0
  0
LINE
  5
548
330
543
100
AcDbEntity
  8
Untitled
 62
     7
370
     5
100
AcDbLine
 10
-22.5
 20
-0.5
 30
0.0
 11
-21.5
 21
0.5
 31
0.0
  0
TEXT
  5
549
330
543
100
AcDbEntity
  8
Untitled
 62
     7
100
AcDbText
 10
-12.024
 20
0.6
 30
0.0
 40
1.0
  1
22"
  7
ARIAL_400_0
 72
     1
 11
-11.0
 21
0.6
 31
0.0
100
AcDbText
  0
ENDBLK
  5
5AA
330
543
100
AcDbEntity
  8
0
100
AcDbBlockEnd
  0
BLOCK
  5
5AB
330
54A
100
AcDbEntity
  8
0
100
AcDbBlockBegin
  2
Block961
 70
     0
 10
0.0
 20
0.0
 30
0.0
  3
Block961
  1

  0
LINE
  5
54C
330
54A
100
AcDbEntity
  8
Untitled
 62
     7
370
     5
100
AcDbLine
 10
0.0
 20
0.0
 30
0.0
 11
-22.0
 21
0.0
 31
0.0
  0
LINE
  5
54D
330
54A
100
AcDbEntity
  8
Untitled
 62
     7
370
     5
100
AcDbLine
 10
0.0
 20
9.848179
 30
0.0
 11
0.0
 21
-1.0
 31
0.0
  0
LINE
  5
54E
330
54A
100
AcDbEntity
  8
Untitled
 62
     7
370
     5
100
AcDbLine
 10
-0.5
 20
-0.5
 30
0.0
 11
0.5
 21
0.5
 31
0.0
  0
LINE
  5
54F
330
54A
100
AcDbEntity
  8
Untitled
 62
     7
370
     5
100
AcDbLine
 10
-22.5
 20
-0.5
 30
0.0
 11
-21.5
 21
0.5
 31
0.0
  0
TEXT
  5
550
330
54A
100
AcDbEntity
  8
Untitled
 62
     7
100
AcDbText
 10
-12.024
 20
0.6
 30
0.0
 40
1.0
  1
22"
  7
ARIAL_400_0
 72
     1
 11
-11.0
 21
0.6
 31
0.0
100
AcDbText
  0
ENDBLK
  5
5AC
330
54A
100
AcDbEntity
  8
0
100
AcDbBlockEnd
  0
BLOCK
  5
5AD
330
551
100
AcDbEntity
  8
0
100
AcDbBlockBegin
  2
Block962
 70
     0
 10
0.0
 20
0.0
 30
0.0
  3
Block962
  1

  0
LINE
  5
553
330
551
100
AcDbEntity
  8
Untitled
 62
     7
370
     5
100
AcDbLine
 10
0.0
 20
0.0
 30
0.0
 11
-22.0
 21
0.0
 31
0.0
  0
LINE
  5
554
330
551
100
AcDbEntity
  8
Untitled
 62
     7
370
     5
100
AcDbLine
 10
0.0
 20
9.848179
 30
0.0
 11
0.0
 21
-1.0
 31
0.0
  0
LINE
  5
555
330
551
100
AcDbEntity
  8
Untitled
 62
     7
370
     5
100
AcDbLine
 10
-0.5
 20
-0.5
 30
0.0
 11
0.5
 21
0.5
 31
0.0
  0
LINE
  5
556
330
551
100
AcDbEntity
  8
Untitled
 62
     7
370
     5
100
AcDbLine
 10
-22.5
 20
-0.5
 30
0.0
 11
-21.5
 21
0.5
 31
0.0
  0
TEXT
  5
557
330
551
100
AcDbEntity
  8
Untitled
 62
     7
100
AcDbText
 10
-12.024
 20
0.6
 30
0.0
 40
1.0
  1
22"
  7
ARIAL_400_0
 72
     1
 11
-11.0
 21
0.6
 31
0.0
100
AcDbText
  0
ENDBLK
  5
5AE
330
551
100
AcDbEntity
  8
0
100
AcDbBlockEnd
  0
BLOCK
  5
5AF
330
558
100
AcDbEntity
  8
0
100
AcDbBlockBegin
  2
Block963
 70
     0
 10
0.0
 20
0.0
 30
0.0
  3
Block963
  1

  0
LINE
  5
55A
330
558
100
AcDbEntity
  8
Untitled
 62
     7
370
     5
100
AcDbLine
 10
0.0
 20
0.0
 30
0.0
 11
2.0
 21
0.0
 31
0.0
  0
LINE
  5
55B
330
558
100
AcDbEntity
  8
Untitled
 62
     7
370
     5
100
AcDbLine
 10
-2.0
 20
0.0
 30
0.0
 11
-4.0
 21
0.0
 31
0.0
  0
LINE
  5
55C
330
558
100
AcDbEntity
  8
Untitled
 62
     7
370
     5
100
AcDbLine
 10
-0.5
 20
-0.5
 30
0.0
 11
0.5
 21
0.5
 31
0.0
  0
LINE
  5
55D
330
558
100
AcDbEntity
  8
Untitled
 62
     7
370
     5
100
AcDbLine
 10
-2.5
 20
-0.5
 30
0.0
 11
-1.5
 21
0.5
 31
0.0
  0
TEXT
  5
55E
330
558
100
AcDbEntity
  8
Untitled
 62
     7
100
AcDbText
 10
-5.272
 20
0.3
 30
0.0
 40
1.0
  1
2"
  7
ARIAL_400_0
 72
     2
 11
-4.0
 21
0.3
 31
0.0
100
AcDbText
  0
ENDBLK
  5
5B0
330
558
100
AcDbEntity
  8
0
100
AcDbBlockEnd
  0
BLOCK
  5
5B1
330
55F
100
AcDbEntity
  8
0
100
AcDbBlockBegin
  2
Block964
 70
     0
 10
0.0
 20
0.0
 30
0.0
  3
Block964
  1

  0
LINE
  5
561
330
55F
100
AcDbEntity
  8
Untitled
 62
     7
370
     5
100
AcDbLine
 10
0.0
 20
0.0
 30
0.0
 11
2.0
 21
0.0
 31
0.0
  0
LINE
  5
562
330
55F
100
AcDbEntity
  8
Untitled
 62
     7
370
     5
100
AcDbLine
 10
-2.0
 20
0.0
 30
0.0
 11
-4.0
 21
0.0
 31
0.0
  0
LINE
  5
563
330
55F
100
AcDbEntity
  8
Untitled
 62
     7
370
     5
100
AcDbLine
 10
-0.5
 20
-0.5
 30
0.0
 11
0.5
 21
0.5
 31
0.0
  0
LINE
  5
564
330
55F
100
AcDbEntity
  8
Untitled
 62
     7
370
     5
100
AcDbLine
 10
-2.5
 20
-0.5
 30
0.0
 11
-1.5
 21
0.5
 31
0.0
  0
TEXT
  5
565
330
55F
100
AcDbEntity
  8
Untitled
 62
     7
100
AcDbText
 10
-5.272
 20
0.3
 30
0.0
 40
1.0
  1
2"
  7
ARIAL_400_0
 72
     2
 11
-4.0
 21
0.3
 31
0.0
100
AcDbText
  0
ENDBLK
  5
5B2
330
55F
100
AcDbEntity
  8
0
100
AcDbBlockEnd
  0
BLOCK
  5
5B3
330
566
100
AcDbEntity
  8
0
100
AcDbBlockBegin
  2
Block965
 70
     0
 10
0.0
 20
0.0
 30
0.0
  3
Block965
  1

  0
TEXT
  5
568
330
566
100
AcDbEntity
  8
Untitled
 62
     1
100
AcDbText
 10
0.0
 20
0.0
 30
0.0
 40
1.125
  1
Specifications shown below represent standard sizes only.
  7
ARIAL_400_0
100
AcDbText
  0
TEXT
  5
569
330
566
100
AcDbEntity
  8
Untitled
 62
     1
100
AcDbText
 10
0.0
 20
-1.6875
 30
0.0
 40
1.125
  1
Palmer Leg Systems are custom built to ANY dimensions.
  7
ARIAL_400_0
100
AcDbText
  0
ENDBLK
  5
5B4
330
566
100
AcDbEntity
  8
0
100
AcDbBlockEnd
  0
BLOCK
  5
5B5
330
56B
100
AcDbEntity
  8
0
100
AcDbBlockBegin
  2
Block968
 70
     0
 10
0.0
 20
0.0
 30
0.0
  3
Block968
  1

  0
TEXT
  5
56D
330
56B
100
AcDbEntity
  8
Untitled
 62
     7
100
AcDbText
 10
0.0
 20
0.0
 30
0.0
 40
0.9
  1
These designs and drawings are confidential, and the exclusive property of Palmer Industries.
  7
ARIAL_400_0
100
AcDbText
  0
TEXT
  5
56E
330
56B
100
AcDbEntity
  8
Untitled
 62
     7
100
AcDbText
 10
0.0
 20
-1.35
 30
0.0
 40
0.9
  1
They may not be disclosed or duplicated without the expressed, written consent of Palmer Industries.
  7
ARIAL_400_0
100
AcDbText
  0
TEXT
  5
56F
330
56B
100
AcDbEntity
  8
Untitled
 62
     7
100
AcDbText
 10
0.0
 20
-2.7
 30
0.0
 40
0.9
  1
Copyright circa 2018 Palmer Industries.  All rights reserved.
  7
ARIAL_400_0
100
AcDbText
  0
ENDBLK
  5
5B6
330
56B
100
AcDbEntity
  8
0
100
AcDbBlockEnd
  0
ENDSEC
  0
SECTION
  2
ENTITIES
  0
INSERT
  5
E1
330
1F
100
AcDbEntity
  8
0
100
AcDbBlockReference
  2
Block1
 10
29.777883
 20
13.802075
 30
0.0
  0
INSERT
  5
E8
330
1F
100
AcDbEntity
  8
0
100
AcDbBlockReference
  2
Block2
 10
-6.222117
 20
25.900255
 30
0.0
  0
INSERT
  5
F0
330
1F
100
AcDbEntity
  8
0
100
AcDbBlockReference
  2
Block3
 10
-0.722117
 20
-62.197925
 30
0.0
  0
INSERT
  5
F6
330
1F
100
AcDbEntity
  8
0
100
AcDbBlockReference
  2
Block4
 10
-36.722117
 20
-50.099745
 30
0.0
  0
INSERT
  5
FE
330
1F
100
AcDbEntity
  8
0
100
AcDbBlockReference
  2
Block5
 10
32.527883
 20
-24.197925
 30
0.0
  0
INSERT
  5
104
330
1F
100
AcDbEntity
  8
0
100
AcDbBlockReference
  2
Block6
 10
-39.472117
 20
-12.099745
 30
0.0
  0
INSERT
  5
10C
330
1F
100
AcDbEntity
  8
0
100
AcDbBlockReference
  2
Block7
 10
32.527883
 20
-100.197925
 30
0.0
  0
INSERT
  5
112
330
1F
100
AcDbEntity
  8
0
100
AcDbBlockReference
  2
Block8
 10
-39.472117
 20
-88.099745
 30
0.0
  0
LINE
  5
119
330
1F
100
AcDbEntity
  8
Untitled
 62
     7
370
     5
100
AcDbLine
 10
4.777883
 20
25.900255
 30
0.0
 11
22.777883
 21
25.900255
 31
0.0
  0
LINE
  5
11A
330
1F
100
AcDbEntity
  8
Untitled
 62
     7
370
     5
100
AcDbLine
 10
22.777883
 20
25.900255
 30
0.0
 11
22.777883
 21
24.650255
 31
0.0
  0
LINE
  5
11B
330
1F
100
AcDbEntity
  8
Untitled
 62
     7
370
     5
100
AcDbLine
 10
22.777883
 20
24.650255
 30
0.0
 11
4.777883
 21
24.650255
 31
0.0
  0
LINE
  5
11C
330
1F
100
AcDbEntity
  8
Untitled
 62
     7
370
     5
100
AcDbLine
 10
4.777883
 20
24.650255
 30
0.0
 11
4.777883
 21
25.900255
 31
0.0
  0
LINE
  5
11D
330
1F
100
AcDbEntity
  8
Untitled
 62
     7
370
     5
100
AcDbLine
 10
4.777883
 20
25.775255
 30
0.0
 11
22.777883
 21
25.775255
 31
0.0
  0
LINE
  5
11E
330
1F
100
AcDbEntity
  8
Untitled
 62
     7
370
     5
100
AcDbLine
 10
61.777883
 20
24.650255
 30
0.0
 11
61.777883
 21
25.900255
 31
0.0
  0
LINE
  5
11F
330
1F
100
AcDbEntity
  8
Untitled
 62
     7
370
     5
100
AcDbLine
 10
61.777883
 20
25.900255
 30
0.0
 11
60.527883
 21
25.900255
 31
0.0
  0
LINE
  5
120
330
1F
100
AcDbEntity
  8
Untitled
 62
     7
370
     5
100
AcDbLine
 10
60.527883
 20
25.900255
 30
0.0
 11
60.527883
 21
25.775255
 31
0.0
  0
LINE
  5
121
330
1F
100
AcDbEntity
  8
Untitled
 62
     7
370
     5
100
AcDbLine
 10
60.527883
 20
25.775255
 30
0.0
 11
61.652883
 21
25.775255
 31
0.0
  0
LINE
  5
122
330
1F
100
AcDbEntity
  8
Untitled
 62
     7
370
     5
100
AcDbLine
 10
61.652883
 20
25.775255
 30
0.0
 11
61.652883
 21
24.650255
 31
0.0
  0
LINE
  5
123
330
1F
100
AcDbEntity
  8
Untitled
 62
     7
370
     5
100
AcDbLine
 10
61.652883
 20
24.650255
 30
0.0
 11
61.777883
 21
24.650255
 31
0.0
  0
LINE
  5
124
330
1F
100
AcDbEntity
  8
Untitled
 62
     7
370
     5
100
AcDbLine
 10
-27.222117
 20
-12.099745
 30
0.0
 11
-9.222117
 21
-12.099745
 31
0.0
  0
LINE
  5
125
330
1F
100
AcDbEntity
  8
Untitled
 62
     7
370
     5
100
AcDbLine
 10
-9.222117
 20
-12.099745
 30
0.0
 11
-9.222117
 21
-13.349745
 31
0.0
  0
LINE
  5
126
330
1F
100
AcDbEntity
  8
Untitled
 62
     7
370
     5
100
AcDbLine
 10
-9.222117
 20
-13.349745
 30
0.0
 11
-27.222117
 21
-13.349745
 31
0.0
  0
LINE
  5
127
330
1F
100
AcDbEntity
  8
Untitled
 62
     7
370
     5
100
AcDbLine
 10
-27.222117
 20
-13.349745
 30
0.0
 11
-27.222117
 21
-12.099745
 31
0.0
  0
LINE
  5
128
330
1F
100
AcDbEntity
  8
Untitled
 62
     7
370
     5
100
AcDbLine
 10
-27.222117
 20
-12.224745
 30
0.0
 11
-9.222117
 21
-12.224745
 31
0.0
  0
LINE
  5
129
330
1F
100
AcDbEntity
  8
Untitled
 62
     7
370
     5
100
AcDbLine
 10
24.277883
 20
-12.099745
 30
0.0
 11
6.277883
 21
-12.099745
 31
0.0
  0
LINE
  5
12A
330
1F
100
AcDbEntity
  8
Untitled
 62
     7
370
     5
100
AcDbLine
 10
6.277883
 20
-12.099745
 30
0.0
 11
6.277883
 21
-13.349745
 31
0.0
  0
LINE
  5
12B
330
1F
100
AcDbEntity
  8
Untitled
 62
     7
370
     5
100
AcDbLine
 10
6.277883
 20
-13.349745
 30
0.0
 11
24.277883
 21
-13.349745
 31
0.0
  0
LINE
  5
12C
330
1F
100
AcDbEntity
  8
Untitled
 62
     7
370
     5
100
AcDbLine
 10
24.277883
 20
-13.349745
 30
0.0
 11
24.277883
 21
-12.099745
 31
0.0
  0
LINE
  5
12D
330
1F
100
AcDbEntity
  8
Untitled
 62
     7
370
     5
100
AcDbLine
 10
24.277883
 20
-12.224745
 30
0.0
 11
6.277883
 21
-12.224745
 31
0.0
  0
LINE
  5
12E
330
1F
100
AcDbEntity
  8
Untitled
 62
     7
370
     5
100
AcDbLine
 10
64.527883
 20
-13.349745
 30
0.0
 11
64.527883
 21
-12.099745
 31
0.0
  0
LINE
  5
12F
330
1F
100
AcDbEntity
  8
Untitled
 62
     7
370
     5
100
AcDbLine
 10
64.527883
 20
-12.099745
 30
0.0
 11
63.277883
 21
-12.099745
 31
0.0
  0
LINE
  5
130
330
1F
100
AcDbEntity
  8
Untitled
 62
     7
370
     5
100
AcDbLine
 10
63.277883
 20
-12.099745
 30
0.0
 11
63.277883
 21
-12.224745
 31
0.0
  0
LINE
  5
131
330
1F
100
AcDbEntity
  8
Untitled
 62
     7
370
     5
100
AcDbLine
 10
63.277883
 20
-12.224745
 30
0.0
 11
64.402883
 21
-12.224745
 31
0.0
  0
LINE
  5
132
330
1F
100
AcDbEntity
  8
Untitled
 62
     7
370
     5
100
AcDbLine
 10
64.402883
 20
-12.224745
 30
0.0
 11
64.402883
 21
-13.349745
 31
0.0
  0
LINE
  5
133
330
1F
100
AcDbEntity
  8
Untitled
 62
     7
370
     5
100
AcDbLine
 10
64.402883
 20
-13.349745
 30
0.0
 11
64.527883
 21
-13.349745
 31
0.0
  0
LINE
  5
134
330
1F
100
AcDbEntity
  8
Untitled
 62
     7
370
     5
100
AcDbLine
 10
-7.722117
 20
-50.099745
 30
0.0
 11
-25.722117
 21
-50.099745
 31
0.0
  0
LINE
  5
135
330
1F
100
AcDbEntity
  8
Untitled
 62
     7
370
     5
100
AcDbLine
 10
-25.722117
 20
-51.349745
 30
0.0
 11
-7.722117
 21
-51.349745
 31
0.0
  0
LINE
  5
136
330
1F
100
AcDbEntity
  8
Untitled
 62
     7
370
     5
100
AcDbLine
 10
-7.722117
 20
-50.224745
 30
0.0
 11
-25.722117
 21
-50.224745
 31
0.0
  0
LINE
  5
137
330
1F
100
AcDbEntity
  8
Untitled
 62
     7
370
     5
100
AcDbLine
 10
-25.722117
 20
-50.099745
 30
0.0
 11
-25.722117
 21
-51.349745
 31
0.0
  0
LINE
  5
138
330
1F
100
AcDbEntity
  8
Untitled
 62
     7
370
     5
100
AcDbLine
 10
-7.722117
 20
-51.349745
 30
0.0
 11
-7.722117
 21
-50.099745
 31
0.0
  0
LINE
  5
139
330
1F
100
AcDbEntity
  8
Untitled
 62
     7
370
     5
100
AcDbLine
 10
64.527883
 20
-88.099745
 30
0.0
 11
63.277883
 21
-88.099745
 31
0.0
  0
LINE
  5
13A
330
1F
100
AcDbEntity
  8
Untitled
 62
     7
370
     5
100
AcDbLine
 10
64.402883
 20
-89.349745
 30
0.0
 11
64.527883
 21
-89.349745
 31
0.0
  0
LINE
  5
13B
330
1F
100
AcDbEntity
  8
Untitled
 62
     7
370
     5
100
AcDbLine
 10
63.277883
 20
-88.099745
 30
0.0
 11
63.277883
 21
-88.224745
 31
0.0
  0
LINE
  5
13C
330
1F
100
AcDbEntity
  8
Untitled
 62
     7
370
     5
100
AcDbLine
 10
63.277883
 20
-88.224745
 30
0.0
 11
64.402883
 21
-88.224745
 31
0.0
  0
LINE
  5
13D
330
1F
100
AcDbEntity
  8
Untitled
 62
     7
370
     5
100
AcDbLine
 10
64.402883
 20
-88.224745
 30
0.0
 11
64.402883
 21
-89.349745
 31
0.0
  0
LINE
  5
13E
330
1F
100
AcDbEntity
  8
Untitled
 62
     7
370
     5
100
AcDbLine
 10
64.527883
 20
-89.349745
 30
0.0
 11
64.527883
 21
-88.099745
 31
0.0
  0
LINE
  5
13F
330
1F
100
AcDbEntity
  8
Untitled
 62
     7
370
     5
100
AcDbLine
 10
31.277883
 20
-50.099745
 30
0.0
 11
30.027883
 21
-50.099745
 31
0.0
  0
LINE
  5
140
330
1F
100
AcDbEntity
  8
Untitled
 62
     7
370
     5
100
AcDbLine
 10
31.152883
 20
-51.349745
 30
0.0
 11
31.277883
 21
-51.349745
 31
0.0
  0
LINE
  5
141
330
1F
100
AcDbEntity
  8
Untitled
 62
     7
370
     5
100
AcDbLine
 10
30.027883
 20
-50.099745
 30
0.0
 11
30.027883
 21
-50.224745
 31
0.0
  0
LINE
  5
142
330
1F
100
AcDbEntity
  8
Untitled
 62
     7
370
     5
100
AcDbLine
 10
30.027883
 20
-50.224745
 30
0.0
 11
31.152883
 21
-50.224745
 31
0.0
  0
LINE
  5
143
330
1F
100
AcDbEntity
  8
Untitled
 62
     7
370
     5
100
AcDbLine
 10
31.152883
 20
-50.224745
 30
0.0
 11
31.152883
 21
-51.349745
 31
0.0
  0
LINE
  5
144
330
1F
100
AcDbEntity
  8
Untitled
 62
     7
370
     5
100
AcDbLine
 10
31.277883
 20
-51.349745
 30
0.0
 11
31.277883
 21
-50.099745
 31
0.0
  0
ELLIPSE
  5
145
330
1F
100
AcDbEntity
  8
Untitled
 62
     7
370
     5
100
AcDbEllipse
 10
13.777883
 20
25.275255
 30
0.0
 11
0.2499999999999944
 21
0.0
 31
0.0
210
0.0
220
0.0
230
1.0
 40
1.0
 41
0.0
 42
6.283185307179586
  0
ELLIPSE
  5
146
330
1F
100
AcDbEntity
  8
Untitled
 62
     7
370
     5
100
AcDbEllipse
 10
5.777883
 20
25.275255
 30
0.0
 11
0.2499999999999953
 21
0.0
 31
0.0
210
0.0
220
0.0
230
1.0
 40
1.0
 41
0.0
 42
6.283185307179586
  0
ELLIPSE
  5
147
330
1F
100
AcDbEntity
  8
Untitled
 62
     7
370
     5
100
AcDbEllipse
 10
21.777883
 20
25.275255
 30
0.0
 11
0.2500000000000303
 21
0.0
 31
0.0
210
0.0
220
0.0
230
1.0
 40
1.0
 41
0.0
 42
6.283185307179586
  0
ELLIPSE
  5
148
330
1F
100
AcDbEntity
  8
Untitled
 62
     7
370
     5
100
AcDbEllipse
 10
-26.222117
 20
-12.724745
 30
0.0
 11
0.2499999999999951
 21
0.0
 31
0.0
210
0.0
220
0.0
230
1.0
 40
1.0
 41
0.0
 42
6.283185307179586
  0
ELLIPSE
  5
149
330
1F
100
AcDbEntity
  8
Untitled
 62
     7
370
     5
100
AcDbEllipse
 10
-18.222117
 20
-12.724745
 30
0.0
 11
0.2499999999999951
 21
0.0
 31
0.0
210
0.0
220
0.0
230
1.0
 40
1.0
 41
0.0
 42
6.283185307179586
  0
ELLIPSE
  5
14A
330
1F
100
AcDbEntity
  8
Untitled
 62
     7
370
     5
100
AcDbEllipse
 10
-10.222117
 20
-12.724745
 30
0.0
 11
0.2499999999999968
 21
0.0
 31
0.0
210
0.0
220
0.0
230
1.0
 40
1.0
 41
0.0
 42
6.283185307179586
  0
ELLIPSE
  5
14B
330
1F
100
AcDbEntity
  8
Untitled
 62
     7
370
     5
100
AcDbEllipse
 10
7.277883
 20
-12.724745
 30
0.0
 11
0.2499999999999953
 21
0.0
 31
0.0
210
0.0
220
0.0
230
1.0
 40
1.0
 41
0.0
 42
6.283185307179586
  0
ELLIPSE
  5
14C
330
1F
100
AcDbEntity
  8
Untitled
 62
     7
370
     5
100
AcDbEllipse
 10
15.277883
 20
-12.724745
 30
0.0
 11
0.2499999999999961
 21
0.0
 31
0.0
210
0.0
220
0.0
230
1.0
 40
1.0
 41
0.0
 42
6.283185307179586
  0
ELLIPSE
  5
14D
330
1F
100
AcDbEntity
  8
Untitled
 62
     7
370
     5
100
AcDbEllipse
 10
23.277883
 20
-12.724745
 30
0.0
 11
0.2500000000000303
 21
0.0
 31
0.0
210
0.0
220
0.0
230
1.0
 40
1.0
 41
0.0
 42
6.283185307179586
  0
ELLIPSE
  5
14E
330
1F
100
AcDbEntity
  8
Untitled
 62
     7
370
     5
100
AcDbEllipse
 10
-24.722117
 20
-50.724745
 30
0.0
 11
0.2500000000000615
 21
0.0
 31
0.0
210
0.0
220
0.0
230
1.0
 40
1.0
 41
0.0
 42
6.283185307179586
  0
ELLIPSE
  5
14F
330
1F
100
AcDbEntity
  8
Untitled
 62
     7
370
     5
100
AcDbEllipse
 10
-16.722117
 20
-50.724745
 30
0.0
 11
0.2500000000000615
 21
0.0
 31
0.0
210
0.0
220
0.0
230
1.0
 40
1.0
 41
0.0
 42
6.283185307179586
  0
ELLIPSE
  5
150
330
1F
100
AcDbEntity
  8
Untitled
 62
     7
370
     5
100
AcDbEllipse
 10
-8.722117
 20
-50.724745
 30
0.0
 11
0.2500000000000615
 21
0.0
 31
0.0
210
0.0
220
0.0
230
1.0
 40
1.0
 41
0.0
 42
6.283185307179586
  0
ELLIPSE
  5
151
330
1F
100
AcDbEntity
  8
Untitled
 62
     7
370
     5
100
AcDbEllipse
 10
64.402883
 20
-88.787245
 30
0.0
 11
0.2500000000000142
 21
0.0
 31
0.0
210
0.0
220
0.0
230
1.0
 40
1.0
 41
1.570796326794897
 42
4.71238898038469
  0
LINE
  5
152
330
1F
100
AcDbEntity
  8
Untitled
 62
     7
370
     5
100
AcDbLine
 10
65.527883
 20
-88.787245
 30
0.0
 11
65.402883
 21
-88.662245
 31
0.0
  0
LINE
  5
153
330
1F
100
AcDbEntity
  8
Untitled
 62
     7
370
     5
100
AcDbLine
 10
65.527883
 20
-88.787245
 30
0.0
 11
65.402883
 21
-88.912245
 31
0.0
  0
LINE
  5
154
330
1F
100
AcDbEntity
  8
Untitled
 62
     7
370
     5
100
AcDbLine
 10
64.527883
 20
-88.662245
 30
0.0
 11
65.402883
 21
-88.662245
 31
0.0
  0
LINE
  5
155
330
1F
100
AcDbEntity
  8
Untitled
 62
     7
370
     5
100
AcDbLine
 10
64.527883
 20
-88.912245
 30
0.0
 11
65.402883
 21
-88.912245
 31
0.0
  0
ELLIPSE
  5
156
330
1F
100
AcDbEntity
  8
Untitled
 62
     7
370
     5
100
AcDbEllipse
 10
31.152883
 20
-50.787245
 30
0.0
 11
0.2499999999999929
 21
0.0
 31
0.0
210
0.0
220
0.0
230
1.0
 40
1.0
 41
1.570796326794897
 42
4.71238898038469
  0
LINE
  5
157
330
1F
100
AcDbEntity
  8
Untitled
 62
     7
370
     5
100
AcDbLine
 10
32.277883
 20
-50.787245
 30
0.0
 11
32.152883
 21
-50.662245
 31
0.0
  0
LINE
  5
158
330
1F
100
AcDbEntity
  8
Untitled
 62
     7
370
     5
100
AcDbLine
 10
32.277883
 20
-50.787245
 30
0.0
 11
32.152883
 21
-50.912245
 31
0.0
  0
LINE
  5
159
330
1F
100
AcDbEntity
  8
Untitled
 62
     7
370
     5
100
AcDbLine
 10
31.277883
 20
-50.662245
 30
0.0
 11
32.152883
 21
-50.662245
 31
0.0
  0
LINE
  5
15A
330
1F
100
AcDbEntity
  8
Untitled
 62
     7
370
     5
100
AcDbLine
 10
31.277883
 20
-50.912245
 30
0.0
 11
32.152883
 21
-50.912245
 31
0.0
  0
ELLIPSE
  5
15B
330
1F
100
AcDbEntity
  8
Untitled
 62
     7
370
     5
100
AcDbEllipse
 10
64.402883
 20
-12.787245
 30
0.0
 11
0.2499999999999591
 21
0.0
 31
0.0
210
0.0
220
0.0
230
1.0
 40
1.0
 41
1.570796326794897
 42
4.71238898038469
  0
LINE
  5
15C
330
1F
100
AcDbEntity
  8
Untitled
 62
     7
370
     5
100
AcDbLine
 10
65.527883
 20
-12.787245
 30
0.0
 11
65.402883
 21
-12.662245
 31
0.0
  0
LINE
  5
15D
330
1F
100
AcDbEntity
  8
Untitled
 62
     7
370
     5
100
AcDbLine
 10
65.527883
 20
-12.787245
 30
0.0
 11
65.402883
 21
-12.912245
 31
0.0
  0
LINE
  5
15E
330
1F
100
AcDbEntity
  8
Untitled
 62
     7
370
     5
100
AcDbLine
 10
64.527883
 20
-12.662245
 30
0.0
 11
65.402883
 21
-12.662245
 31
0.0
  0
LINE
  5
15F
330
1F
100
AcDbEntity
  8
Untitled
 62
     7
370
     5
100
AcDbLine
 10
64.527883
 20
-12.912245
 30
0.0
 11
65.402883
 21
-12.912245
 31
0.0
  0
ELLIPSE
  5
160
330
1F
100
AcDbEntity
  8
Untitled
 62
     7
370
     5
100
AcDbEllipse
 10
61.652883
 20
25.212755
 30
0.0
 11
0.25
 21
0.0
 31
0.0
210
0.0
220
0.0
230
1.0
 40
1.0
 41
1.570796326794897
 42
4.71238898038469
  0
LINE
  5
161
330
1F
100
AcDbEntity
  8
Untitled
 62
     7
370
     5
100
AcDbLine
 10
62.777883
 20
25.212755
 30
0.0
 11
62.652883
 21
25.337755
 31
0.0
  0
LINE
  5
162
330
1F
100
AcDbEntity
  8
Untitled
 62
     7
370
     5
100
AcDbLine
 10
62.777883
 20
25.212755
 30
0.0
 11
62.652883
 21
25.087755
 31
0.0
  0
LINE
  5
163
330
1F
100
AcDbEntity
  8
Untitled
 62
     7
370
     5
100
AcDbLine
 10
61.777883
 20
25.337755
 30
0.0
 11
62.652883
 21
25.337755
 31
0.0
  0
LINE
  5
164
330
1F
100
AcDbEntity
  8
Untitled
 62
     7
370
     5
100
AcDbLine
 10
61.777883
 20
25.087755
 30
0.0
 11
62.652883
 21
25.087755
 31
0.0
  0
LINE
  5
165
330
1F
100
AcDbEntity
  8
Untitled
 62
     7
370
     5
100
AcDbLine
 10
-0.722117
 20
-82.099745
 30
0.0
 11
-0.722117
 21
-50.099745
 31
0.0
  0
LINE
  5
166
330
1F
100
AcDbEntity
  8
Untitled
 62
     7
370
     5
100
AcDbLine
 10
-35.472117
 20
-5.296745
 30
0.0
 11
-35.472117
 21
25.744005
 31
0.0
  0
LINE
  5
167
330
1F
100
AcDbEntity
  8
Untitled
 62
     7
370
     5
100
AcDbLine
 10
-34.472117
 20
-5.296745
 30
0.0
 11
-34.472117
 21
25.744005
 31
0.0
  0
LINE
  5
168
330
1F
100
AcDbEntity
  8
Untitled
 62
     7
370
     5
100
AcDbLine
 10
-35.524617
 20
-6.099745
 30
0.0
 11
-34.419617
 21
-6.099745
 31
0.0
  0
LINE
  5
169
330
1F
100
AcDbEntity
  8
Untitled
 62
     7
370
     5
100
AcDbLine
 10
-34.344617
 20
-5.631745
 30
0.0
 11
-34.344617
 21
-5.421745
 31
0.0
  0
LINE
  5
16A
330
1F
100
AcDbEntity
  8
Untitled
 62
     7
370
     5
100
AcDbLine
 10
-35.599617
 20
-5.681745
 30
0.0
 11
-35.599617
 21
-6.024745
 31
0.0
  0
LINE
  5
16B
330
1F
100
AcDbEntity
  8
Untitled
 62
     7
370
     5
100
AcDbLine
 10
-35.524617
 20
-6.099745
 30
0.0
 11
-35.599617
 21
-6.024745
 31
0.0
  0
LINE
  5
16C
330
1F
100
AcDbEntity
  8
Untitled
 62
     7
370
     5
100
AcDbLine
 10
-34.344617
 20
-6.024745
 30
0.0
 11
-34.419617
 21
-6.099745
 31
0.0
  0
LINE
  5
16D
330
1F
100
AcDbEntity
  8
Untitled
 62
     7
370
     5
100
AcDbLine
 10
-35.599617
 20
-6.024745
 30
0.0
 11
-34.344617
 21
-6.024745
 31
0.0
  0
LINE
  5
16E
330
1F
100
AcDbEntity
  8
Untitled
 62
     7
370
     5
100
AcDbLine
 10
-35.524617
 20
-5.296745
 30
0.0
 11
-35.599617
 21
-5.421745
 31
0.0
  0
LINE
  5
16F
330
1F
100
AcDbEntity
  8
Untitled
 62
     7
370
     5
100
AcDbLine
 10
-34.419617
 20
-5.296745
 30
0.0
 11
-34.344617
 21
-5.421745
 31
0.0
  0
LINE
  5
170
330
1F
100
AcDbEntity
  8
Untitled
 62
     7
370
     5
100
AcDbLine
 10
-34.419617
 20
-5.296745
 30
0.0
 11
-35.524617
 21
-5.296745
 31
0.0
  0
LINE
  5
171
330
1F
100
AcDbEntity
  8
Untitled
 62
     7
370
     5
100
AcDbLine
 10
-35.599617
 20
-5.421745
 30
0.0
 11
-34.344617
 21
-5.421745
 31
0.0
  0
LINE
  5
172
330
1F
100
AcDbEntity
  8
Untitled
 62
     7
370
     5
100
AcDbLine
 10
-34.344617
 20
-5.631745
 30
0.0
 11
-35.599617
 21
-5.631745
 31
0.0
  0
LINE
  5
173
330
1F
100
AcDbEntity
  8
Untitled
 62
     7
370
     5
100
AcDbLine
 10
-34.344617
 20
-5.681745
 30
0.0
 11
-35.599617
 21
-5.681745
 31
0.0
  0
LINE
  5
174
330
1F
100
AcDbEntity
  8
Untitled
 62
     7
370
     5
100
AcDbLine
 10
-35.549617
 20
-5.656745
 30
0.0
 11
-35.599617
 21
-5.681745
 31
0.0
  0
LINE
  5
175
330
1F
100
AcDbEntity
  8
Untitled
 62
     7
370
     5
100
AcDbLine
 10
-35.549617
 20
-5.656745
 30
0.0
 11
-35.599617
 21
-5.631745
 31
0.0
  0
LINE
  5
176
330
1F
100
AcDbEntity
  8
Untitled
 62
     7
370
     5
100
AcDbLine
 10
-34.394617
 20
-5.656745
 30
0.0
 11
-34.344617
 21
-5.681745
 31
0.0
  0
LINE
  5
177
330
1F
100
AcDbEntity
  8
Untitled
 62
     7
370
     5
100
AcDbLine
 10
-34.394617
 20
-5.656745
 30
0.0
 11
-34.344617
 21
-5.631745
 31
0.0
  0
LINE
  5
178
330
1F
100
AcDbEntity
  8
Untitled
 62
     7
370
     5
100
AcDbLine
 10
-35.599617
 20
-5.421745
 30
0.0
 11
-35.599617
 21
-5.631745
 31
0.0
  0
LINE
  5
179
330
1F
100
AcDbEntity
  8
Untitled
 62
     7
370
     5
100
AcDbLine
 10
-34.344617
 20
-6.024745
 30
0.0
 11
-34.344617
 21
-5.681745
 31
0.0
  0
LINE
  5
17A
330
1F
100
AcDbEntity
  8
Untitled
 62
     7
370
     5
100
AcDbLine
 10
-34.452117
 20
25.900255
 30
0.0
 11
-35.492117
 21
25.900255
 31
0.0
  0
LINE
  5
17B
330
1F
100
AcDbEntity
  8
Untitled
 62
     7
370
     5
100
AcDbLine
 10
-35.512117
 20
25.880255
 30
0.0
 11
-35.512117
 21
25.744005
 31
0.0
  0
LINE
  5
17C
330
1F
100
AcDbEntity
  8
Untitled
 62
     7
370
     5
100
AcDbLine
 10
-34.432117
 20
25.880255
 30
0.0
 11
-34.432117
 21
25.744005
 31
0.0
  0
LINE
  5
17D
330
1F
100
AcDbEntity
  8
Untitled
 62
     7
370
     5
100
AcDbLine
 10
-34.432117
 20
25.744005
 30
0.0
 11
-35.512117
 21
25.744005
 31
0.0
  0
LINE
  5
17E
330
1F
100
AcDbEntity
  8
Untitled
 62
     7
370
     5
100
AcDbLine
 10
-34.432117
 20
25.880255
 30
0.0
 11
-34.452117
 21
25.900255
 31
0.0
  0
LINE
  5
17F
330
1F
100
AcDbEntity
  8
Untitled
 62
     7
370
     5
100
AcDbLine
 10
-35.512117
 20
25.880255
 30
0.0
 11
-35.492117
 21
25.900255
 31
0.0
  0
LINE
  5
180
330
1F
100
AcDbEntity
  8
Untitled
 62
     7
370
     5
100
AcDbLine
 10
-34.432117
 20
25.880255
 30
0.0
 11
-35.512117
 21
25.880255
 31
0.0
  0
LINE
  5
181
330
1F
100
AcDbEntity
  8
Untitled
 62
     7
370
     5
100
AcDbLine
 10
28.212196
 20
21.029255
 30
0.0
 11
28.212196
 21
20.146255
 31
0.0
  0
LINE
  5
182
330
1F
100
AcDbEntity
  8
Untitled
 62
     7
370
     5
100
AcDbLine
 10
28.675196
 20
20.146255
 30
0.0
 11
28.675196
 21
21.029255
 31
0.0
  0
LINE
  5
183
330
1F
100
AcDbEntity
  8
Untitled
 62
     7
370
     5
100
AcDbLine
 10
28.137196
 20
20.221255
 30
0.0
 11
28.137196
 21
20.954255
 31
0.0
  0
ELLIPSE
  5
184
330
1F
100
AcDbEntity
  8
Untitled
 62
     7
370
     5
100
AcDbEllipse
 10
28.730696
 20
20.587755
 30
0.0
 11
0.3125000000000094
 21
0.0
 31
0.0
210
0.0
220
0.0
230
1.0
 40
1.0
 41
5.608917882989561
 42
6.957452731369594
  0
LINE
  5
185
330
1F
100
AcDbEntity
  8
Untitled
 62
     7
370
     5
100
AcDbLine
 10
29.777883
 20
-5.296745
 30
0.0
 11
29.777883
 21
25.744005
 31
0.0
  0
LINE
  5
186
330
1F
100
AcDbEntity
  8
Untitled
 62
     7
370
     5
100
AcDbLine
 10
28.625196
 20
20.146255
 30
0.0
 11
28.625196
 21
21.029255
 31
0.0
  0
LINE
  5
187
330
1F
100
AcDbEntity
  8
Untitled
 62
     7
370
     5
100
AcDbLine
 10
-2.222117
 20
-5.296745
 30
0.0
 11
-2.222117
 21
25.744005
 31
0.0
  0
LINE
  5
188
330
1F
100
AcDbEntity
  8
Untitled
 62
     7
370
     5
100
AcDbLine
 10
-0.656431
 20
21.029255
 30
0.0
 11
-0.656431
 21
20.146255
 31
0.0
  0
LINE
  5
189
330
1F
100
AcDbEntity
  8
Untitled
 62
     7
370
     5
100
AcDbLine
 10
-1.119431
 20
20.146255
 30
0.0
 11
-1.119431
 21
21.029255
 31
0.0
  0
LINE
  5
18A
330
1F
100
AcDbEntity
  8
Untitled
 62
     7
370
     5
100
AcDbLine
 10
-0.581431
 20
20.221255
 30
0.0
 11
-0.581431
 21
20.954255
 31
0.0
  0
ELLIPSE
  5
18B
330
1F
100
AcDbEntity
  8
Untitled
 62
     7
370
     5
100
AcDbEllipse
 10
-1.174931
 20
20.587755
 30
0.0
 11
0.3125000000000036
 21
0.0
 31
0.0
210
0.0
220
0.0
230
1.0
 40
1.0
 41
2.467325229399782
 42
3.815860077779829
  0
LINE
  5
18C
330
1F
100
AcDbEntity
  8
Untitled
 62
     7
370
     5
100
AcDbLine
 10
-1.069431
 20
20.146255
 30
0.0
 11
-1.069431
 21
21.029255
 31
0.0
  0
LINE
  5
18D
330
1F
100
AcDbEntity
  8
Untitled
 62
     7
370
     5
100
AcDbLine
 10
28.137196
 20
20.275255
 30
0.0
 11
-0.581431
 21
20.275255
 31
0.0
  0
LINE
  5
18E
330
1F
100
AcDbEntity
  8
Untitled
 62
     7
370
     5
100
AcDbLine
 10
-1.222117
 20
-5.296745
 30
0.0
 11
-1.222117
 21
20.146255
 31
0.0
  0
LINE
  5
18F
330
1F
100
AcDbEntity
  8
Untitled
 62
     7
370
     5
100
AcDbLine
 10
-2.274617
 20
-6.099745
 30
0.0
 11
-1.169617
 21
-6.099745
 31
0.0
  0
LINE
  5
190
330
1F
100
AcDbEntity
  8
Untitled
 62
     7
370
     5
100
AcDbLine
 10
-1.094617
 20
-5.631745
 30
0.0
 11
-1.094617
 21
-5.421745
 31
0.0
  0
LINE
  5
191
330
1F
100
AcDbEntity
  8
Untitled
 62
     7
370
     5
100
AcDbLine
 10
-2.349617
 20
-5.681745
 30
0.0
 11
-2.349617
 21
-6.024745
 31
0.0
  0
LINE
  5
192
330
1F
100
AcDbEntity
  8
Untitled
 62
     7
370
     5
100
AcDbLine
 10
-2.274617
 20
-6.099745
 30
0.0
 11
-2.349617
 21
-6.024745
 31
0.0
  0
LINE
  5
193
330
1F
100
AcDbEntity
  8
Untitled
 62
     7
370
     5
100
AcDbLine
 10
-1.094617
 20
-6.024745
 30
0.0
 11
-1.169617
 21
-6.099745
 31
0.0
  0
LINE
  5
194
330
1F
100
AcDbEntity
  8
Untitled
 62
     7
370
     5
100
AcDbLine
 10
-2.349617
 20
-6.024745
 30
0.0
 11
-1.094617
 21
-6.024745
 31
0.0
  0
LINE
  5
195
330
1F
100
AcDbEntity
  8
Untitled
 62
     7
370
     5
100
AcDbLine
 10
-2.274617
 20
-5.296745
 30
0.0
 11
-2.349617
 21
-5.421745
 31
0.0
  0
LINE
  5
196
330
1F
100
AcDbEntity
  8
Untitled
 62
     7
370
     5
100
AcDbLine
 10
-1.169617
 20
-5.296745
 30
0.0
 11
-1.094617
 21
-5.421745
 31
0.0
  0
LINE
  5
197
330
1F
100
AcDbEntity
  8
Untitled
 62
     7
370
     5
100
AcDbLine
 10
-1.169617
 20
-5.296745
 30
0.0
 11
-2.274617
 21
-5.296745
 31
0.0
  0
LINE
  5
198
330
1F
100
AcDbEntity
  8
Untitled
 62
     7
370
     5
100
AcDbLine
 10
-2.349617
 20
-5.421745
 30
0.0
 11
-1.094617
 21
-5.421745
 31
0.0
  0
LINE
  5
199
330
1F
100
AcDbEntity
  8
Untitled
 62
     7
370
     5
100
AcDbLine
 10
-1.094617
 20
-5.631745
 30
0.0
 11
-2.349617
 21
-5.631745
 31
0.0
  0
LINE
  5
19A
330
1F
100
AcDbEntity
  8
Untitled
 62
     7
370
     5
100
AcDbLine
 10
-1.094617
 20
-5.681745
 30
0.0
 11
-2.349617
 21
-5.681745
 31
0.0
  0
LINE
  5
19B
330
1F
100
AcDbEntity
  8
Untitled
 62
     7
370
     5
100
AcDbLine
 10
-2.299617
 20
-5.656745
 30
0.0
 11
-2.349617
 21
-5.681745
 31
0.0
  0
LINE
  5
19C
330
1F
100
AcDbEntity
  8
Untitled
 62
     7
370
     5
100
AcDbLine
 10
-2.299617
 20
-5.656745
 30
0.0
 11
-2.349617
 21
-5.631745
 31
0.0
  0
LINE
  5
19D
330
1F
100
AcDbEntity
  8
Untitled
 62
     7
370
     5
100
AcDbLine
 10
-1.144617
 20
-5.656745
 30
0.0
 11
-1.094617
 21
-5.681745
 31
0.0
  0
LINE
  5
19E
330
1F
100
AcDbEntity
  8
Untitled
 62
     7
370
     5
100
AcDbLine
 10
-1.144617
 20
-5.656745
 30
0.0
 11
-1.094617
 21
-5.631745
 31
0.0
  0
LINE
  5
19F
330
1F
100
AcDbEntity
  8
Untitled
 62
     7
370
     5
100
AcDbLine
 10
-2.349617
 20
-5.421745
 30
0.0
 11
-2.349617
 21
-5.631745
 31
0.0
  0
LINE
  5
1A0
330
1F
100
AcDbEntity
  8
Untitled
 62
     7
370
     5
100
AcDbLine
 10
-1.094617
 20
-6.024745
 30
0.0
 11
-1.094617
 21
-5.681745
 31
0.0
  0
LINE
  5
1A1
330
1F
100
AcDbEntity
  8
Untitled
 62
     7
370
     5
100
AcDbLine
 10
-0.581431
 20
20.221255
 30
0.0
 11
-0.656431
 21
20.146255
 31
0.0
  0
LINE
  5
1A2
330
1F
100
AcDbEntity
  8
Untitled
 62
     7
370
     5
100
AcDbLine
 10
-1.222117
 20
20.146255
 30
0.0
 11
-1.419045
 21
20.392653
 31
0.0
  0
LINE
  5
1A3
330
1F
100
AcDbEntity
  8
Untitled
 62
     7
370
     5
100
AcDbLine
 10
-1.069431
 20
20.146255
 30
0.0
 11
-0.656431
 21
20.146255
 31
0.0
  0
LINE
  5
1A4
330
1F
100
AcDbEntity
  8
Untitled
 62
     7
370
     5
100
AcDbLine
 10
-1.094431
 20
20.196255
 30
0.0
 11
-1.069431
 21
20.146255
 31
0.0
  0
LINE
  5
1A5
330
1F
100
AcDbEntity
  8
Untitled
 62
     7
370
     5
100
AcDbLine
 10
-1.094431
 20
20.196255
 30
0.0
 11
-1.119431
 21
20.146255
 31
0.0
  0
LINE
  5
1A6
330
1F
100
AcDbEntity
  8
Untitled
 62
     7
370
     5
100
AcDbLine
 10
-1.222117
 20
20.146255
 30
0.0
 11
-1.119431
 21
20.146255
 31
0.0
  0
LINE
  5
1A7
330
1F
100
AcDbEntity
  8
Untitled
 62
     7
370
     5
100
AcDbLine
 10
28.777883
 20
-5.296745
 30
0.0
 11
28.777883
 21
20.146255
 31
0.0
  0
LINE
  5
1A8
330
1F
100
AcDbEntity
  8
Untitled
 62
     7
370
     5
100
AcDbLine
 10
29.830383
 20
-6.099745
 30
0.0
 11
28.725383
 21
-6.099745
 31
0.0
  0
LINE
  5
1A9
330
1F
100
AcDbEntity
  8
Untitled
 62
     7
370
     5
100
AcDbLine
 10
28.650383
 20
-5.631745
 30
0.0
 11
28.650383
 21
-5.421745
 31
0.0
  0
LINE
  5
1AA
330
1F
100
AcDbEntity
  8
Untitled
 62
     7
370
     5
100
AcDbLine
 10
29.905383
 20
-5.681745
 30
0.0
 11
29.905383
 21
-6.024745
 31
0.0
  0
LINE
  5
1AB
330
1F
100
AcDbEntity
  8
Untitled
 62
     7
370
     5
100
AcDbLine
 10
29.830383
 20
-6.099745
 30
0.0
 11
29.905383
 21
-6.024745
 31
0.0
  0
LINE
  5
1AC
330
1F
100
AcDbEntity
  8
Untitled
 62
     7
370
     5
100
AcDbLine
 10
28.650383
 20
-6.024745
 30
0.0
 11
28.725383
 21
-6.099745
 31
0.0
  0
LINE
  5
1AD
330
1F
100
AcDbEntity
  8
Untitled
 62
     7
370
     5
100
AcDbLine
 10
29.905383
 20
-6.024745
 30
0.0
 11
28.650383
 21
-6.024745
 31
0.0
  0
LINE
  5
1AE
330
1F
100
AcDbEntity
  8
Untitled
 62
     7
370
     5
100
AcDbLine
 10
29.830383
 20
-5.296745
 30
0.0
 11
29.905383
 21
-5.421745
 31
0.0
  0
LINE
  5
1AF
330
1F
100
AcDbEntity
  8
Untitled
 62
     7
370
     5
100
AcDbLine
 10
28.725383
 20
-5.296745
 30
0.0
 11
28.650383
 21
-5.421745
 31
0.0
  0
LINE
  5
1B0
330
1F
100
AcDbEntity
  8
Untitled
 62
     7
370
     5
100
AcDbLine
 10
28.725383
 20
-5.296745
 30
0.0
 11
29.830383
 21
-5.296745
 31
0.0
  0
LINE
  5
1B1
330
1F
100
AcDbEntity
  8
Untitled
 62
     7
370
     5
100
AcDbLine
 10
29.905383
 20
-5.421745
 30
0.0
 11
28.650383
 21
-5.421745
 31
0.0
  0
LINE
  5
1B2
330
1F
100
AcDbEntity
  8
Untitled
 62
     7
370
     5
100
AcDbLine
 10
28.650383
 20
-5.631745
 30
0.0
 11
29.905383
 21
-5.631745
 31
0.0
  0
LINE
  5
1B3
330
1F
100
AcDbEntity
  8
Untitled
 62
     7
370
     5
100
AcDbLine
 10
28.650383
 20
-5.681745
 30
0.0
 11
29.905383
 21
-5.681745
 31
0.0
  0
LINE
  5
1B4
330
1F
100
AcDbEntity
  8
Untitled
 62
     7
370
     5
100
AcDbLine
 10
29.855383
 20
-5.656745
 30
0.0
 11
29.905383
 21
-5.681745
 31
0.0
  0
LINE
  5
1B5
330
1F
100
AcDbEntity
  8
Untitled
 62
     7
370
     5
100
AcDbLine
 10
29.855383
 20
-5.656745
 30
0.0
 11
29.905383
 21
-5.631745
 31
0.0
  0
LINE
  5
1B6
330
1F
100
AcDbEntity
  8
Untitled
 62
     7
370
     5
100
AcDbLine
 10
28.700383
 20
-5.656745
 30
0.0
 11
28.650383
 21
-5.681745
 31
0.0
  0
LINE
  5
1B7
330
1F
100
AcDbEntity
  8
Untitled
 62
     7
370
     5
100
AcDbLine
 10
28.700383
 20
-5.656745
 30
0.0
 11
28.650383
 21
-5.631745
 31
0.0
  0
LINE
  5
1B8
330
1F
100
AcDbEntity
  8
Untitled
 62
     7
370
     5
100
AcDbLine
 10
29.905383
 20
-5.421745
 30
0.0
 11
29.905383
 21
-5.631745
 31
0.0
  0
LINE
  5
1B9
330
1F
100
AcDbEntity
  8
Untitled
 62
     7
370
     5
100
AcDbLine
 10
28.650383
 20
-6.024745
 30
0.0
 11
28.650383
 21
-5.681745
 31
0.0
  0
LINE
  5
1BA
330
1F
100
AcDbEntity
  8
Untitled
 62
     7
370
     5
100
AcDbLine
 10
28.137196
 20
20.221255
 30
0.0
 11
28.212196
 21
20.146255
 31
0.0
  0
LINE
  5
1BB
330
1F
100
AcDbEntity
  8
Untitled
 62
     7
370
     5
100
AcDbLine
 10
28.777883
 20
20.146255
 30
0.0
 11
28.97481
 21
20.392653
 31
0.0
  0
LINE
  5
1BC
330
1F
100
AcDbEntity
  8
Untitled
 62
     7
370
     5
100
AcDbLine
 10
28.625196
 20
20.146255
 30
0.0
 11
28.212196
 21
20.146255
 31
0.0
  0
LINE
  5
1BD
330
1F
100
AcDbEntity
  8
Untitled
 62
     7
370
     5
100
AcDbLine
 10
28.650196
 20
20.196255
 30
0.0
 11
28.625196
 21
20.146255
 31
0.0
  0
LINE
  5
1BE
330
1F
100
AcDbEntity
  8
Untitled
 62
     7
370
     5
100
AcDbLine
 10
28.650196
 20
20.196255
 30
0.0
 11
28.675196
 21
20.146255
 31
0.0
  0
LINE
  5
1BF
330
1F
100
AcDbEntity
  8
Untitled
 62
     7
370
     5
100
AcDbLine
 10
28.777883
 20
20.146255
 30
0.0
 11
28.675196
 21
20.146255
 31
0.0
  0
LINE
  5
1C0
330
1F
100
AcDbEntity
  8
Untitled
 62
     7
370
     5
100
AcDbLine
 10
-0.581431
 20
20.900255
 30
0.0
 11
28.137196
 21
20.900255
 31
0.0
  0
LINE
  5
1C1
330
1F
100
AcDbEntity
  8
Untitled
 62
     7
370
     5
100
AcDbLine
 10
-1.222117
 20
21.029255
 30
0.0
 11
-1.222117
 21
25.744005
 31
0.0
  0
LINE
  5
1C2
330
1F
100
AcDbEntity
  8
Untitled
 62
     7
370
     5
100
AcDbLine
 10
-0.656431
 20
21.029255
 30
0.0
 11
-1.069431
 21
21.029255
 31
0.0
  0
LINE
  5
1C3
330
1F
100
AcDbEntity
  8
Untitled
 62
     7
370
     5
100
AcDbLine
 10
-0.581431
 20
20.954255
 30
0.0
 11
-0.656431
 21
21.029255
 31
0.0
  0
LINE
  5
1C4
330
1F
100
AcDbEntity
  8
Untitled
 62
     7
370
     5
100
AcDbLine
 10
-1.094431
 20
20.979255
 30
0.0
 11
-1.069431
 21
21.029255
 31
0.0
  0
LINE
  5
1C5
330
1F
100
AcDbEntity
  8
Untitled
 62
     7
370
     5
100
AcDbLine
 10
-1.094431
 20
20.979255
 30
0.0
 11
-1.119431
 21
21.029255
 31
0.0
  0
LINE
  5
1C6
330
1F
100
AcDbEntity
  8
Untitled
 62
     7
370
     5
100
AcDbLine
 10
-1.222117
 20
21.029255
 30
0.0
 11
-1.119431
 21
21.029255
 31
0.0
  0
LINE
  5
1C7
330
1F
100
AcDbEntity
  8
Untitled
 62
     7
370
     5
100
AcDbLine
 10
-1.222117
 20
21.029255
 30
0.0
 11
-1.419045
 21
20.782856
 31
0.0
  0
LINE
  5
1C8
330
1F
100
AcDbEntity
  8
Untitled
 62
     7
370
     5
100
AcDbLine
 10
-1.202117
 20
25.900255
 30
0.0
 11
-2.242117
 21
25.900255
 31
0.0
  0
LINE
  5
1C9
330
1F
100
AcDbEntity
  8
Untitled
 62
     7
370
     5
100
AcDbLine
 10
-2.262117
 20
25.880255
 30
0.0
 11
-2.262117
 21
25.744005
 31
0.0
  0
LINE
  5
1CA
330
1F
100
AcDbEntity
  8
Untitled
 62
     7
370
     5
100
AcDbLine
 10
-1.182117
 20
25.880255
 30
0.0
 11
-1.182117
 21
25.744005
 31
0.0
  0
LINE
  5
1CB
330
1F
100
AcDbEntity
  8
Untitled
 62
     7
370
     5
100
AcDbLine
 10
-1.182117
 20
25.744005
 30
0.0
 11
-2.262117
 21
25.744005
 31
0.0
  0
LINE
  5
1CC
330
1F
100
AcDbEntity
  8
Untitled
 62
     7
370
     5
100
AcDbLine
 10
-1.182117
 20
25.880255
 30
0.0
 11
-1.202117
 21
25.900255
 31
0.0
  0
LINE
  5
1CD
330
1F
100
AcDbEntity
  8
Untitled
 62
     7
370
     5
100
AcDbLine
 10
-2.262117
 20
25.880255
 30
0.0
 11
-2.242117
 21
25.900255
 31
0.0
  0
LINE
  5
1CE
330
1F
100
AcDbEntity
  8
Untitled
 62
     7
370
     5
100
AcDbLine
 10
-1.182117
 20
25.880255
 30
0.0
 11
-2.262117
 21
25.880255
 31
0.0
  0
LINE
  5
1CF
330
1F
100
AcDbEntity
  8
Untitled
 62
     7
370
     5
100
AcDbLine
 10
28.757883
 20
25.900255
 30
0.0
 11
29.797883
 21
25.900255
 31
0.0
  0
LINE
  5
1D0
330
1F
100
AcDbEntity
  8
Untitled
 62
     7
370
     5
100
AcDbLine
 10
29.817883
 20
25.880255
 30
0.0
 11
29.817883
 21
25.744005
 31
0.0
  0
LINE
  5
1D1
330
1F
100
AcDbEntity
  8
Untitled
 62
     7
370
     5
100
AcDbLine
 10
28.737883
 20
25.880255
 30
0.0
 11
28.737883
 21
25.744005
 31
0.0
  0
LINE
  5
1D2
330
1F
100
AcDbEntity
  8
Untitled
 62
     7
370
     5
100
AcDbLine
 10
28.737883
 20
25.744005
 30
0.0
 11
29.817883
 21
25.744005
 31
0.0
  0
LINE
  5
1D3
330
1F
100
AcDbEntity
  8
Untitled
 62
     7
370
     5
100
AcDbLine
 10
28.737883
 20
25.880255
 30
0.0
 11
28.757883
 21
25.900255
 31
0.0
  0
LINE
  5
1D4
330
1F
100
AcDbEntity
  8
Untitled
 62
     7
370
     5
100
AcDbLine
 10
29.817883
 20
25.880255
 30
0.0
 11
29.797883
 21
25.900255
 31
0.0
  0
LINE
  5
1D5
330
1F
100
AcDbEntity
  8
Untitled
 62
     7
370
     5
100
AcDbLine
 10
28.737883
 20
25.880255
 30
0.0
 11
29.817883
 21
25.880255
 31
0.0
  0
LINE
  5
1D6
330
1F
100
AcDbEntity
  8
Untitled
 62
     7
370
     5
100
AcDbLine
 10
28.212196
 20
21.029255
 30
0.0
 11
28.625196
 21
21.029255
 31
0.0
  0
LINE
  5
1D7
330
1F
100
AcDbEntity
  8
Untitled
 62
     7
370
     5
100
AcDbLine
 10
28.137196
 20
20.954255
 30
0.0
 11
28.212196
 21
21.029255
 31
0.0
  0
LINE
  5
1D8
330
1F
100
AcDbEntity
  8
Untitled
 62
     7
370
     5
100
AcDbLine
 10
28.650196
 20
20.979255
 30
0.0
 11
28.625196
 21
21.029255
 31
0.0
  0
LINE
  5
1D9
330
1F
100
AcDbEntity
  8
Untitled
 62
     7
370
     5
100
AcDbLine
 10
28.650196
 20
20.979255
 30
0.0
 11
28.675196
 21
21.029255
 31
0.0
  0
LINE
  5
1DA
330
1F
100
AcDbEntity
  8
Untitled
 62
     7
370
     5
100
AcDbLine
 10
28.777883
 20
21.029255
 30
0.0
 11
28.675196
 21
21.029255
 31
0.0
  0
LINE
  5
1DB
330
1F
100
AcDbEntity
  8
Untitled
 62
     7
370
     5
100
AcDbLine
 10
28.777883
 20
21.029255
 30
0.0
 11
28.97481
 21
20.782856
 31
0.0
  0
LINE
  5
1DC
330
1F
100
AcDbEntity
  8
Untitled
 62
     7
370
     5
100
AcDbLine
 10
28.777883
 20
21.029255
 30
0.0
 11
28.777883
 21
25.744005
 31
0.0
  0
LINE
  5
1DD
330
1F
100
AcDbEntity
  8
Untitled
 62
     7
370
     5
100
AcDbLine
 10
-2.537804
 20
-16.970745
 30
0.0
 11
-2.537804
 21
-17.853745
 31
0.0
  0
LINE
  5
1DE
330
1F
100
AcDbEntity
  8
Untitled
 62
     7
370
     5
100
AcDbLine
 10
-2.074804
 20
-17.853745
 30
0.0
 11
-2.074804
 21
-16.970745
 31
0.0
  0
LINE
  5
1DF
330
1F
100
AcDbEntity
  8
Untitled
 62
     7
370
     5
100
AcDbLine
 10
-2.612804
 20
-17.778745
 30
0.0
 11
-2.612804
 21
-17.045745
 31
0.0
  0
ELLIPSE
  5
1E0
330
1F
100
AcDbEntity
  8
Untitled
 62
     7
370
     5
100
AcDbEllipse
 10
-2.019304
 20
-17.412245
 30
0.0
 11
0.3125000000000006
 21
0.0
 31
0.0
210
0.0
220
0.0
230
1.0
 40
1.0
 41
5.608917882989568
 42
6.957452731369617
  0
LINE
  5
1E1
330
1F
100
AcDbEntity
  8
Untitled
 62
     7
370
     5
100
AcDbLine
 10
-0.972117
 20
-16.970745
 30
0.0
 11
-0.972117
 21
-12.255995
 31
0.0
  0
LINE
  5
1E2
330
1F
100
AcDbEntity
  8
Untitled
 62
     7
370
     5
100
AcDbLine
 10
-2.124804
 20
-17.853745
 30
0.0
 11
-2.124804
 21
-16.970745
 31
0.0
  0
LINE
  5
1E3
330
1F
100
AcDbEntity
  8
Untitled
 62
     7
370
     5
100
AcDbLine
 10
-35.472117
 20
-43.296745
 30
0.0
 11
-35.472117
 21
-12.255995
 31
0.0
  0
LINE
  5
1E4
330
1F
100
AcDbEntity
  8
Untitled
 62
     7
370
     5
100
AcDbLine
 10
-33.906431
 20
-16.970745
 30
0.0
 11
-33.906431
 21
-17.853745
 31
0.0
  0
LINE
  5
1E5
330
1F
100
AcDbEntity
  8
Untitled
 62
     7
370
     5
100
AcDbLine
 10
-34.369431
 20
-17.853745
 30
0.0
 11
-34.369431
 21
-16.970745
 31
0.0
  0
LINE
  5
1E6
330
1F
100
AcDbEntity
  8
Untitled
 62
     7
370
     5
100
AcDbLine
 10
-33.831431
 20
-17.778745
 30
0.0
 11
-33.831431
 21
-17.045745
 31
0.0
  0
ELLIPSE
  5
1E7
330
1F
100
AcDbEntity
  8
Untitled
 62
     7
370
     5
100
AcDbEllipse
 10
-34.424931
 20
-17.412245
 30
0.0
 11
0.3124999999999988
 21
0.0
 31
0.0
210
0.0
220
0.0
230
1.0
 40
1.0
 41
2.467325229399755
 42
3.815860077779822
  0
LINE
  5
1E8
330
1F
100
AcDbEntity
  8
Untitled
 62
     7
370
     5
100
AcDbLine
 10
-34.319431
 20
-17.853745
 30
0.0
 11
-34.319431
 21
-16.970745
 31
0.0
  0
LINE
  5
1E9
330
1F
100
AcDbEntity
  8
Untitled
 62
     7
370
     5
100
AcDbLine
 10
-2.612804
 20
-17.724745
 30
0.0
 11
-33.831431
 21
-17.724745
 31
0.0
  0
LINE
  5
1EA
330
1F
100
AcDbEntity
  8
Untitled
 62
     7
370
     5
100
AcDbLine
 10
-34.472117
 20
-43.296745
 30
0.0
 11
-34.472117
 21
-17.853745
 31
0.0
  0
LINE
  5
1EB
330
1F
100
AcDbEntity
  8
Untitled
 62
     7
370
     5
100
AcDbLine
 10
-35.524617
 20
-44.099745
 30
0.0
 11
-34.419617
 21
-44.099745
 31
0.0
  0
LINE
  5
1EC
330
1F
100
AcDbEntity
  8
Untitled
 62
     7
370
     5
100
AcDbLine
 10
-34.344617
 20
-43.631745
 30
0.0
 11
-34.344617
 21
-43.421745
 31
0.0
  0
LINE
  5
1ED
330
1F
100
AcDbEntity
  8
Untitled
 62
     7
370
     5
100
AcDbLine
 10
-35.599617
 20
-43.681745
 30
0.0
 11
-35.599617
 21
-44.024745
 31
0.0
  0
LINE
  5
1EE
330
1F
100
AcDbEntity
  8
Untitled
 62
     7
370
     5
100
AcDbLine
 10
-35.524617
 20
-44.099745
 30
0.0
 11
-35.599617
 21
-44.024745
 31
0.0
  0
LINE
  5
1EF
330
1F
100
AcDbEntity
  8
Untitled
 62
     7
370
     5
100
AcDbLine
 10
-34.344617
 20
-44.024745
 30
0.0
 11
-34.419617
 21
-44.099745
 31
0.0
  0
LINE
  5
1F0
330
1F
100
AcDbEntity
  8
Untitled
 62
     7
370
     5
100
AcDbLine
 10
-35.599617
 20
-44.024745
 30
0.0
 11
-34.344617
 21
-44.024745
 31
0.0
  0
LINE
  5
1F1
330
1F
100
AcDbEntity
  8
Untitled
 62
     7
370
     5
100
AcDbLine
 10
-35.524617
 20
-43.296745
 30
0.0
 11
-35.599617
 21
-43.421745
 31
0.0
  0
LINE
  5
1F2
330
1F
100
AcDbEntity
  8
Untitled
 62
     7
370
     5
100
AcDbLine
 10
-34.419617
 20
-43.296745
 30
0.0
 11
-34.344617
 21
-43.421745
 31
0.0
  0
LINE
  5
1F3
330
1F
100
AcDbEntity
  8
Untitled
 62
     7
370
     5
100
AcDbLine
 10
-34.419617
 20
-43.296745
 30
0.0
 11
-35.524617
 21
-43.296745
 31
0.0
  0
LINE
  5
1F4
330
1F
100
AcDbEntity
  8
Untitled
 62
     7
370
     5
100
AcDbLine
 10
-35.599617
 20
-43.421745
 30
0.0
 11
-34.344617
 21
-43.421745
 31
0.0
  0
LINE
  5
1F5
330
1F
100
AcDbEntity
  8
Untitled
 62
     7
370
     5
100
AcDbLine
 10
-34.344617
 20
-43.631745
 30
0.0
 11
-35.599617
 21
-43.631745
 31
0.0
  0
LINE
  5
1F6
330
1F
100
AcDbEntity
  8
Untitled
 62
     7
370
     5
100
AcDbLine
 10
-34.344617
 20
-43.681745
 30
0.0
 11
-35.599617
 21
-43.681745
 31
0.0
  0
LINE
  5
1F7
330
1F
100
AcDbEntity
  8
Untitled
 62
     7
370
     5
100
AcDbLine
 10
-35.549617
 20
-43.656745
 30
0.0
 11
-35.599617
 21
-43.681745
 31
0.0
  0
LINE
  5
1F8
330
1F
100
AcDbEntity
  8
Untitled
 62
     7
370
     5
100
AcDbLine
 10
-35.549617
 20
-43.656745
 30
0.0
 11
-35.599617
 21
-43.631745
 31
0.0
  0
LINE
  5
1F9
330
1F
100
AcDbEntity
  8
Untitled
 62
     7
370
     5
100
AcDbLine
 10
-34.394617
 20
-43.656745
 30
0.0
 11
-34.344617
 21
-43.681745
 31
0.0
  0
LINE
  5
1FA
330
1F
100
AcDbEntity
  8
Untitled
 62
     7
370
     5
100
AcDbLine
 10
-34.394617
 20
-43.656745
 30
0.0
 11
-34.344617
 21
-43.631745
 31
0.0
  0
LINE
  5
1FB
330
1F
100
AcDbEntity
  8
Untitled
 62
     7
370
     5
100
AcDbLine
 10
-35.599617
 20
-43.421745
 30
0.0
 11
-35.599617
 21
-43.631745
 31
0.0
  0
LINE
  5
1FC
330
1F
100
AcDbEntity
  8
Untitled
 62
     7
370
     5
100
AcDbLine
 10
-34.344617
 20
-44.024745
 30
0.0
 11
-34.344617
 21
-43.681745
 31
0.0
  0
LINE
  5
1FD
330
1F
100
AcDbEntity
  8
Untitled
 62
     7
370
     5
100
AcDbLine
 10
-33.831431
 20
-17.778745
 30
0.0
 11
-33.906431
 21
-17.853745
 31
0.0
  0
LINE
  5
1FE
330
1F
100
AcDbEntity
  8
Untitled
 62
     7
370
     5
100
AcDbLine
 10
-34.472117
 20
-17.853745
 30
0.0
 11
-34.669045
 21
-17.607347
 31
0.0
  0
LINE
  5
1FF
330
1F
100
AcDbEntity
  8
Untitled
 62
     7
370
     5
100
AcDbLine
 10
-34.319431
 20
-17.853745
 30
0.0
 11
-33.906431
 21
-17.853745
 31
0.0
  0
LINE
  5
200
330
1F
100
AcDbEntity
  8
Untitled
 62
     7
370
     5
100
AcDbLine
 10
-34.344431
 20
-17.803745
 30
0.0
 11
-34.319431
 21
-17.853745
 31
0.0
  0
LINE
  5
201
330
1F
100
AcDbEntity
  8
Untitled
 62
     7
370
     5
100
AcDbLine
 10
-34.344431
 20
-17.803745
 30
0.0
 11
-34.369431
 21
-17.853745
 31
0.0
  0
LINE
  5
202
330
1F
100
AcDbEntity
  8
Untitled
 62
     7
370
     5
100
AcDbLine
 10
-34.472117
 20
-17.853745
 30
0.0
 11
-34.369431
 21
-17.853745
 31
0.0
  0
LINE
  5
203
330
1F
100
AcDbEntity
  8
Untitled
 62
     7
370
     5
100
AcDbLine
 10
-1.972117
 20
-43.296745
 30
0.0
 11
-1.972117
 21
-17.853745
 31
0.0
  0
LINE
  5
204
330
1F
100
AcDbEntity
  8
Untitled
 62
     7
370
     5
100
AcDbLine
 10
-0.919617
 20
-44.099745
 30
0.0
 11
-2.024617
 21
-44.099745
 31
0.0
  0
LINE
  5
205
330
1F
100
AcDbEntity
  8
Untitled
 62
     7
370
     5
100
AcDbLine
 10
-2.099617
 20
-43.631745
 30
0.0
 11
-2.099617
 21
-43.421745
 31
0.0
  0
LINE
  5
206
330
1F
100
AcDbEntity
  8
Untitled
 62
     7
370
     5
100
AcDbLine
 10
-0.844617
 20
-43.681745
 30
0.0
 11
-0.844617
 21
-44.024745
 31
0.0
  0
LINE
  5
207
330
1F
100
AcDbEntity
  8
Untitled
 62
     7
370
     5
100
AcDbLine
 10
-0.919617
 20
-44.099745
 30
0.0
 11
-0.844617
 21
-44.024745
 31
0.0
  0
LINE
  5
208
330
1F
100
AcDbEntity
  8
Untitled
 62
     7
370
     5
100
AcDbLine
 10
-2.099617
 20
-44.024745
 30
0.0
 11
-2.024617
 21
-44.099745
 31
0.0
  0
LINE
  5
209
330
1F
100
AcDbEntity
  8
Untitled
 62
     7
370
     5
100
AcDbLine
 10
-0.844617
 20
-44.024745
 30
0.0
 11
-2.099617
 21
-44.024745
 31
0.0
  0
LINE
  5
20A
330
1F
100
AcDbEntity
  8
Untitled
 62
     7
370
     5
100
AcDbLine
 10
-0.919617
 20
-43.296745
 30
0.0
 11
-0.844617
 21
-43.421745
 31
0.0
  0
LINE
  5
20B
330
1F
100
AcDbEntity
  8
Untitled
 62
     7
370
     5
100
AcDbLine
 10
-2.024617
 20
-43.296745
 30
0.0
 11
-2.099617
 21
-43.421745
 31
0.0
  0
LINE
  5
20C
330
1F
100
AcDbEntity
  8
Untitled
 62
     7
370
     5
100
AcDbLine
 10
-2.024617
 20
-43.296745
 30
0.0
 11
-0.919617
 21
-43.296745
 31
0.0
  0
LINE
  5
20D
330
1F
100
AcDbEntity
  8
Untitled
 62
     7
370
     5
100
AcDbLine
 10
-0.844617
 20
-43.421745
 30
0.0
 11
-2.099617
 21
-43.421745
 31
0.0
  0
LINE
  5
20E
330
1F
100
AcDbEntity
  8
Untitled
 62
     7
370
     5
100
AcDbLine
 10
-2.099617
 20
-43.631745
 30
0.0
 11
-0.844617
 21
-43.631745
 31
0.0
  0
LINE
  5
20F
330
1F
100
AcDbEntity
  8
Untitled
 62
     7
370
     5
100
AcDbLine
 10
-2.099617
 20
-43.681745
 30
0.0
 11
-0.844617
 21
-43.681745
 31
0.0
  0
LINE
  5
210
330
1F
100
AcDbEntity
  8
Untitled
 62
     7
370
     5
100
AcDbLine
 10
-0.894617
 20
-43.656745
 30
0.0
 11
-0.844617
 21
-43.681745
 31
0.0
  0
LINE
  5
211
330
1F
100
AcDbEntity
  8
Untitled
 62
     7
370
     5
100
AcDbLine
 10
-0.894617
 20
-43.656745
 30
0.0
 11
-0.844617
 21
-43.631745
 31
0.0
  0
LINE
  5
212
330
1F
100
AcDbEntity
  8
Untitled
 62
     7
370
     5
100
AcDbLine
 10
-2.049617
 20
-43.656745
 30
0.0
 11
-2.099617
 21
-43.681745
 31
0.0
  0
LINE
  5
213
330
1F
100
AcDbEntity
  8
Untitled
 62
     7
370
     5
100
AcDbLine
 10
-2.049617
 20
-43.656745
 30
0.0
 11
-2.099617
 21
-43.631745
 31
0.0
  0
LINE
  5
214
330
1F
100
AcDbEntity
  8
Untitled
 62
     7
370
     5
100
AcDbLine
 10
-0.844617
 20
-43.421745
 30
0.0
 11
-0.844617
 21
-43.631745
 31
0.0
  0
LINE
  5
215
330
1F
100
AcDbEntity
  8
Untitled
 62
     7
370
     5
100
AcDbLine
 10
-2.099617
 20
-44.024745
 30
0.0
 11
-2.099617
 21
-43.681745
 31
0.0
  0
LINE
  5
216
330
1F
100
AcDbEntity
  8
Untitled
 62
     7
370
     5
100
AcDbLine
 10
-2.612804
 20
-17.778745
 30
0.0
 11
-2.537804
 21
-17.853745
 31
0.0
  0
LINE
  5
217
330
1F
100
AcDbEntity
  8
Untitled
 62
     7
370
     5
100
AcDbLine
 10
-1.972117
 20
-17.853745
 30
0.0
 11
-1.77519
 21
-17.607347
 31
0.0
  0
LINE
  5
218
330
1F
100
AcDbEntity
  8
Untitled
 62
     7
370
     5
100
AcDbLine
 10
-2.124804
 20
-17.853745
 30
0.0
 11
-2.537804
 21
-17.853745
 31
0.0
  0
LINE
  5
219
330
1F
100
AcDbEntity
  8
Untitled
 62
     7
370
     5
100
AcDbLine
 10
-2.099804
 20
-17.803745
 30
0.0
 11
-2.124804
 21
-17.853745
 31
0.0
  0
LINE
  5
21A
330
1F
100
AcDbEntity
  8
Untitled
 62
     7
370
     5
100
AcDbLine
 10
-2.099804
 20
-17.803745
 30
0.0
 11
-2.074804
 21
-17.853745
 31
0.0
  0
LINE
  5
21B
330
1F
100
AcDbEntity
  8
Untitled
 62
     7
370
     5
100
AcDbLine
 10
-1.972117
 20
-17.853745
 30
0.0
 11
-2.074804
 21
-17.853745
 31
0.0
  0
LINE
  5
21C
330
1F
100
AcDbEntity
  8
Untitled
 62
     7
370
     5
100
AcDbLine
 10
-33.831431
 20
-17.099745
 30
0.0
 11
-2.612804
 21
-17.099745
 31
0.0
  0
LINE
  5
21D
330
1F
100
AcDbEntity
  8
Untitled
 62
     7
370
     5
100
AcDbLine
 10
-34.472117
 20
-16.970745
 30
0.0
 11
-34.472117
 21
-12.255995
 31
0.0
  0
LINE
  5
21E
330
1F
100
AcDbEntity
  8
Untitled
 62
     7
370
     5
100
AcDbLine
 10
-33.906431
 20
-16.970745
 30
0.0
 11
-34.319431
 21
-16.970745
 31
0.0
  0
LINE
  5
21F
330
1F
100
AcDbEntity
  8
Untitled
 62
     7
370
     5
100
AcDbLine
 10
-33.831431
 20
-17.045745
 30
0.0
 11
-33.906431
 21
-16.970745
 31
0.0
  0
LINE
  5
220
330
1F
100
AcDbEntity
  8
Untitled
 62
     7
370
     5
100
AcDbLine
 10
-34.344431
 20
-17.020745
 30
0.0
 11
-34.319431
 21
-16.970745
 31
0.0
  0
LINE
  5
221
330
1F
100
AcDbEntity
  8
Untitled
 62
     7
370
     5
100
AcDbLine
 10
-34.344431
 20
-17.020745
 30
0.0
 11
-34.369431
 21
-16.970745
 31
0.0
  0
LINE
  5
222
330
1F
100
AcDbEntity
  8
Untitled
 62
     7
370
     5
100
AcDbLine
 10
-34.472117
 20
-16.970745
 30
0.0
 11
-34.369431
 21
-16.970745
 31
0.0
  0
LINE
  5
223
330
1F
100
AcDbEntity
  8
Untitled
 62
     7
370
     5
100
AcDbLine
 10
-34.472117
 20
-16.970745
 30
0.0
 11
-34.669045
 21
-17.217144
 31
0.0
  0
LINE
  5
224
330
1F
100
AcDbEntity
  8
Untitled
 62
     7
370
     5
100
AcDbLine
 10
-34.452117
 20
-12.099745
 30
0.0
 11
-35.492117
 21
-12.099745
 31
0.0
  0
LINE
  5
225
330
1F
100
AcDbEntity
  8
Untitled
 62
     7
370
     5
100
AcDbLine
 10
-35.512117
 20
-12.119745
 30
0.0
 11
-35.512117
 21
-12.255995
 31
0.0
  0
LINE
  5
226
330
1F
100
AcDbEntity
  8
Untitled
 62
     7
370
     5
100
AcDbLine
 10
-34.432117
 20
-12.119745
 30
0.0
 11
-34.432117
 21
-12.255995
 31
0.0
  0
LINE
  5
227
330
1F
100
AcDbEntity
  8
Untitled
 62
     7
370
     5
100
AcDbLine
 10
-34.432117
 20
-12.255995
 30
0.0
 11
-35.512117
 21
-12.255995
 31
0.0
  0
LINE
  5
228
330
1F
100
AcDbEntity
  8
Untitled
 62
     7
370
     5
100
AcDbLine
 10
-34.432117
 20
-12.119745
 30
0.0
 11
-34.452117
 21
-12.099745
 31
0.0
  0
LINE
  5
229
330
1F
100
AcDbEntity
  8
Untitled
 62
     7
370
     5
100
AcDbLine
 10
-35.512117
 20
-12.119745
 30
0.0
 11
-35.492117
 21
-12.099745
 31
0.0
  0
LINE
  5
22A
330
1F
100
AcDbEntity
  8
Untitled
 62
     7
370
     5
100
AcDbLine
 10
-34.432117
 20
-12.119745
 30
0.0
 11
-35.512117
 21
-12.119745
 31
0.0
  0
LINE
  5
22B
330
1F
100
AcDbEntity
  8
Untitled
 62
     7
370
     5
100
AcDbLine
 10
-1.992117
 20
-12.099745
 30
0.0
 11
-0.952117
 21
-12.099745
 31
0.0
  0
LINE
  5
22C
330
1F
100
AcDbEntity
  8
Untitled
 62
     7
370
     5
100
AcDbLine
 10
-0.932117
 20
-12.119745
 30
0.0
 11
-0.932117
 21
-12.255995
 31
0.0
  0
LINE
  5
22D
330
1F
100
AcDbEntity
  8
Untitled
 62
     7
370
     5
100
AcDbLine
 10
-2.012117
 20
-12.119745
 30
0.0
 11
-2.012117
 21
-12.255995
 31
0.0
  0
LINE
  5
22E
330
1F
100
AcDbEntity
  8
Untitled
 62
     7
370
     5
100
AcDbLine
 10
-2.012117
 20
-12.255995
 30
0.0
 11
-0.932117
 21
-12.255995
 31
0.0
  0
LINE
  5
22F
330
1F
100
AcDbEntity
  8
Untitled
 62
     7
370
     5
100
AcDbLine
 10
-2.012117
 20
-12.119745
 30
0.0
 11
-1.992117
 21
-12.099745
 31
0.0
  0
LINE
  5
230
330
1F
100
AcDbEntity
  8
Untitled
 62
     7
370
     5
100
AcDbLine
 10
-0.932117
 20
-12.119745
 30
0.0
 11
-0.952117
 21
-12.099745
 31
0.0
  0
LINE
  5
231
330
1F
100
AcDbEntity
  8
Untitled
 62
     7
370
     5
100
AcDbLine
 10
-2.012117
 20
-12.119745
 30
0.0
 11
-0.932117
 21
-12.119745
 31
0.0
  0
LINE
  5
232
330
1F
100
AcDbEntity
  8
Untitled
 62
     7
370
     5
100
AcDbLine
 10
-2.537804
 20
-16.970745
 30
0.0
 11
-2.124804
 21
-16.970745
 31
0.0
  0
LINE
  5
233
330
1F
100
AcDbEntity
  8
Untitled
 62
     7
370
     5
100
AcDbLine
 10
-2.612804
 20
-17.045745
 30
0.0
 11
-2.537804
 21
-16.970745
 31
0.0
  0
LINE
  5
234
330
1F
100
AcDbEntity
  8
Untitled
 62
     7
370
     5
100
AcDbLine
 10
-2.099804
 20
-17.020745
 30
0.0
 11
-2.124804
 21
-16.970745
 31
0.0
  0
LINE
  5
235
330
1F
100
AcDbEntity
  8
Untitled
 62
     7
370
     5
100
AcDbLine
 10
-2.099804
 20
-17.020745
 30
0.0
 11
-2.074804
 21
-16.970745
 31
0.0
  0
LINE
  5
236
330
1F
100
AcDbEntity
  8
Untitled
 62
     7
370
     5
100
AcDbLine
 10
-1.972117
 20
-16.970745
 30
0.0
 11
-2.074804
 21
-16.970745
 31
0.0
  0
LINE
  5
237
330
1F
100
AcDbEntity
  8
Untitled
 62
     7
370
     5
100
AcDbLine
 10
-1.972117
 20
-16.970745
 30
0.0
 11
-1.77519
 21
-17.217144
 31
0.0
  0
LINE
  5
238
330
1F
100
AcDbEntity
  8
Untitled
 62
     7
370
     5
100
AcDbLine
 10
-1.972117
 20
-16.970745
 30
0.0
 11
-1.972117
 21
-12.255995
 31
0.0
  0
LINE
  5
239
330
1F
100
AcDbEntity
  8
Untitled
 62
     7
370
     5
100
AcDbLine
 10
-2.287804
 20
-54.970745
 30
0.0
 11
-2.287804
 21
-55.853745
 31
0.0
  0
LINE
  5
23A
330
1F
100
AcDbEntity
  8
Untitled
 62
     7
370
     5
100
AcDbLine
 10
-1.824804
 20
-55.853745
 30
0.0
 11
-1.824804
 21
-54.970745
 31
0.0
  0
LINE
  5
23B
330
1F
100
AcDbEntity
  8
Untitled
 62
     7
370
     5
100
AcDbLine
 10
-2.362804
 20
-55.778745
 30
0.0
 11
-2.362804
 21
-55.045745
 31
0.0
  0
ELLIPSE
  5
23C
330
1F
100
AcDbEntity
  8
Untitled
 62
     7
370
     5
100
AcDbEllipse
 10
-1.769304
 20
-55.412245
 30
0.0
 11
0.3125000000000761
 21
0.0
 31
0.0
210
0.0
220
0.0
230
1.0
 40
1.0
 41
5.608917882989266
 42
6.957452731369907
  0
LINE
  5
23D
330
1F
100
AcDbEntity
  8
Untitled
 62
     7
370
     5
100
AcDbLine
 10
-0.722117
 20
-81.296745
 30
0.0
 11
-0.722117
 21
-50.255995
 31
0.0
  0
LINE
  5
23E
330
1F
100
AcDbEntity
  8
Untitled
 62
     7
370
     5
100
AcDbLine
 10
-1.874804
 20
-55.853745
 30
0.0
 11
-1.874804
 21
-54.970745
 31
0.0
  0
LINE
  5
23F
330
1F
100
AcDbEntity
  8
Untitled
 62
     7
370
     5
100
AcDbLine
 10
-32.722117
 20
-81.296745
 30
0.0
 11
-32.722117
 21
-50.255995
 31
0.0
  0
LINE
  5
240
330
1F
100
AcDbEntity
  8
Untitled
 62
     7
370
     5
100
AcDbLine
 10
-31.156431
 20
-54.970745
 30
0.0
 11
-31.156431
 21
-55.853745
 31
0.0
  0
LINE
  5
241
330
1F
100
AcDbEntity
  8
Untitled
 62
     7
370
     5
100
AcDbLine
 10
-31.619431
 20
-55.853745
 30
0.0
 11
-31.619431
 21
-54.970745
 31
0.0
  0
LINE
  5
242
330
1F
100
AcDbEntity
  8
Untitled
 62
     7
370
     5
100
AcDbLine
 10
-31.081431
 20
-55.778745
 30
0.0
 11
-31.081431
 21
-55.045745
 31
0.0
  0
ELLIPSE
  5
243
330
1F
100
AcDbEntity
  8
Untitled
 62
     7
370
     5
100
AcDbEllipse
 10
-31.674931
 20
-55.412245
 30
0.0
 11
0.3125000000000804
 21
0.0
 31
0.0
210
0.0
220
0.0
230
1.0
 40
1.0
 41
2.467325229399483
 42
3.815860077780103
  0
LINE
  5
244
330
1F
100
AcDbEntity
  8
Untitled
 62
     7
370
     5
100
AcDbLine
 10
-31.569431
 20
-55.853745
 30
0.0
 11
-31.569431
 21
-54.970745
 31
0.0
  0
LINE
  5
245
330
1F
100
AcDbEntity
  8
Untitled
 62
     7
370
     5
100
AcDbLine
 10
-2.362804
 20
-55.724745
 30
0.0
 11
-31.081431
 21
-55.724745
 31
0.0
  0
LINE
  5
246
330
1F
100
AcDbEntity
  8
Untitled
 62
     7
370
     5
100
AcDbLine
 10
-31.722117
 20
-81.296745
 30
0.0
 11
-31.722117
 21
-55.853745
 31
0.0
  0
LINE
  5
247
330
1F
100
AcDbEntity
  8
Untitled
 62
     7
370
     5
100
AcDbLine
 10
-32.774617
 20
-82.099745
 30
0.0
 11
-31.669617
 21
-82.099745
 31
0.0
  0
LINE
  5
248
330
1F
100
AcDbEntity
  8
Untitled
 62
     7
370
     5
100
AcDbLine
 10
-31.594617
 20
-81.631745
 30
0.0
 11
-31.594617
 21
-81.421745
 31
0.0
  0
LINE
  5
249
330
1F
100
AcDbEntity
  8
Untitled
 62
     7
370
     5
100
AcDbLine
 10
-32.849617
 20
-81.681745
 30
0.0
 11
-32.849617
 21
-82.024745
 31
0.0
  0
LINE
  5
24A
330
1F
100
AcDbEntity
  8
Untitled
 62
     7
370
     5
100
AcDbLine
 10
-32.774617
 20
-82.099745
 30
0.0
 11
-32.849617
 21
-82.024745
 31
0.0
  0
LINE
  5
24B
330
1F
100
AcDbEntity
  8
Untitled
 62
     7
370
     5
100
AcDbLine
 10
-31.594617
 20
-82.024745
 30
0.0
 11
-31.669617
 21
-82.099745
 31
0.0
  0
LINE
  5
24C
330
1F
100
AcDbEntity
  8
Untitled
 62
     7
370
     5
100
AcDbLine
 10
-32.849617
 20
-82.024745
 30
0.0
 11
-31.594617
 21
-82.024745
 31
0.0
  0
LINE
  5
24D
330
1F
100
AcDbEntity
  8
Untitled
 62
     7
370
     5
100
AcDbLine
 10
-32.774617
 20
-81.296745
 30
0.0
 11
-32.849617
 21
-81.421745
 31
0.0
  0
LINE
  5
24E
330
1F
100
AcDbEntity
  8
Untitled
 62
     7
370
     5
100
AcDbLine
 10
-31.669617
 20
-81.296745
 30
0.0
 11
-31.594617
 21
-81.421745
 31
0.0
  0
LINE
  5
24F
330
1F
100
AcDbEntity
  8
Untitled
 62
     7
370
     5
100
AcDbLine
 10
-31.669617
 20
-81.296745
 30
0.0
 11
-32.774617
 21
-81.296745
 31
0.0
  0
LINE
  5
250
330
1F
100
AcDbEntity
  8
Untitled
 62
     7
370
     5
100
AcDbLine
 10
-32.849617
 20
-81.421745
 30
0.0
 11
-31.594617
 21
-81.421745
 31
0.0
  0
LINE
  5
251
330
1F
100
AcDbEntity
  8
Untitled
 62
     7
370
     5
100
AcDbLine
 10
-31.594617
 20
-81.631745
 30
0.0
 11
-32.849617
 21
-81.631745
 31
0.0
  0
LINE
  5
252
330
1F
100
AcDbEntity
  8
Untitled
 62
     7
370
     5
100
AcDbLine
 10
-31.594617
 20
-81.681745
 30
0.0
 11
-32.849617
 21
-81.681745
 31
0.0
  0
LINE
  5
253
330
1F
100
AcDbEntity
  8
Untitled
 62
     7
370
     5
100
AcDbLine
 10
-32.799617
 20
-81.656745
 30
0.0
 11
-32.849617
 21
-81.681745
 31
0.0
  0
LINE
  5
254
330
1F
100
AcDbEntity
  8
Untitled
 62
     7
370
     5
100
AcDbLine
 10
-32.799617
 20
-81.656745
 30
0.0
 11
-32.849617
 21
-81.631745
 31
0.0
  0
LINE
  5
255
330
1F
100
AcDbEntity
  8
Untitled
 62
     7
370
     5
100
AcDbLine
 10
-31.644617
 20
-81.656745
 30
0.0
 11
-31.594617
 21
-81.681745
 31
0.0
  0
LINE
  5
256
330
1F
100
AcDbEntity
  8
Untitled
 62
     7
370
     5
100
AcDbLine
 10
-31.644617
 20
-81.656745
 30
0.0
 11
-31.594617
 21
-81.631745
 31
0.0
  0
LINE
  5
257
330
1F
100
AcDbEntity
  8
Untitled
 62
     7
370
     5
100
AcDbLine
 10
-32.849617
 20
-81.421745
 30
0.0
 11
-32.849617
 21
-81.631745
 31
0.0
  0
LINE
  5
258
330
1F
100
AcDbEntity
  8
Untitled
 62
     7
370
     5
100
AcDbLine
 10
-31.594617
 20
-82.024745
 30
0.0
 11
-31.594617
 21
-81.681745
 31
0.0
  0
LINE
  5
259
330
1F
100
AcDbEntity
  8
Untitled
 62
     7
370
     5
100
AcDbLine
 10
-31.081431
 20
-55.778745
 30
0.0
 11
-31.156431
 21
-55.853745
 31
0.0
  0
LINE
  5
25A
330
1F
100
AcDbEntity
  8
Untitled
 62
     7
370
     5
100
AcDbLine
 10
-31.722117
 20
-55.853745
 30
0.0
 11
-31.919045
 21
-55.607347
 31
0.0
  0
LINE
  5
25B
330
1F
100
AcDbEntity
  8
Untitled
 62
     7
370
     5
100
AcDbLine
 10
-31.569431
 20
-55.853745
 30
0.0
 11
-31.156431
 21
-55.853745
 31
0.0
  0
LINE
  5
25C
330
1F
100
AcDbEntity
  8
Untitled
 62
     7
370
     5
100
AcDbLine
 10
-31.594431
 20
-55.803745
 30
0.0
 11
-31.569431
 21
-55.853745
 31
0.0
  0
LINE
  5
25D
330
1F
100
AcDbEntity
  8
Untitled
 62
     7
370
     5
100
AcDbLine
 10
-31.594431
 20
-55.803745
 30
0.0
 11
-31.619431
 21
-55.853745
 31
0.0
  0
LINE
  5
25E
330
1F
100
AcDbEntity
  8
Untitled
 62
     7
370
     5
100
AcDbLine
 10
-31.722117
 20
-55.853745
 30
0.0
 11
-31.619431
 21
-55.853745
 31
0.0
  0
LINE
  5
25F
330
1F
100
AcDbEntity
  8
Untitled
 62
     7
370
     5
100
AcDbLine
 10
-1.722117
 20
-81.296745
 30
0.0
 11
-1.722117
 21
-55.853745
 31
0.0
  0
LINE
  5
260
330
1F
100
AcDbEntity
  8
Untitled
 62
     7
370
     5
100
AcDbLine
 10
-0.669617
 20
-82.099745
 30
0.0
 11
-1.774617
 21
-82.099745
 31
0.0
  0
LINE
  5
261
330
1F
100
AcDbEntity
  8
Untitled
 62
     7
370
     5
100
AcDbLine
 10
-1.849617
 20
-81.631745
 30
0.0
 11
-1.849617
 21
-81.421745
 31
0.0
  0
LINE
  5
262
330
1F
100
AcDbEntity
  8
Untitled
 62
     7
370
     5
100
AcDbLine
 10
-0.594617
 20
-81.681745
 30
0.0
 11
-0.594617
 21
-82.024745
 31
0.0
  0
LINE
  5
263
330
1F
100
AcDbEntity
  8
Untitled
 62
     7
370
     5
100
AcDbLine
 10
-0.669617
 20
-82.099745
 30
0.0
 11
-0.594617
 21
-82.024745
 31
0.0
  0
LINE
  5
264
330
1F
100
AcDbEntity
  8
Untitled
 62
     7
370
     5
100
AcDbLine
 10
-1.849617
 20
-82.024745
 30
0.0
 11
-1.774617
 21
-82.099745
 31
0.0
  0
LINE
  5
265
330
1F
100
AcDbEntity
  8
Untitled
 62
     7
370
     5
100
AcDbLine
 10
-0.594617
 20
-82.024745
 30
0.0
 11
-1.849617
 21
-82.024745
 31
0.0
  0
LINE
  5
266
330
1F
100
AcDbEntity
  8
Untitled
 62
     7
370
     5
100
AcDbLine
 10
-0.669617
 20
-81.296745
 30
0.0
 11
-0.594617
 21
-81.421745
 31
0.0
  0
LINE
  5
267
330
1F
100
AcDbEntity
  8
Untitled
 62
     7
370
     5
100
AcDbLine
 10
-1.774617
 20
-81.296745
 30
0.0
 11
-1.849617
 21
-81.421745
 31
0.0
  0
LINE
  5
268
330
1F
100
AcDbEntity
  8
Untitled
 62
     7
370
     5
100
AcDbLine
 10
-1.774617
 20
-81.296745
 30
0.0
 11
-0.669617
 21
-81.296745
 31
0.0
  0
LINE
  5
269
330
1F
100
AcDbEntity
  8
Untitled
 62
     7
370
     5
100
AcDbLine
 10
-0.594617
 20
-81.421745
 30
0.0
 11
-1.849617
 21
-81.421745
 31
0.0
  0
LINE
  5
26A
330
1F
100
AcDbEntity
  8
Untitled
 62
     7
370
     5
100
AcDbLine
 10
-1.849617
 20
-81.631745
 30
0.0
 11
-0.594617
 21
-81.631745
 31
0.0
  0
LINE
  5
26B
330
1F
100
AcDbEntity
  8
Untitled
 62
     7
370
     5
100
AcDbLine
 10
-1.849617
 20
-81.681745
 30
0.0
 11
-0.594617
 21
-81.681745
 31
0.0
  0
LINE
  5
26C
330
1F
100
AcDbEntity
  8
Untitled
 62
     7
370
     5
100
AcDbLine
 10
-0.644617
 20
-81.656745
 30
0.0
 11
-0.594617
 21
-81.681745
 31
0.0
  0
LINE
  5
26D
330
1F
100
AcDbEntity
  8
Untitled
 62
     7
370
     5
100
AcDbLine
 10
-0.644617
 20
-81.656745
 30
0.0
 11
-0.594617
 21
-81.631745
 31
0.0
  0
LINE
  5
26E
330
1F
100
AcDbEntity
  8
Untitled
 62
     7
370
     5
100
AcDbLine
 10
-1.799617
 20
-81.656745
 30
0.0
 11
-1.849617
 21
-81.681745
 31
0.0
  0
LINE
  5
26F
330
1F
100
AcDbEntity
  8
Untitled
 62
     7
370
     5
100
AcDbLine
 10
-1.799617
 20
-81.656745
 30
0.0
 11
-1.849617
 21
-81.631745
 31
0.0
  0
LINE
  5
270
330
1F
100
AcDbEntity
  8
Untitled
 62
     7
370
     5
100
AcDbLine
 10
-0.594617
 20
-81.421745
 30
0.0
 11
-0.594617
 21
-81.631745
 31
0.0
  0
LINE
  5
271
330
1F
100
AcDbEntity
  8
Untitled
 62
     7
370
     5
100
AcDbLine
 10
-1.849617
 20
-82.024745
 30
0.0
 11
-1.849617
 21
-81.681745
 31
0.0
  0
LINE
  5
272
330
1F
100
AcDbEntity
  8
Untitled
 62
     7
370
     5
100
AcDbLine
 10
-2.362804
 20
-55.778745
 30
0.0
 11
-2.287804
 21
-55.853745
 31
0.0
  0
LINE
  5
273
330
1F
100
AcDbEntity
  8
Untitled
 62
     7
370
     5
100
AcDbLine
 10
-1.722117
 20
-55.853745
 30
0.0
 11
-1.52519
 21
-55.607347
 31
0.0
  0
LINE
  5
274
330
1F
100
AcDbEntity
  8
Untitled
 62
     7
370
     5
100
AcDbLine
 10
-1.874804
 20
-55.853745
 30
0.0
 11
-2.287804
 21
-55.853745
 31
0.0
  0
LINE
  5
275
330
1F
100
AcDbEntity
  8
Untitled
 62
     7
370
     5
100
AcDbLine
 10
-1.849804
 20
-55.803745
 30
0.0
 11
-1.874804
 21
-55.853745
 31
0.0
  0
LINE
  5
276
330
1F
100
AcDbEntity
  8
Untitled
 62
     7
370
     5
100
AcDbLine
 10
-1.849804
 20
-55.803745
 30
0.0
 11
-1.824804
 21
-55.853745
 31
0.0
  0
LINE
  5
277
330
1F
100
AcDbEntity
  8
Untitled
 62
     7
370
     5
100
AcDbLine
 10
-1.722117
 20
-55.853745
 30
0.0
 11
-1.824804
 21
-55.853745
 31
0.0
  0
LINE
  5
278
330
1F
100
AcDbEntity
  8
Untitled
 62
     7
370
     5
100
AcDbLine
 10
-31.081431
 20
-55.099745
 30
0.0
 11
-2.362804
 21
-55.099745
 31
0.0
  0
LINE
  5
279
330
1F
100
AcDbEntity
  8
Untitled
 62
     7
370
     5
100
AcDbLine
 10
-31.722117
 20
-54.970745
 30
0.0
 11
-31.722117
 21
-50.255995
 31
0.0
  0
LINE
  5
27A
330
1F
100
AcDbEntity
  8
Untitled
 62
     7
370
     5
100
AcDbLine
 10
-31.156431
 20
-54.970745
 30
0.0
 11
-31.569431
 21
-54.970745
 31
0.0
  0
LINE
  5
27B
330
1F
100
AcDbEntity
  8
Untitled
 62
     7
370
     5
100
AcDbLine
 10
-31.081431
 20
-55.045745
 30
0.0
 11
-31.156431
 21
-54.970745
 31
0.0
  0
LINE
  5
27C
330
1F
100
AcDbEntity
  8
Untitled
 62
     7
370
     5
100
AcDbLine
 10
-31.594431
 20
-55.020745
 30
0.0
 11
-31.569431
 21
-54.970745
 31
0.0
  0
LINE
  5
27D
330
1F
100
AcDbEntity
  8
Untitled
 62
     7
370
     5
100
AcDbLine
 10
-31.594431
 20
-55.020745
 30
0.0
 11
-31.619431
 21
-54.970745
 31
0.0
  0
LINE
  5
27E
330
1F
100
AcDbEntity
  8
Untitled
 62
     7
370
     5
100
AcDbLine
 10
-31.722117
 20
-54.970745
 30
0.0
 11
-31.619431
 21
-54.970745
 31
0.0
  0
LINE
  5
27F
330
1F
100
AcDbEntity
  8
Untitled
 62
     7
370
     5
100
AcDbLine
 10
-31.722117
 20
-54.970745
 30
0.0
 11
-31.919045
 21
-55.217144
 31
0.0
  0
LINE
  5
280
330
1F
100
AcDbEntity
  8
Untitled
 62
     7
370
     5
100
AcDbLine
 10
-31.702117
 20
-50.099745
 30
0.0
 11
-32.742117
 21
-50.099745
 31
0.0
  0
LINE
  5
281
330
1F
100
AcDbEntity
  8
Untitled
 62
     7
370
     5
100
AcDbLine
 10
-32.762117
 20
-50.119745
 30
0.0
 11
-32.762117
 21
-50.255995
 31
0.0
  0
LINE
  5
282
330
1F
100
AcDbEntity
  8
Untitled
 62
     7
370
     5
100
AcDbLine
 10
-31.682117
 20
-50.119745
 30
0.0
 11
-31.682117
 21
-50.255995
 31
0.0
  0
LINE
  5
283
330
1F
100
AcDbEntity
  8
Untitled
 62
     7
370
     5
100
AcDbLine
 10
-31.682117
 20
-50.255995
 30
0.0
 11
-32.762117
 21
-50.255995
 31
0.0
  0
LINE
  5
284
330
1F
100
AcDbEntity
  8
Untitled
 62
     7
370
     5
100
AcDbLine
 10
-31.682117
 20
-50.119745
 30
0.0
 11
-31.702117
 21
-50.099745
 31
0.0
  0
LINE
  5
285
330
1F
100
AcDbEntity
  8
Untitled
 62
     7
370
     5
100
AcDbLine
 10
-32.762117
 20
-50.119745
 30
0.0
 11
-32.742117
 21
-50.099745
 31
0.0
  0
LINE
  5
286
330
1F
100
AcDbEntity
  8
Untitled
 62
     7
370
     5
100
AcDbLine
 10
-31.682117
 20
-50.119745
 30
0.0
 11
-32.762117
 21
-50.119745
 31
0.0
  0
LINE
  5
287
330
1F
100
AcDbEntity
  8
Untitled
 62
     7
370
     5
100
AcDbLine
 10
-1.742117
 20
-50.099745
 30
0.0
 11
-0.702117
 21
-50.099745
 31
0.0
  0
LINE
  5
288
330
1F
100
AcDbEntity
  8
Untitled
 62
     7
370
     5
100
AcDbLine
 10
-0.682117
 20
-50.119745
 30
0.0
 11
-0.682117
 21
-50.255995
 31
0.0
  0
LINE
  5
289
330
1F
100
AcDbEntity
  8
Untitled
 62
     7
370
     5
100
AcDbLine
 10
-1.762117
 20
-50.119745
 30
0.0
 11
-1.762117
 21
-50.255995
 31
0.0
  0
LINE
  5
28A
330
1F
100
AcDbEntity
  8
Untitled
 62
     7
370
     5
100
AcDbLine
 10
-1.762117
 20
-50.255995
 30
0.0
 11
-0.682117
 21
-50.255995
 31
0.0
  0
LINE
  5
28B
330
1F
100
AcDbEntity
  8
Untitled
 62
     7
370
     5
100
AcDbLine
 10
-1.762117
 20
-50.119745
 30
0.0
 11
-1.742117
 21
-50.099745
 31
0.0
  0
LINE
  5
28C
330
1F
100
AcDbEntity
  8
Untitled
 62
     7
370
     5
100
AcDbLine
 10
-0.682117
 20
-50.119745
 30
0.0
 11
-0.702117
 21
-50.099745
 31
0.0
  0
LINE
  5
28D
330
1F
100
AcDbEntity
  8
Untitled
 62
     7
370
     5
100
AcDbLine
 10
-1.762117
 20
-50.119745
 30
0.0
 11
-0.682117
 21
-50.119745
 31
0.0
  0
LINE
  5
28E
330
1F
100
AcDbEntity
  8
Untitled
 62
     7
370
     5
100
AcDbLine
 10
-2.287804
 20
-54.970745
 30
0.0
 11
-1.874804
 21
-54.970745
 31
0.0
  0
LINE
  5
28F
330
1F
100
AcDbEntity
  8
Untitled
 62
     7
370
     5
100
AcDbLine
 10
-2.362804
 20
-55.045745
 30
0.0
 11
-2.287804
 21
-54.970745
 31
0.0
  0
LINE
  5
290
330
1F
100
AcDbEntity
  8
Untitled
 62
     7
370
     5
100
AcDbLine
 10
-1.849804
 20
-55.020745
 30
0.0
 11
-1.874804
 21
-54.970745
 31
0.0
  0
LINE
  5
291
330
1F
100
AcDbEntity
  8
Untitled
 62
     7
370
     5
100
AcDbLine
 10
-1.849804
 20
-55.020745
 30
0.0
 11
-1.824804
 21
-54.970745
 31
0.0
  0
LINE
  5
292
330
1F
100
AcDbEntity
  8
Untitled
 62
     7
370
     5
100
AcDbLine
 10
-1.722117
 20
-54.970745
 30
0.0
 11
-1.824804
 21
-54.970745
 31
0.0
  0
LINE
  5
293
330
1F
100
AcDbEntity
  8
Untitled
 62
     7
370
     5
100
AcDbLine
 10
-1.722117
 20
-54.970745
 30
0.0
 11
-1.52519
 21
-55.217144
 31
0.0
  0
LINE
  5
294
330
1F
100
AcDbEntity
  8
Untitled
 62
     7
370
     5
100
AcDbLine
 10
-1.722117
 20
-54.970745
 30
0.0
 11
-1.722117
 21
-50.255995
 31
0.0
  0
LINE
  5
295
330
1F
100
AcDbEntity
  8
Untitled
 62
     7
370
     5
100
AcDbLine
 10
41.418569
 20
20.275255
 30
0.0
 11
61.073883
 21
20.275255
 31
0.0
  0
LINE
  5
296
330
1F
100
AcDbEntity
  8
Untitled
 62
     7
370
     5
100
AcDbLine
 10
61.073883
 20
19.650255
 30
0.0
 11
41.418569
 21
19.650255
 31
0.0
  0
LINE
  5
297
330
1F
100
AcDbEntity
  8
Untitled
 62
     7
370
     5
100
AcDbLine
 10
39.777883
 20
-5.296745
 30
0.0
 11
39.777883
 21
25.744005
 31
0.0
  0
LINE
  5
298
330
1F
100
AcDbEntity
  8
Untitled
 62
     7
370
     5
100
AcDbLine
 10
40.777883
 20
20.404255
 30
0.0
 11
40.777883
 21
25.744005
 31
0.0
  0
LINE
  5
299
330
1F
100
AcDbEntity
  8
Untitled
 62
     7
370
     5
100
AcDbLine
 10
40.777883
 20
-5.296745
 30
0.0
 11
40.777883
 21
19.521255
 31
0.0
  0
LINE
  5
29A
330
1F
100
AcDbEntity
  8
Untitled
 62
     7
370
     5
100
AcDbLine
 10
39.725383
 20
-6.099745
 30
0.0
 11
40.830383
 21
-6.099745
 31
0.0
  0
LINE
  5
29B
330
1F
100
AcDbEntity
  8
Untitled
 62
     7
370
     5
100
AcDbLine
 10
40.905383
 20
-5.631745
 30
0.0
 11
40.905383
 21
-5.421745
 31
0.0
  0
LINE
  5
29C
330
1F
100
AcDbEntity
  8
Untitled
 62
     7
370
     5
100
AcDbLine
 10
39.650383
 20
-5.681745
 30
0.0
 11
39.650383
 21
-6.024745
 31
0.0
  0
LINE
  5
29D
330
1F
100
AcDbEntity
  8
Untitled
 62
     7
370
     5
100
AcDbLine
 10
39.725383
 20
-6.099745
 30
0.0
 11
39.650383
 21
-6.024745
 31
0.0
  0
LINE
  5
29E
330
1F
100
AcDbEntity
  8
Untitled
 62
     7
370
     5
100
AcDbLine
 10
40.905383
 20
-6.024745
 30
0.0
 11
40.830383
 21
-6.099745
 31
0.0
  0
LINE
  5
29F
330
1F
100
AcDbEntity
  8
Untitled
 62
     7
370
     5
100
AcDbLine
 10
39.650383
 20
-6.024745
 30
0.0
 11
40.905383
 21
-6.024745
 31
0.0
  0
LINE
  5
2A0
330
1F
100
AcDbEntity
  8
Untitled
 62
     7
370
     5
100
AcDbLine
 10
39.725383
 20
-5.296745
 30
0.0
 11
39.650383
 21
-5.421745
 31
0.0
  0
LINE
  5
2A1
330
1F
100
AcDbEntity
  8
Untitled
 62
     7
370
     5
100
AcDbLine
 10
40.830383
 20
-5.296745
 30
0.0
 11
40.905383
 21
-5.421745
 31
0.0
  0
LINE
  5
2A2
330
1F
100
AcDbEntity
  8
Untitled
 62
     7
370
     5
100
AcDbLine
 10
40.830383
 20
-5.296745
 30
0.0
 11
39.725383
 21
-5.296745
 31
0.0
  0
LINE
  5
2A3
330
1F
100
AcDbEntity
  8
Untitled
 62
     7
370
     5
100
AcDbLine
 10
39.650383
 20
-5.421745
 30
0.0
 11
40.905383
 21
-5.421745
 31
0.0
  0
LINE
  5
2A4
330
1F
100
AcDbEntity
  8
Untitled
 62
     7
370
     5
100
AcDbLine
 10
40.905383
 20
-5.631745
 30
0.0
 11
39.650383
 21
-5.631745
 31
0.0
  0
LINE
  5
2A5
330
1F
100
AcDbEntity
  8
Untitled
 62
     7
370
     5
100
AcDbLine
 10
40.905383
 20
-5.681745
 30
0.0
 11
39.650383
 21
-5.681745
 31
0.0
  0
LINE
  5
2A6
330
1F
100
AcDbEntity
  8
Untitled
 62
     7
370
     5
100
AcDbLine
 10
39.700383
 20
-5.656745
 30
0.0
 11
39.650383
 21
-5.681745
 31
0.0
  0
LINE
  5
2A7
330
1F
100
AcDbEntity
  8
Untitled
 62
     7
370
     5
100
AcDbLine
 10
39.700383
 20
-5.656745
 30
0.0
 11
39.650383
 21
-5.631745
 31
0.0
  0
LINE
  5
2A8
330
1F
100
AcDbEntity
  8
Untitled
 62
     7
370
     5
100
AcDbLine
 10
40.855383
 20
-5.656745
 30
0.0
 11
40.905383
 21
-5.681745
 31
0.0
  0
LINE
  5
2A9
330
1F
100
AcDbEntity
  8
Untitled
 62
     7
370
     5
100
AcDbLine
 10
40.855383
 20
-5.656745
 30
0.0
 11
40.905383
 21
-5.631745
 31
0.0
  0
LINE
  5
2AA
330
1F
100
AcDbEntity
  8
Untitled
 62
     7
370
     5
100
AcDbLine
 10
39.650383
 20
-5.421745
 30
0.0
 11
39.650383
 21
-5.631745
 31
0.0
  0
LINE
  5
2AB
330
1F
100
AcDbEntity
  8
Untitled
 62
     7
370
     5
100
AcDbLine
 10
40.905383
 20
-6.024745
 30
0.0
 11
40.905383
 21
-5.681745
 31
0.0
  0
LINE
  5
2AC
330
1F
100
AcDbEntity
  8
Untitled
 62
     7
370
     5
100
AcDbLine
 10
41.418569
 20
19.596255
 30
0.0
 11
41.343569
 21
19.521255
 31
0.0
  0
LINE
  5
2AD
330
1F
100
AcDbEntity
  8
Untitled
 62
     7
370
     5
100
AcDbLine
 10
41.343569
 20
20.404255
 30
0.0
 11
41.343569
 21
19.521255
 31
0.0
  0
LINE
  5
2AE
330
1F
100
AcDbEntity
  8
Untitled
 62
     7
370
     5
100
AcDbLine
 10
40.880569
 20
19.521255
 30
0.0
 11
40.880569
 21
20.404255
 31
0.0
  0
LINE
  5
2AF
330
1F
100
AcDbEntity
  8
Untitled
 62
     7
370
     5
100
AcDbLine
 10
40.777883
 20
19.521255
 30
0.0
 11
40.580955
 21
19.767653
 31
0.0
  0
LINE
  5
2B0
330
1F
100
AcDbEntity
  8
Untitled
 62
     7
370
     5
100
AcDbLine
 10
40.930569
 20
19.521255
 30
0.0
 11
41.343569
 21
19.521255
 31
0.0
  0
LINE
  5
2B1
330
1F
100
AcDbEntity
  8
Untitled
 62
     7
370
     5
100
AcDbLine
 10
40.905569
 20
19.571255
 30
0.0
 11
40.930569
 21
19.521255
 31
0.0
  0
LINE
  5
2B2
330
1F
100
AcDbEntity
  8
Untitled
 62
     7
370
     5
100
AcDbLine
 10
40.905569
 20
19.571255
 30
0.0
 11
40.880569
 21
19.521255
 31
0.0
  0
LINE
  5
2B3
330
1F
100
AcDbEntity
  8
Untitled
 62
     7
370
     5
100
AcDbLine
 10
40.777883
 20
19.521255
 30
0.0
 11
40.880569
 21
19.521255
 31
0.0
  0
LINE
  5
2B4
330
1F
100
AcDbEntity
  8
Untitled
 62
     7
370
     5
100
AcDbLine
 10
41.343569
 20
20.404255
 30
0.0
 11
40.930569
 21
20.404255
 31
0.0
  0
LINE
  5
2B5
330
1F
100
AcDbEntity
  8
Untitled
 62
     7
370
     5
100
AcDbLine
 10
41.418569
 20
19.596255
 30
0.0
 11
41.418569
 21
20.329255
 31
0.0
  0
LINE
  5
2B6
330
1F
100
AcDbEntity
  8
Untitled
 62
     7
370
     5
100
AcDbLine
 10
41.418569
 20
20.329255
 30
0.0
 11
41.343569
 21
20.404255
 31
0.0
  0
LINE
  5
2B7
330
1F
100
AcDbEntity
  8
Untitled
 62
     7
370
     5
100
AcDbLine
 10
40.905569
 20
20.354255
 30
0.0
 11
40.930569
 21
20.404255
 31
0.0
  0
LINE
  5
2B8
330
1F
100
AcDbEntity
  8
Untitled
 62
     7
370
     5
100
AcDbLine
 10
40.905569
 20
20.354255
 30
0.0
 11
40.880569
 21
20.404255
 31
0.0
  0
LINE
  5
2B9
330
1F
100
AcDbEntity
  8
Untitled
 62
     7
370
     5
100
AcDbLine
 10
40.777883
 20
20.404255
 30
0.0
 11
40.880569
 21
20.404255
 31
0.0
  0
LINE
  5
2BA
330
1F
100
AcDbEntity
  8
Untitled
 62
     7
370
     5
100
AcDbLine
 10
40.777883
 20
20.404255
 30
0.0
 11
40.580955
 21
20.157856
 31
0.0
  0
ELLIPSE
  5
2BB
330
1F
100
AcDbEntity
  8
Untitled
 62
     7
370
     5
100
AcDbEllipse
 10
40.825069
 20
19.962755
 30
0.0
 11
0.3124999999998545
 21
0.0
 31
0.0
210
0.0
220
0.0
230
1.0
 40
1.0
 41
2.467325229399386
 42
3.815860077780191
  0
LINE
  5
2BC
330
1F
100
AcDbEntity
  8
Untitled
 62
     7
370
     5
100
AcDbLine
 10
40.930569
 20
19.521255
 30
0.0
 11
40.930569
 21
20.404255
 31
0.0
  0
LINE
  5
2BD
330
1F
100
AcDbEntity
  8
Untitled
 62
     7
370
     5
100
AcDbLine
 10
40.797883
 20
25.900255
 30
0.0
 11
39.757883
 21
25.900255
 31
0.0
  0
LINE
  5
2BE
330
1F
100
AcDbEntity
  8
Untitled
 62
     7
370
     5
100
AcDbLine
 10
39.737883
 20
25.880255
 30
0.0
 11
39.737883
 21
25.744005
 31
0.0
  0
LINE
  5
2BF
330
1F
100
AcDbEntity
  8
Untitled
 62
     7
370
     5
100
AcDbLine
 10
40.817883
 20
25.880255
 30
0.0
 11
40.817883
 21
25.744005
 31
0.0
  0
LINE
  5
2C0
330
1F
100
AcDbEntity
  8
Untitled
 62
     7
370
     5
100
AcDbLine
 10
40.817883
 20
25.744005
 30
0.0
 11
39.737883
 21
25.744005
 31
0.0
  0
LINE
  5
2C1
330
1F
100
AcDbEntity
  8
Untitled
 62
     7
370
     5
100
AcDbLine
 10
40.817883
 20
25.880255
 30
0.0
 11
40.797883
 21
25.900255
 31
0.0
  0
LINE
  5
2C2
330
1F
100
AcDbEntity
  8
Untitled
 62
     7
370
     5
100
AcDbLine
 10
39.737883
 20
25.880255
 30
0.0
 11
39.757883
 21
25.900255
 31
0.0
  0
LINE
  5
2C3
330
1F
100
AcDbEntity
  8
Untitled
 62
     7
370
     5
100
AcDbLine
 10
40.817883
 20
25.880255
 30
0.0
 11
39.737883
 21
25.880255
 31
0.0
  0
LINE
  5
2C4
330
1F
100
AcDbEntity
  8
Untitled
 62
     7
370
     5
100
AcDbLine
 10
61.576883
 20
20.404255
 30
0.0
 11
61.148883
 21
20.404255
 31
0.0
  0
LINE
  5
2C5
330
1F
100
AcDbEntity
  8
Untitled
 62
     7
370
     5
100
AcDbLine
 10
61.148883
 20
19.521255
 30
0.0
 11
61.576883
 21
19.521255
 31
0.0
  0
LINE
  5
2C6
330
1F
100
AcDbEntity
  8
Untitled
 62
     7
370
     5
100
AcDbLine
 10
61.073883
 20
20.329255
 30
0.0
 11
61.073883
 21
19.596255
 31
0.0
  0
LINE
  5
2C7
330
1F
100
AcDbEntity
  8
Untitled
 62
     7
370
     5
100
AcDbLine
 10
61.148883
 20
19.521255
 30
0.0
 11
61.073883
 21
19.596255
 31
0.0
  0
LINE
  5
2C8
330
1F
100
AcDbEntity
  8
Untitled
 62
     7
370
     5
100
AcDbLine
 10
61.148883
 20
20.404255
 30
0.0
 11
61.073883
 21
20.329255
 31
0.0
  0
LINE
  5
2C9
330
1F
100
AcDbEntity
  8
Untitled
 62
     7
370
     5
100
AcDbLine
 10
61.148883
 20
19.521255
 30
0.0
 11
61.148883
 21
20.404255
 31
0.0
  0
LINE
  5
2CA
330
1F
100
AcDbEntity
  8
Untitled
 62
     7
370
     5
100
AcDbLine
 10
61.601883
 20
19.571255
 30
0.0
 11
61.576883
 21
19.521255
 31
0.0
  0
LINE
  5
2CB
330
1F
100
AcDbEntity
  8
Untitled
 62
     7
370
     5
100
AcDbLine
 10
61.601883
 20
20.354255
 30
0.0
 11
61.576883
 21
20.404255
 31
0.0
  0
LINE
  5
2CC
330
1F
100
AcDbEntity
  8
Untitled
 62
     7
370
     5
100
AcDbLine
 10
61.576883
 20
20.404255
 30
0.0
 11
61.576883
 21
19.521255
 31
0.0
  0
LINE
  5
2CD
330
1F
100
AcDbEntity
  8
Untitled
 62
     7
370
     5
100
AcDbLine
 10
61.626883
 20
19.521255
 30
0.0
 11
61.752883
 21
19.521255
 31
0.0
  0
LINE
  5
2CE
330
1F
100
AcDbEntity
  8
Untitled
 62
     7
370
     5
100
AcDbLine
 10
61.777883
 20
19.546255
 30
0.0
 11
61.777883
 21
20.379255
 31
0.0
  0
ELLIPSE
  5
2CF
330
1F
100
AcDbEntity
  8
Untitled
 62
     7
370
     5
100
AcDbEllipse
 10
61.752883
 20
19.546255
 30
0.0
 11
0.02499999999999858
 21
0.0
 31
0.0
210
0.0
220
0.0
230
1.0
 40
1.0
 41
4.71238898038469
 42
6.283185307179586
  0
ELLIPSE
  5
2D0
330
1F
100
AcDbEntity
  8
Untitled
 62
     7
370
     5
100
AcDbEllipse
 10
61.752883
 20
20.379255
 30
0.0
 11
0.02499999999999858
 21
0.0
 31
0.0
210
0.0
220
0.0
230
1.0
 40
1.0
 41
0.0
 42
1.570796326794897
  0
LINE
  5
2D1
330
1F
100
AcDbEntity
  8
Untitled
 62
     7
370
     5
100
AcDbLine
 10
61.752883
 20
19.521255
 30
0.0
 11
61.752883
 21
20.404255
 31
0.0
  0
LINE
  5
2D2
330
1F
100
AcDbEntity
  8
Untitled
 62
     7
370
     5
100
AcDbLine
 10
61.626883
 20
20.404255
 30
0.0
 11
61.626883
 21
19.521255
 31
0.0
  0
LINE
  5
2D3
330
1F
100
AcDbEntity
  8
Untitled
 62
     7
370
     5
100
AcDbLine
 10
61.601883
 20
19.571255
 30
0.0
 11
61.626883
 21
19.521255
 31
0.0
  0
LINE
  5
2D4
330
1F
100
AcDbEntity
  8
Untitled
 62
     7
370
     5
100
AcDbLine
 10
61.601883
 20
20.354255
 30
0.0
 11
61.626883
 21
20.404255
 31
0.0
  0
LINE
  5
2D5
330
1F
100
AcDbEntity
  8
Untitled
 62
     7
370
     5
100
AcDbLine
 10
61.752883
 20
20.404255
 30
0.0
 11
61.626883
 21
20.404255
 31
0.0
  0
LINE
  5
2D6
330
1F
100
AcDbEntity
  8
Untitled
 62
     7
370
     5
100
AcDbLine
 10
44.168569
 20
-17.724745
 30
0.0
 11
63.823883
 21
-17.724745
 31
0.0
  0
LINE
  5
2D7
330
1F
100
AcDbEntity
  8
Untitled
 62
     7
370
     5
100
AcDbLine
 10
63.823883
 20
-18.349745
 30
0.0
 11
44.168569
 21
-18.349745
 31
0.0
  0
LINE
  5
2D8
330
1F
100
AcDbEntity
  8
Untitled
 62
     7
370
     5
100
AcDbLine
 10
42.527883
 20
-43.296745
 30
0.0
 11
42.527883
 21
-12.255995
 31
0.0
  0
LINE
  5
2D9
330
1F
100
AcDbEntity
  8
Untitled
 62
     7
370
     5
100
AcDbLine
 10
43.527883
 20
-17.595745
 30
0.0
 11
43.527883
 21
-12.255995
 31
0.0
  0
LINE
  5
2DA
330
1F
100
AcDbEntity
  8
Untitled
 62
     7
370
     5
100
AcDbLine
 10
43.527883
 20
-43.296745
 30
0.0
 11
43.527883
 21
-18.478745
 31
0.0
  0
LINE
  5
2DB
330
1F
100
AcDbEntity
  8
Untitled
 62
     7
370
     5
100
AcDbLine
 10
42.475383
 20
-44.099745
 30
0.0
 11
43.580383
 21
-44.099745
 31
0.0
  0
LINE
  5
2DC
330
1F
100
AcDbEntity
  8
Untitled
 62
     7
370
     5
100
AcDbLine
 10
43.655383
 20
-43.631745
 30
0.0
 11
43.655383
 21
-43.421745
 31
0.0
  0
LINE
  5
2DD
330
1F
100
AcDbEntity
  8
Untitled
 62
     7
370
     5
100
AcDbLine
 10
42.400383
 20
-43.681745
 30
0.0
 11
42.400383
 21
-44.024745
 31
0.0
  0
LINE
  5
2DE
330
1F
100
AcDbEntity
  8
Untitled
 62
     7
370
     5
100
AcDbLine
 10
42.475383
 20
-44.099745
 30
0.0
 11
42.400383
 21
-44.024745
 31
0.0
  0
LINE
  5
2DF
330
1F
100
AcDbEntity
  8
Untitled
 62
     7
370
     5
100
AcDbLine
 10
43.655383
 20
-44.024745
 30
0.0
 11
43.580383
 21
-44.099745
 31
0.0
  0
LINE
  5
2E0
330
1F
100
AcDbEntity
  8
Untitled
 62
     7
370
     5
100
AcDbLine
 10
42.400383
 20
-44.024745
 30
0.0
 11
43.655383
 21
-44.024745
 31
0.0
  0
LINE
  5
2E1
330
1F
100
AcDbEntity
  8
Untitled
 62
     7
370
     5
100
AcDbLine
 10
42.475383
 20
-43.296745
 30
0.0
 11
42.400383
 21
-43.421745
 31
0.0
  0
LINE
  5
2E2
330
1F
100
AcDbEntity
  8
Untitled
 62
     7
370
     5
100
AcDbLine
 10
43.580383
 20
-43.296745
 30
0.0
 11
43.655383
 21
-43.421745
 31
0.0
  0
LINE
  5
2E3
330
1F
100
AcDbEntity
  8
Untitled
 62
     7
370
     5
100
AcDbLine
 10
43.580383
 20
-43.296745
 30
0.0
 11
42.475383
 21
-43.296745
 31
0.0
  0
LINE
  5
2E4
330
1F
100
AcDbEntity
  8
Untitled
 62
     7
370
     5
100
AcDbLine
 10
42.400383
 20
-43.421745
 30
0.0
 11
43.655383
 21
-43.421745
 31
0.0
  0
LINE
  5
2E5
330
1F
100
AcDbEntity
  8
Untitled
 62
     7
370
     5
100
AcDbLine
 10
43.655383
 20
-43.631745
 30
0.0
 11
42.400383
 21
-43.631745
 31
0.0
  0
LINE
  5
2E6
330
1F
100
AcDbEntity
  8
Untitled
 62
     7
370
     5
100
AcDbLine
 10
43.655383
 20
-43.681745
 30
0.0
 11
42.400383
 21
-43.681745
 31
0.0
  0
LINE
  5
2E7
330
1F
100
AcDbEntity
  8
Untitled
 62
     7
370
     5
100
AcDbLine
 10
42.450383
 20
-43.656745
 30
0.0
 11
42.400383
 21
-43.681745
 31
0.0
  0
LINE
  5
2E8
330
1F
100
AcDbEntity
  8
Untitled
 62
     7
370
     5
100
AcDbLine
 10
42.450383
 20
-43.656745
 30
0.0
 11
42.400383
 21
-43.631745
 31
0.0
  0
LINE
  5
2E9
330
1F
100
AcDbEntity
  8
Untitled
 62
     7
370
     5
100
AcDbLine
 10
43.605383
 20
-43.656745
 30
0.0
 11
43.655383
 21
-43.681745
 31
0.0
  0
LINE
  5
2EA
330
1F
100
AcDbEntity
  8
Untitled
 62
     7
370
     5
100
AcDbLine
 10
43.605383
 20
-43.656745
 30
0.0
 11
43.655383
 21
-43.631745
 31
0.0
  0
LINE
  5
2EB
330
1F
100
AcDbEntity
  8
Untitled
 62
     7
370
     5
100
AcDbLine
 10
42.400383
 20
-43.421745
 30
0.0
 11
42.400383
 21
-43.631745
 31
0.0
  0
LINE
  5
2EC
330
1F
100
AcDbEntity
  8
Untitled
 62
     7
370
     5
100
AcDbLine
 10
43.655383
 20
-44.024745
 30
0.0
 11
43.655383
 21
-43.681745
 31
0.0
  0
LINE
  5
2ED
330
1F
100
AcDbEntity
  8
Untitled
 62
     7
370
     5
100
AcDbLine
 10
44.168569
 20
-18.403745
 30
0.0
 11
44.093569
 21
-18.478745
 31
0.0
  0
LINE
  5
2EE
330
1F
100
AcDbEntity
  8
Untitled
 62
     7
370
     5
100
AcDbLine
 10
44.093569
 20
-17.595745
 30
0.0
 11
44.093569
 21
-18.478745
 31
0.0
  0
LINE
  5
2EF
330
1F
100
AcDbEntity
  8
Untitled
 62
     7
370
     5
100
AcDbLine
 10
43.630569
 20
-18.478745
 30
0.0
 11
43.630569
 21
-17.595745
 31
0.0
  0
LINE
  5
2F0
330
1F
100
AcDbEntity
  8
Untitled
 62
     7
370
     5
100
AcDbLine
 10
43.527883
 20
-18.478745
 30
0.0
 11
43.330955
 21
-18.232347
 31
0.0
  0
LINE
  5
2F1
330
1F
100
AcDbEntity
  8
Untitled
 62
     7
370
     5
100
AcDbLine
 10
43.680569
 20
-18.478745
 30
0.0
 11
44.093569
 21
-18.478745
 31
0.0
  0
LINE
  5
2F2
330
1F
100
AcDbEntity
  8
Untitled
 62
     7
370
     5
100
AcDbLine
 10
43.655569
 20
-18.428745
 30
0.0
 11
43.680569
 21
-18.478745
 31
0.0
  0
LINE
  5
2F3
330
1F
100
AcDbEntity
  8
Untitled
 62
     7
370
     5
100
AcDbLine
 10
43.655569
 20
-18.428745
 30
0.0
 11
43.630569
 21
-18.478745
 31
0.0
  0
LINE
  5
2F4
330
1F
100
AcDbEntity
  8
Untitled
 62
     7
370
     5
100
AcDbLine
 10
43.527883
 20
-18.478745
 30
0.0
 11
43.630569
 21
-18.478745
 31
0.0
  0
LINE
  5
2F5
330
1F
100
AcDbEntity
  8
Untitled
 62
     7
370
     5
100
AcDbLine
 10
44.093569
 20
-17.595745
 30
0.0
 11
43.680569
 21
-17.595745
 31
0.0
  0
LINE
  5
2F6
330
1F
100
AcDbEntity
  8
Untitled
 62
     7
370
     5
100
AcDbLine
 10
44.168569
 20
-18.403745
 30
0.0
 11
44.168569
 21
-17.670745
 31
0.0
  0
LINE
  5
2F7
330
1F
100
AcDbEntity
  8
Untitled
 62
     7
370
     5
100
AcDbLine
 10
44.168569
 20
-17.670745
 30
0.0
 11
44.093569
 21
-17.595745
 31
0.0
  0
LINE
  5
2F8
330
1F
100
AcDbEntity
  8
Untitled
 62
     7
370
     5
100
AcDbLine
 10
43.655569
 20
-17.645745
 30
0.0
 11
43.680569
 21
-17.595745
 31
0.0
  0
LINE
  5
2F9
330
1F
100
AcDbEntity
  8
Untitled
 62
     7
370
     5
100
AcDbLine
 10
43.655569
 20
-17.645745
 30
0.0
 11
43.630569
 21
-17.595745
 31
0.0
  0
LINE
  5
2FA
330
1F
100
AcDbEntity
  8
Untitled
 62
     7
370
     5
100
AcDbLine
 10
43.527883
 20
-17.595745
 30
0.0
 11
43.630569
 21
-17.595745
 31
0.0
  0
LINE
  5
2FB
330
1F
100
AcDbEntity
  8
Untitled
 62
     7
370
     5
100
AcDbLine
 10
43.527883
 20
-17.595745
 30
0.0
 11
43.330955
 21
-17.842144
 31
0.0
  0
ELLIPSE
  5
2FC
330
1F
100
AcDbEntity
  8
Untitled
 62
     7
370
     5
100
AcDbEllipse
 10
43.575069
 20
-18.037245
 30
0.0
 11
0.312499999999849
 21
0.0
 31
0.0
210
0.0
220
0.0
230
1.0
 40
1.0
 41
2.467325229399372
 42
3.815860077780205
  0
LINE
  5
2FD
330
1F
100
AcDbEntity
  8
Untitled
 62
     7
370
     5
100
AcDbLine
 10
43.680569
 20
-18.478745
 30
0.0
 11
43.680569
 21
-17.595745
 31
0.0
  0
LINE
  5
2FE
330
1F
100
AcDbEntity
  8
Untitled
 62
     7
370
     5
100
AcDbLine
 10
43.547883
 20
-12.099745
 30
0.0
 11
42.507883
 21
-12.099745
 31
0.0
  0
LINE
  5
2FF
330
1F
100
AcDbEntity
  8
Untitled
 62
     7
370
     5
100
AcDbLine
 10
42.487883
 20
-12.119745
 30
0.0
 11
42.487883
 21
-12.255995
 31
0.0
  0
LINE
  5
300
330
1F
100
AcDbEntity
  8
Untitled
 62
     7
370
     5
100
AcDbLine
 10
43.567883
 20
-12.119745
 30
0.0
 11
43.567883
 21
-12.255995
 31
0.0
  0
LINE
  5
301
330
1F
100
AcDbEntity
  8
Untitled
 62
     7
370
     5
100
AcDbLine
 10
43.567883
 20
-12.255995
 30
0.0
 11
42.487883
 21
-12.255995
 31
0.0
  0
LINE
  5
302
330
1F
100
AcDbEntity
  8
Untitled
 62
     7
370
     5
100
AcDbLine
 10
43.567883
 20
-12.119745
 30
0.0
 11
43.547883
 21
-12.099745
 31
0.0
  0
LINE
  5
303
330
1F
100
AcDbEntity
  8
Untitled
 62
     7
370
     5
100
AcDbLine
 10
42.487883
 20
-12.119745
 30
0.0
 11
42.507883
 21
-12.099745
 31
0.0
  0
LINE
  5
304
330
1F
100
AcDbEntity
  8
Untitled
 62
     7
370
     5
100
AcDbLine
 10
43.567883
 20
-12.119745
 30
0.0
 11
42.487883
 21
-12.119745
 31
0.0
  0
LINE
  5
305
330
1F
100
AcDbEntity
  8
Untitled
 62
     7
370
     5
100
AcDbLine
 10
64.326883
 20
-17.595745
 30
0.0
 11
63.898883
 21
-17.595745
 31
0.0
  0
LINE
  5
306
330
1F
100
AcDbEntity
  8
Untitled
 62
     7
370
     5
100
AcDbLine
 10
63.898883
 20
-18.478745
 30
0.0
 11
64.326883
 21
-18.478745
 31
0.0
  0
LINE
  5
307
330
1F
100
AcDbEntity
  8
Untitled
 62
     7
370
     5
100
AcDbLine
 10
63.823883
 20
-17.670745
 30
0.0
 11
63.823883
 21
-18.403745
 31
0.0
  0
LINE
  5
308
330
1F
100
AcDbEntity
  8
Untitled
 62
     7
370
     5
100
AcDbLine
 10
63.898883
 20
-18.478745
 30
0.0
 11
63.823883
 21
-18.403745
 31
0.0
  0
LINE
  5
309
330
1F
100
AcDbEntity
  8
Untitled
 62
     7
370
     5
100
AcDbLine
 10
63.898883
 20
-17.595745
 30
0.0
 11
63.823883
 21
-17.670745
 31
0.0
  0
LINE
  5
30A
330
1F
100
AcDbEntity
  8
Untitled
 62
     7
370
     5
100
AcDbLine
 10
63.898883
 20
-18.478745
 30
0.0
 11
63.898883
 21
-17.595745
 31
0.0
  0
LINE
  5
30B
330
1F
100
AcDbEntity
  8
Untitled
 62
     7
370
     5
100
AcDbLine
 10
64.351883
 20
-18.428745
 30
0.0
 11
64.326883
 21
-18.478745
 31
0.0
  0
LINE
  5
30C
330
1F
100
AcDbEntity
  8
Untitled
 62
     7
370
     5
100
AcDbLine
 10
64.351883
 20
-17.645745
 30
0.0
 11
64.326883
 21
-17.595745
 31
0.0
  0
LINE
  5
30D
330
1F
100
AcDbEntity
  8
Untitled
 62
     7
370
     5
100
AcDbLine
 10
64.326883
 20
-17.595745
 30
0.0
 11
64.326883
 21
-18.478745
 31
0.0
  0
LINE
  5
30E
330
1F
100
AcDbEntity
  8
Untitled
 62
     7
370
     5
100
AcDbLine
 10
64.376883
 20
-18.478745
 30
0.0
 11
64.502883
 21
-18.478745
 31
0.0
  0
LINE
  5
30F
330
1F
100
AcDbEntity
  8
Untitled
 62
     7
370
     5
100
AcDbLine
 10
64.527883
 20
-18.453745
 30
0.0
 11
64.527883
 21
-17.620745
 31
0.0
  0
ELLIPSE
  5
310
330
1F
100
AcDbEntity
  8
Untitled
 62
     7
370
     5
100
AcDbEllipse
 10
64.502883
 20
-18.453745
 30
0.0
 11
0.02500000000000213
 21
0.0
 31
0.0
210
0.0
220
0.0
230
1.0
 40
1.0
 41
4.71238898038469
 42
6.283185307179586
  0
ELLIPSE
  5
311
330
1F
100
AcDbEntity
  8
Untitled
 62
     7
370
     5
100
AcDbEllipse
 10
64.502883
 20
-17.620745
 30
0.0
 11
0.02499999999999147
 21
0.0
 31
0.0
210
0.0
220
0.0
230
1.0
 40
1.0
 41
0.0
 42
1.570796326794897
  0
LINE
  5
312
330
1F
100
AcDbEntity
  8
Untitled
 62
     7
370
     5
100
AcDbLine
 10
64.502883
 20
-18.478745
 30
0.0
 11
64.502883
 21
-17.595745
 31
0.0
  0
LINE
  5
313
330
1F
100
AcDbEntity
  8
Untitled
 62
     7
370
     5
100
AcDbLine
 10
64.376883
 20
-17.595745
 30
0.0
 11
64.376883
 21
-18.478745
 31
0.0
  0
LINE
  5
314
330
1F
100
AcDbEntity
  8
Untitled
 62
     7
370
     5
100
AcDbLine
 10
64.351883
 20
-18.428745
 30
0.0
 11
64.376883
 21
-18.478745
 31
0.0
  0
LINE
  5
315
330
1F
100
AcDbEntity
  8
Untitled
 62
     7
370
     5
100
AcDbLine
 10
64.351883
 20
-17.645745
 30
0.0
 11
64.376883
 21
-17.595745
 31
0.0
  0
LINE
  5
316
330
1F
100
AcDbEntity
  8
Untitled
 62
     7
370
     5
100
AcDbLine
 10
64.502883
 20
-17.595745
 30
0.0
 11
64.376883
 21
-17.595745
 31
0.0
  0
INSERT
  5
318
330
1F
100
AcDbEntity
  8
0
100
AcDbBlockReference
  2
Block519
 10
-30.472117
 20
25.900255
 30
0.0
  0
LINE
  5
31F
330
1F
100
AcDbEntity
  8
Untitled
 62
     7
370
     5
100
AcDbLine
 10
32.527883
 20
-43.296745
 30
0.0
 11
32.527883
 21
-12.255995
 31
0.0
  0
LINE
  5
320
330
1F
100
AcDbEntity
  8
Untitled
 62
     7
370
     5
100
AcDbLine
 10
31.527883
 20
-43.296745
 30
0.0
 11
31.527883
 21
-17.853745
 31
0.0
  0
LINE
  5
321
330
1F
100
AcDbEntity
  8
Untitled
 62
     7
370
     5
100
AcDbLine
 10
31.400383
 20
-44.024745
 30
0.0
 11
31.475383
 21
-44.099745
 31
0.0
  0
LINE
  5
322
330
1F
100
AcDbEntity
  8
Untitled
 62
     7
370
     5
100
AcDbLine
 10
32.655383
 20
-44.024745
 30
0.0
 11
31.400383
 21
-44.024745
 31
0.0
  0
LINE
  5
323
330
1F
100
AcDbEntity
  8
Untitled
 62
     7
370
     5
100
AcDbLine
 10
31.475383
 20
-43.296745
 30
0.0
 11
31.400383
 21
-43.421745
 31
0.0
  0
LINE
  5
324
330
1F
100
AcDbEntity
  8
Untitled
 62
     7
370
     5
100
AcDbLine
 10
32.655383
 20
-43.421745
 30
0.0
 11
31.400383
 21
-43.421745
 31
0.0
  0
LINE
  5
325
330
1F
100
AcDbEntity
  8
Untitled
 62
     7
370
     5
100
AcDbLine
 10
31.400383
 20
-43.631745
 30
0.0
 11
32.655383
 21
-43.631745
 31
0.0
  0
LINE
  5
326
330
1F
100
AcDbEntity
  8
Untitled
 62
     7
370
     5
100
AcDbLine
 10
31.400383
 20
-43.681745
 30
0.0
 11
32.655383
 21
-43.681745
 31
0.0
  0
LINE
  5
327
330
1F
100
AcDbEntity
  8
Untitled
 62
     7
370
     5
100
AcDbLine
 10
32.580383
 20
-44.099745
 30
0.0
 11
31.475383
 21
-44.099745
 31
0.0
  0
LINE
  5
328
330
1F
100
AcDbEntity
  8
Untitled
 62
     7
370
     5
100
AcDbLine
 10
32.655383
 20
-43.681745
 30
0.0
 11
32.655383
 21
-44.024745
 31
0.0
  0
LINE
  5
329
330
1F
100
AcDbEntity
  8
Untitled
 62
     7
370
     5
100
AcDbLine
 10
32.580383
 20
-44.099745
 30
0.0
 11
32.655383
 21
-44.024745
 31
0.0
  0
LINE
  5
32A
330
1F
100
AcDbEntity
  8
Untitled
 62
     7
370
     5
100
AcDbLine
 10
32.580383
 20
-43.296745
 30
0.0
 11
32.655383
 21
-43.421745
 31
0.0
  0
LINE
  5
32B
330
1F
100
AcDbEntity
  8
Untitled
 62
     7
370
     5
100
AcDbLine
 10
31.475383
 20
-43.296745
 30
0.0
 11
32.580383
 21
-43.296745
 31
0.0
  0
LINE
  5
32C
330
1F
100
AcDbEntity
  8
Untitled
 62
     7
370
     5
100
AcDbLine
 10
32.605383
 20
-43.656745
 30
0.0
 11
32.655383
 21
-43.681745
 31
0.0
  0
LINE
  5
32D
330
1F
100
AcDbEntity
  8
Untitled
 62
     7
370
     5
100
AcDbLine
 10
32.605383
 20
-43.656745
 30
0.0
 11
32.655383
 21
-43.631745
 31
0.0
  0
LINE
  5
32E
330
1F
100
AcDbEntity
  8
Untitled
 62
     7
370
     5
100
AcDbLine
 10
32.655383
 20
-43.421745
 30
0.0
 11
32.655383
 21
-43.631745
 31
0.0
  0
LINE
  5
32F
330
1F
100
AcDbEntity
  8
Untitled
 62
     7
370
     5
100
AcDbLine
 10
31.400383
 20
-43.631745
 30
0.0
 11
31.400383
 21
-43.421745
 31
0.0
  0
LINE
  5
330
330
1F
100
AcDbEntity
  8
Untitled
 62
     7
370
     5
100
AcDbLine
 10
31.450383
 20
-43.656745
 30
0.0
 11
31.400383
 21
-43.681745
 31
0.0
  0
LINE
  5
331
330
1F
100
AcDbEntity
  8
Untitled
 62
     7
370
     5
100
AcDbLine
 10
31.450383
 20
-43.656745
 30
0.0
 11
31.400383
 21
-43.631745
 31
0.0
  0
LINE
  5
332
330
1F
100
AcDbEntity
  8
Untitled
 62
     7
370
     5
100
AcDbLine
 10
31.400383
 20
-44.024745
 30
0.0
 11
31.400383
 21
-43.681745
 31
0.0
  0
LINE
  5
333
330
1F
100
AcDbEntity
  8
Untitled
 62
     7
370
     5
100
AcDbLine
 10
31.527883
 20
-17.853745
 30
0.0
 11
31.425196
 21
-17.853745
 31
0.0
  0
LINE
  5
334
330
1F
100
AcDbEntity
  8
Untitled
 62
     7
370
     5
100
AcDbLine
 10
31.527883
 20
-16.970745
 30
0.0
 11
31.425196
 21
-16.970745
 31
0.0
  0
ELLIPSE
  5
335
330
1F
100
AcDbEntity
  8
Untitled
 62
     7
370
     5
100
AcDbEllipse
 10
31.480696
 20
-17.412245
 30
0.0
 11
0.3125000000000044
 21
0.0
 31
0.0
210
0.0
220
0.0
230
1.0
 40
1.0
 41
5.608917882989562
 42
6.957452731369601
  0
LINE
  5
336
330
1F
100
AcDbEntity
  8
Untitled
 62
     7
370
     5
100
AcDbLine
 10
31.527883
 20
-17.853745
 30
0.0
 11
31.72481
 21
-17.607347
 31
0.0
  0
LINE
  5
337
330
1F
100
AcDbEntity
  8
Untitled
 62
     7
370
     5
100
AcDbLine
 10
31.527883
 20
-16.970745
 30
0.0
 11
31.527883
 21
-12.255995
 31
0.0
  0
LINE
  5
338
330
1F
100
AcDbEntity
  8
Untitled
 62
     7
370
     5
100
AcDbLine
 10
31.527883
 20
-16.970745
 30
0.0
 11
31.72481
 21
-17.217144
 31
0.0
  0
LINE
  5
339
330
1F
100
AcDbEntity
  8
Untitled
 62
     7
370
     5
100
AcDbLine
 10
31.507883
 20
-12.099745
 30
0.0
 11
32.547883
 21
-12.099745
 31
0.0
  0
LINE
  5
33A
330
1F
100
AcDbEntity
  8
Untitled
 62
     7
370
     5
100
AcDbLine
 10
32.567883
 20
-12.119745
 30
0.0
 11
32.567883
 21
-12.255995
 31
0.0
  0
LINE
  5
33B
330
1F
100
AcDbEntity
  8
Untitled
 62
     7
370
     5
100
AcDbLine
 10
31.487883
 20
-12.119745
 30
0.0
 11
31.487883
 21
-12.255995
 31
0.0
  0
LINE
  5
33C
330
1F
100
AcDbEntity
  8
Untitled
 62
     7
370
     5
100
AcDbLine
 10
31.487883
 20
-12.255995
 30
0.0
 11
32.567883
 21
-12.255995
 31
0.0
  0
LINE
  5
33D
330
1F
100
AcDbEntity
  8
Untitled
 62
     7
370
     5
100
AcDbLine
 10
31.487883
 20
-12.119745
 30
0.0
 11
31.507883
 21
-12.099745
 31
0.0
  0
LINE
  5
33E
330
1F
100
AcDbEntity
  8
Untitled
 62
     7
370
     5
100
AcDbLine
 10
32.567883
 20
-12.119745
 30
0.0
 11
32.547883
 21
-12.099745
 31
0.0
  0
LINE
  5
33F
330
1F
100
AcDbEntity
  8
Untitled
 62
     7
370
     5
100
AcDbLine
 10
31.487883
 20
-12.119745
 30
0.0
 11
32.567883
 21
-12.119745
 31
0.0
  0
LINE
  5
340
330
1F
100
AcDbEntity
  8
Untitled
 62
     7
370
     5
100
AcDbLine
 10
30.962196
 20
-16.970745
 30
0.0
 11
30.962196
 21
-17.853745
 31
0.0
  0
LINE
  5
341
330
1F
100
AcDbEntity
  8
Untitled
 62
     7
370
     5
100
AcDbLine
 10
31.425196
 20
-17.853745
 30
0.0
 11
31.425196
 21
-16.970745
 31
0.0
  0
LINE
  5
342
330
1F
100
AcDbEntity
  8
Untitled
 62
     7
370
     5
100
AcDbLine
 10
30.887196
 20
-17.778745
 30
0.0
 11
30.887196
 21
-17.045745
 31
0.0
  0
LINE
  5
343
330
1F
100
AcDbEntity
  8
Untitled
 62
     7
370
     5
100
AcDbLine
 10
31.375196
 20
-17.853745
 30
0.0
 11
31.375196
 21
-16.970745
 31
0.0
  0
LINE
  5
344
330
1F
100
AcDbEntity
  8
Untitled
 62
     7
370
     5
100
AcDbLine
 10
30.887196
 20
-17.778745
 30
0.0
 11
30.962196
 21
-17.853745
 31
0.0
  0
LINE
  5
345
330
1F
100
AcDbEntity
  8
Untitled
 62
     7
370
     5
100
AcDbLine
 10
31.375196
 20
-17.853745
 30
0.0
 11
30.962196
 21
-17.853745
 31
0.0
  0
LINE
  5
346
330
1F
100
AcDbEntity
  8
Untitled
 62
     7
370
     5
100
AcDbLine
 10
31.400196
 20
-17.803745
 30
0.0
 11
31.375196
 21
-17.853745
 31
0.0
  0
LINE
  5
347
330
1F
100
AcDbEntity
  8
Untitled
 62
     7
370
     5
100
AcDbLine
 10
31.400196
 20
-17.803745
 30
0.0
 11
31.425196
 21
-17.853745
 31
0.0
  0
LINE
  5
348
330
1F
100
AcDbEntity
  8
Untitled
 62
     7
370
     5
100
AcDbLine
 10
30.962196
 20
-16.970745
 30
0.0
 11
31.375196
 21
-16.970745
 31
0.0
  0
LINE
  5
349
330
1F
100
AcDbEntity
  8
Untitled
 62
     7
370
     5
100
AcDbLine
 10
30.887196
 20
-17.045745
 30
0.0
 11
30.962196
 21
-16.970745
 31
0.0
  0
LINE
  5
34A
330
1F
100
AcDbEntity
  8
Untitled
 62
     7
370
     5
100
AcDbLine
 10
31.400196
 20
-17.020745
 30
0.0
 11
31.375196
 21
-16.970745
 31
0.0
  0
LINE
  5
34B
330
1F
100
AcDbEntity
  8
Untitled
 62
     7
370
     5
100
AcDbLine
 10
31.400196
 20
-17.020745
 30
0.0
 11
31.425196
 21
-16.970745
 31
0.0
  0
LINE
  5
34C
330
1F
100
AcDbEntity
  8
Untitled
 62
     7
370
     5
100
AcDbLine
 10
30.887196
 20
-17.099745
 30
0.0
 11
-0.331431
 21
-17.099745
 31
0.0
  0
LINE
  5
34D
330
1F
100
AcDbEntity
  8
Untitled
 62
     7
370
     5
100
AcDbLine
 10
-0.331431
 20
-17.724745
 30
0.0
 11
30.887196
 21
-17.724745
 31
0.0
  0
LINE
  5
34E
330
1F
100
AcDbEntity
  8
Untitled
 62
     7
370
     5
100
AcDbLine
 10
-0.406431
 20
-16.970745
 30
0.0
 11
-0.406431
 21
-17.853745
 31
0.0
  0
LINE
  5
34F
330
1F
100
AcDbEntity
  8
Untitled
 62
     7
370
     5
100
AcDbLine
 10
-0.869431
 20
-17.853745
 30
0.0
 11
-0.869431
 21
-16.970745
 31
0.0
  0
LINE
  5
350
330
1F
100
AcDbEntity
  8
Untitled
 62
     7
370
     5
100
AcDbLine
 10
-0.331431
 20
-17.778745
 30
0.0
 11
-0.331431
 21
-17.045745
 31
0.0
  0
ELLIPSE
  5
351
330
1F
100
AcDbEntity
  8
Untitled
 62
     7
370
     5
100
AcDbEllipse
 10
-0.924931
 20
-17.412245
 30
0.0
 11
0.3125000000000059
 21
0.0
 31
0.0
210
0.0
220
0.0
230
1.0
 40
1.0
 41
2.467325229399773
 42
3.815860077779801
  0
LINE
  5
352
330
1F
100
AcDbEntity
  8
Untitled
 62
     7
370
     5
100
AcDbLine
 10
-0.819431
 20
-17.853745
 30
0.0
 11
-0.819431
 21
-16.970745
 31
0.0
  0
LINE
  5
353
330
1F
100
AcDbEntity
  8
Untitled
 62
     7
370
     5
100
AcDbLine
 10
-0.331431
 20
-17.778745
 30
0.0
 11
-0.406431
 21
-17.853745
 31
0.0
  0
LINE
  5
354
330
1F
100
AcDbEntity
  8
Untitled
 62
     7
370
     5
100
AcDbLine
 10
-0.972117
 20
-17.853745
 30
0.0
 11
-1.169045
 21
-17.607347
 31
0.0
  0
LINE
  5
355
330
1F
100
AcDbEntity
  8
Untitled
 62
     7
370
     5
100
AcDbLine
 10
-0.819431
 20
-17.853745
 30
0.0
 11
-0.406431
 21
-17.853745
 31
0.0
  0
LINE
  5
356
330
1F
100
AcDbEntity
  8
Untitled
 62
     7
370
     5
100
AcDbLine
 10
-0.844431
 20
-17.803745
 30
0.0
 11
-0.819431
 21
-17.853745
 31
0.0
  0
LINE
  5
357
330
1F
100
AcDbEntity
  8
Untitled
 62
     7
370
     5
100
AcDbLine
 10
-0.844431
 20
-17.803745
 30
0.0
 11
-0.869431
 21
-17.853745
 31
0.0
  0
LINE
  5
358
330
1F
100
AcDbEntity
  8
Untitled
 62
     7
370
     5
100
AcDbLine
 10
-0.972117
 20
-17.853745
 30
0.0
 11
-0.869431
 21
-17.853745
 31
0.0
  0
LINE
  5
359
330
1F
100
AcDbEntity
  8
Untitled
 62
     7
370
     5
100
AcDbLine
 10
-0.406431
 20
-16.970745
 30
0.0
 11
-0.819431
 21
-16.970745
 31
0.0
  0
LINE
  5
35A
330
1F
100
AcDbEntity
  8
Untitled
 62
     7
370
     5
100
AcDbLine
 10
-0.331431
 20
-17.045745
 30
0.0
 11
-0.406431
 21
-16.970745
 31
0.0
  0
LINE
  5
35B
330
1F
100
AcDbEntity
  8
Untitled
 62
     7
370
     5
100
AcDbLine
 10
-0.844431
 20
-17.020745
 30
0.0
 11
-0.819431
 21
-16.970745
 31
0.0
  0
LINE
  5
35C
330
1F
100
AcDbEntity
  8
Untitled
 62
     7
370
     5
100
AcDbLine
 10
-0.844431
 20
-17.020745
 30
0.0
 11
-0.869431
 21
-16.970745
 31
0.0
  0
LINE
  5
35D
330
1F
100
AcDbEntity
  8
Untitled
 62
     7
370
     5
100
AcDbLine
 10
-0.972117
 20
-16.970745
 30
0.0
 11
-0.869431
 21
-16.970745
 31
0.0
  0
LINE
  5
35E
330
1F
100
AcDbEntity
  8
Untitled
 62
     7
370
     5
100
AcDbLine
 10
-0.972117
 20
-16.970745
 30
0.0
 11
-1.169045
 21
-17.217144
 31
0.0
  0
LINE
  5
35F
330
1F
100
AcDbEntity
  8
Untitled
 62
     7
370
     5
100
AcDbLine
 10
-0.972117
 20
-43.296745
 30
0.0
 11
-0.972117
 21
-17.853745
 31
0.0
  0
LINE
  5
360
330
1F
100
AcDbEntity
  8
Untitled
 62
     7
370
     5
100
AcDbLine
 10
27.637196
 20
-56.349745
 30
0.0
 11
10.918569
 21
-56.349745
 31
0.0
  0
LINE
  5
361
330
1F
100
AcDbEntity
  8
Untitled
 62
     7
370
     5
100
AcDbLine
 10
10.918569
 20
-55.724745
 30
0.0
 11
27.637196
 21
-55.724745
 31
0.0
  0
LINE
  5
362
330
1F
100
AcDbEntity
  8
Untitled
 62
     7
370
     5
100
AcDbLine
 10
9.277883
 20
-81.296745
 30
0.0
 11
9.277883
 21
-50.255995
 31
0.0
  0
LINE
  5
363
330
1F
100
AcDbEntity
  8
Untitled
 62
     7
370
     5
100
AcDbLine
 10
10.277883
 20
-81.296745
 30
0.0
 11
10.277883
 21
-56.478745
 31
0.0
  0
LINE
  5
364
330
1F
100
AcDbEntity
  8
Untitled
 62
     7
370
     5
100
AcDbLine
 10
10.405383
 20
-82.024745
 30
0.0
 11
10.330383
 21
-82.099745
 31
0.0
  0
LINE
  5
365
330
1F
100
AcDbEntity
  8
Untitled
 62
     7
370
     5
100
AcDbLine
 10
9.150383
 20
-82.024745
 30
0.0
 11
10.405383
 21
-82.024745
 31
0.0
  0
LINE
  5
366
330
1F
100
AcDbEntity
  8
Untitled
 62
     7
370
     5
100
AcDbLine
 10
10.330383
 20
-81.296745
 30
0.0
 11
10.405383
 21
-81.421745
 31
0.0
  0
LINE
  5
367
330
1F
100
AcDbEntity
  8
Untitled
 62
     7
370
     5
100
AcDbLine
 10
9.150383
 20
-81.421745
 30
0.0
 11
10.405383
 21
-81.421745
 31
0.0
  0
LINE
  5
368
330
1F
100
AcDbEntity
  8
Untitled
 62
     7
370
     5
100
AcDbLine
 10
10.405383
 20
-81.631745
 30
0.0
 11
9.150383
 21
-81.631745
 31
0.0
  0
LINE
  5
369
330
1F
100
AcDbEntity
  8
Untitled
 62
     7
370
     5
100
AcDbLine
 10
10.405383
 20
-81.681745
 30
0.0
 11
9.150383
 21
-81.681745
 31
0.0
  0
LINE
  5
36A
330
1F
100
AcDbEntity
  8
Untitled
 62
     7
370
     5
100
AcDbLine
 10
9.225383
 20
-82.099745
 30
0.0
 11
10.330383
 21
-82.099745
 31
0.0
  0
LINE
  5
36B
330
1F
100
AcDbEntity
  8
Untitled
 62
     7
370
     5
100
AcDbLine
 10
9.150383
 20
-81.681745
 30
0.0
 11
9.150383
 21
-82.024745
 31
0.0
  0
LINE
  5
36C
330
1F
100
AcDbEntity
  8
Untitled
 62
     7
370
     5
100
AcDbLine
 10
9.225383
 20
-82.099745
 30
0.0
 11
9.150383
 21
-82.024745
 31
0.0
  0
LINE
  5
36D
330
1F
100
AcDbEntity
  8
Untitled
 62
     7
370
     5
100
AcDbLine
 10
9.225383
 20
-81.296745
 30
0.0
 11
9.150383
 21
-81.421745
 31
0.0
  0
LINE
  5
36E
330
1F
100
AcDbEntity
  8
Untitled
 62
     7
370
     5
100
AcDbLine
 10
10.330383
 20
-81.296745
 30
0.0
 11
9.225383
 21
-81.296745
 31
0.0
  0
LINE
  5
36F
330
1F
100
AcDbEntity
  8
Untitled
 62
     7
370
     5
100
AcDbLine
 10
9.200383
 20
-81.656745
 30
0.0
 11
9.150383
 21
-81.681745
 31
0.0
  0
LINE
  5
370
330
1F
100
AcDbEntity
  8
Untitled
 62
     7
370
     5
100
AcDbLine
 10
9.200383
 20
-81.656745
 30
0.0
 11
9.150383
 21
-81.631745
 31
0.0
  0
LINE
  5
371
330
1F
100
AcDbEntity
  8
Untitled
 62
     7
370
     5
100
AcDbLine
 10
9.150383
 20
-81.421745
 30
0.0
 11
9.150383
 21
-81.631745
 31
0.0
  0
LINE
  5
372
330
1F
100
AcDbEntity
  8
Untitled
 62
     7
370
     5
100
AcDbLine
 10
10.405383
 20
-81.631745
 30
0.0
 11
10.405383
 21
-81.421745
 31
0.0
  0
LINE
  5
373
330
1F
100
AcDbEntity
  8
Untitled
 62
     7
370
     5
100
AcDbLine
 10
10.355383
 20
-81.656745
 30
0.0
 11
10.405383
 21
-81.681745
 31
0.0
  0
LINE
  5
374
330
1F
100
AcDbEntity
  8
Untitled
 62
     7
370
     5
100
AcDbLine
 10
10.355383
 20
-81.656745
 30
0.0
 11
10.405383
 21
-81.631745
 31
0.0
  0
LINE
  5
375
330
1F
100
AcDbEntity
  8
Untitled
 62
     7
370
     5
100
AcDbLine
 10
10.405383
 20
-82.024745
 30
0.0
 11
10.405383
 21
-81.681745
 31
0.0
  0
LINE
  5
376
330
1F
100
AcDbEntity
  8
Untitled
 62
     7
370
     5
100
AcDbLine
 10
10.277883
 20
-56.478745
 30
0.0
 11
10.380569
 21
-56.478745
 31
0.0
  0
LINE
  5
377
330
1F
100
AcDbEntity
  8
Untitled
 62
     7
370
     5
100
AcDbLine
 10
10.277883
 20
-55.595745
 30
0.0
 11
10.380569
 21
-55.595745
 31
0.0
  0
ELLIPSE
  5
378
330
1F
100
AcDbEntity
  8
Untitled
 62
     7
370
     5
100
AcDbEllipse
 10
10.325069
 20
-56.037245
 30
0.0
 11
0.3125000000000776
 21
0.0
 31
0.0
210
0.0
220
0.0
230
1.0
 40
1.0
 41
2.467325229399476
 42
3.81586007778011
  0
LINE
  5
379
330
1F
100
AcDbEntity
  8
Untitled
 62
     7
370
     5
100
AcDbLine
 10
10.277883
 20
-56.478745
 30
0.0
 11
10.080955
 21
-56.232347
 31
0.0
  0
LINE
  5
37A
330
1F
100
AcDbEntity
  8
Untitled
 62
     7
370
     5
100
AcDbLine
 10
10.277883
 20
-55.595745
 30
0.0
 11
10.277883
 21
-50.255995
 31
0.0
  0
LINE
  5
37B
330
1F
100
AcDbEntity
  8
Untitled
 62
     7
370
     5
100
AcDbLine
 10
10.277883
 20
-55.595745
 30
0.0
 11
10.080955
 21
-55.842144
 31
0.0
  0
LINE
  5
37C
330
1F
100
AcDbEntity
  8
Untitled
 62
     7
370
     5
100
AcDbLine
 10
10.297883
 20
-50.099745
 30
0.0
 11
9.257883
 21
-50.099745
 31
0.0
  0
LINE
  5
37D
330
1F
100
AcDbEntity
  8
Untitled
 62
     7
370
     5
100
AcDbLine
 10
9.237883
 20
-50.119745
 30
0.0
 11
9.237883
 21
-50.255995
 31
0.0
  0
LINE
  5
37E
330
1F
100
AcDbEntity
  8
Untitled
 62
     7
370
     5
100
AcDbLine
 10
10.317883
 20
-50.119745
 30
0.0
 11
10.317883
 21
-50.255995
 31
0.0
  0
LINE
  5
37F
330
1F
100
AcDbEntity
  8
Untitled
 62
     7
370
     5
100
AcDbLine
 10
10.317883
 20
-50.255995
 30
0.0
 11
9.237883
 21
-50.255995
 31
0.0
  0
LINE
  5
380
330
1F
100
AcDbEntity
  8
Untitled
 62
     7
370
     5
100
AcDbLine
 10
10.317883
 20
-50.119745
 30
0.0
 11
10.297883
 21
-50.099745
 31
0.0
  0
LINE
  5
381
330
1F
100
AcDbEntity
  8
Untitled
 62
     7
370
     5
100
AcDbLine
 10
9.237883
 20
-50.119745
 30
0.0
 11
9.257883
 21
-50.099745
 31
0.0
  0
LINE
  5
382
330
1F
100
AcDbEntity
  8
Untitled
 62
     7
370
     5
100
AcDbLine
 10
10.317883
 20
-50.119745
 30
0.0
 11
9.237883
 21
-50.119745
 31
0.0
  0
LINE
  5
383
330
1F
100
AcDbEntity
  8
Untitled
 62
     7
370
     5
100
AcDbLine
 10
10.843569
 20
-55.595745
 30
0.0
 11
10.843569
 21
-56.478745
 31
0.0
  0
LINE
  5
384
330
1F
100
AcDbEntity
  8
Untitled
 62
     7
370
     5
100
AcDbLine
 10
10.380569
 20
-56.478745
 30
0.0
 11
10.380569
 21
-55.595745
 31
0.0
  0
LINE
  5
385
330
1F
100
AcDbEntity
  8
Untitled
 62
     7
370
     5
100
AcDbLine
 10
10.918569
 20
-56.403745
 30
0.0
 11
10.918569
 21
-55.670745
 31
0.0
  0
LINE
  5
386
330
1F
100
AcDbEntity
  8
Untitled
 62
     7
370
     5
100
AcDbLine
 10
10.430569
 20
-56.478745
 30
0.0
 11
10.430569
 21
-55.595745
 31
0.0
  0
LINE
  5
387
330
1F
100
AcDbEntity
  8
Untitled
 62
     7
370
     5
100
AcDbLine
 10
10.918569
 20
-56.403745
 30
0.0
 11
10.843569
 21
-56.478745
 31
0.0
  0
LINE
  5
388
330
1F
100
AcDbEntity
  8
Untitled
 62
     7
370
     5
100
AcDbLine
 10
10.430569
 20
-56.478745
 30
0.0
 11
10.843569
 21
-56.478745
 31
0.0
  0
LINE
  5
389
330
1F
100
AcDbEntity
  8
Untitled
 62
     7
370
     5
100
AcDbLine
 10
10.405569
 20
-56.428745
 30
0.0
 11
10.430569
 21
-56.478745
 31
0.0
  0
LINE
  5
38A
330
1F
100
AcDbEntity
  8
Untitled
 62
     7
370
     5
100
AcDbLine
 10
10.405569
 20
-56.428745
 30
0.0
 11
10.380569
 21
-56.478745
 31
0.0
  0
LINE
  5
38B
330
1F
100
AcDbEntity
  8
Untitled
 62
     7
370
     5
100
AcDbLine
 10
10.843569
 20
-55.595745
 30
0.0
 11
10.430569
 21
-55.595745
 31
0.0
  0
LINE
  5
38C
330
1F
100
AcDbEntity
  8
Untitled
 62
     7
370
     5
100
AcDbLine
 10
10.918569
 20
-55.670745
 30
0.0
 11
10.843569
 21
-55.595745
 31
0.0
  0
LINE
  5
38D
330
1F
100
AcDbEntity
  8
Untitled
 62
     7
370
     5
100
AcDbLine
 10
10.405569
 20
-55.645745
 30
0.0
 11
10.430569
 21
-55.595745
 31
0.0
  0
LINE
  5
38E
330
1F
100
AcDbEntity
  8
Untitled
 62
     7
370
     5
100
AcDbLine
 10
10.405569
 20
-55.645745
 30
0.0
 11
10.380569
 21
-55.595745
 31
0.0
  0
LINE
  5
38F
330
1F
100
AcDbEntity
  8
Untitled
 62
     7
370
     5
100
AcDbLine
 10
28.277883
 20
-81.296745
 30
0.0
 11
28.277883
 21
-56.478745
 31
0.0
  0
LINE
  5
390
330
1F
100
AcDbEntity
  8
Untitled
 62
     7
370
     5
100
AcDbLine
 10
29.277883
 20
-81.296745
 30
0.0
 11
29.277883
 21
-50.255995
 31
0.0
  0
LINE
  5
391
330
1F
100
AcDbEntity
  8
Untitled
 62
     7
370
     5
100
AcDbLine
 10
29.330383
 20
-82.099745
 30
0.0
 11
28.225383
 21
-82.099745
 31
0.0
  0
LINE
  5
392
330
1F
100
AcDbEntity
  8
Untitled
 62
     7
370
     5
100
AcDbLine
 10
29.405383
 20
-82.024745
 30
0.0
 11
28.150383
 21
-82.024745
 31
0.0
  0
LINE
  5
393
330
1F
100
AcDbEntity
  8
Untitled
 62
     7
370
     5
100
AcDbLine
 10
28.225383
 20
-81.296745
 30
0.0
 11
29.330383
 21
-81.296745
 31
0.0
  0
LINE
  5
394
330
1F
100
AcDbEntity
  8
Untitled
 62
     7
370
     5
100
AcDbLine
 10
29.405383
 20
-81.421745
 30
0.0
 11
28.150383
 21
-81.421745
 31
0.0
  0
LINE
  5
395
330
1F
100
AcDbEntity
  8
Untitled
 62
     7
370
     5
100
AcDbLine
 10
28.150383
 20
-81.631745
 30
0.0
 11
29.405383
 21
-81.631745
 31
0.0
  0
LINE
  5
396
330
1F
100
AcDbEntity
  8
Untitled
 62
     7
370
     5
100
AcDbLine
 10
28.150383
 20
-81.681745
 30
0.0
 11
29.405383
 21
-81.681745
 31
0.0
  0
LINE
  5
397
330
1F
100
AcDbEntity
  8
Untitled
 62
     7
370
     5
100
AcDbLine
 10
28.150383
 20
-81.631745
 30
0.0
 11
28.150383
 21
-81.421745
 31
0.0
  0
LINE
  5
398
330
1F
100
AcDbEntity
  8
Untitled
 62
     7
370
     5
100
AcDbLine
 10
28.150383
 20
-82.024745
 30
0.0
 11
28.225383
 21
-82.099745
 31
0.0
  0
LINE
  5
399
330
1F
100
AcDbEntity
  8
Untitled
 62
     7
370
     5
100
AcDbLine
 10
28.225383
 20
-81.296745
 30
0.0
 11
28.150383
 21
-81.421745
 31
0.0
  0
LINE
  5
39A
330
1F
100
AcDbEntity
  8
Untitled
 62
     7
370
     5
100
AcDbLine
 10
28.200383
 20
-81.656745
 30
0.0
 11
28.150383
 21
-81.681745
 31
0.0
  0
LINE
  5
39B
330
1F
100
AcDbEntity
  8
Untitled
 62
     7
370
     5
100
AcDbLine
 10
28.200383
 20
-81.656745
 30
0.0
 11
28.150383
 21
-81.631745
 31
0.0
  0
LINE
  5
39C
330
1F
100
AcDbEntity
  8
Untitled
 62
     7
370
     5
100
AcDbLine
 10
28.150383
 20
-82.024745
 30
0.0
 11
28.150383
 21
-81.681745
 31
0.0
  0
LINE
  5
39D
330
1F
100
AcDbEntity
  8
Untitled
 62
     7
370
     5
100
AcDbLine
 10
29.405383
 20
-81.681745
 30
0.0
 11
29.405383
 21
-82.024745
 31
0.0
  0
LINE
  5
39E
330
1F
100
AcDbEntity
  8
Untitled
 62
     7
370
     5
100
AcDbLine
 10
29.330383
 20
-82.099745
 30
0.0
 11
29.405383
 21
-82.024745
 31
0.0
  0
LINE
  5
39F
330
1F
100
AcDbEntity
  8
Untitled
 62
     7
370
     5
100
AcDbLine
 10
29.330383
 20
-81.296745
 30
0.0
 11
29.405383
 21
-81.421745
 31
0.0
  0
LINE
  5
3A0
330
1F
100
AcDbEntity
  8
Untitled
 62
     7
370
     5
100
AcDbLine
 10
29.355383
 20
-81.656745
 30
0.0
 11
29.405383
 21
-81.681745
 31
0.0
  0
LINE
  5
3A1
330
1F
100
AcDbEntity
  8
Untitled
 62
     7
370
     5
100
AcDbLine
 10
29.355383
 20
-81.656745
 30
0.0
 11
29.405383
 21
-81.631745
 31
0.0
  0
LINE
  5
3A2
330
1F
100
AcDbEntity
  8
Untitled
 62
     7
370
     5
100
AcDbLine
 10
29.405383
 20
-81.421745
 30
0.0
 11
29.405383
 21
-81.631745
 31
0.0
  0
LINE
  5
3A3
330
1F
100
AcDbEntity
  8
Untitled
 62
     7
370
     5
100
AcDbLine
 10
28.257883
 20
-50.099745
 30
0.0
 11
29.297883
 21
-50.099745
 31
0.0
  0
LINE
  5
3A4
330
1F
100
AcDbEntity
  8
Untitled
 62
     7
370
     5
100
AcDbLine
 10
28.237883
 20
-50.255995
 30
0.0
 11
29.317883
 21
-50.255995
 31
0.0
  0
LINE
  5
3A5
330
1F
100
AcDbEntity
  8
Untitled
 62
     7
370
     5
100
AcDbLine
 10
28.237883
 20
-50.119745
 30
0.0
 11
29.317883
 21
-50.119745
 31
0.0
  0
LINE
  5
3A6
330
1F
100
AcDbEntity
  8
Untitled
 62
     7
370
     5
100
AcDbLine
 10
28.277883
 20
-55.595745
 30
0.0
 11
28.277883
 21
-50.255995
 31
0.0
  0
LINE
  5
3A7
330
1F
100
AcDbEntity
  8
Untitled
 62
     7
370
     5
100
AcDbLine
 10
27.712196
 20
-55.595745
 30
0.0
 11
27.712196
 21
-56.478745
 31
0.0
  0
LINE
  5
3A8
330
1F
100
AcDbEntity
  8
Untitled
 62
     7
370
     5
100
AcDbLine
 10
28.175196
 20
-56.478745
 30
0.0
 11
28.175196
 21
-55.595745
 31
0.0
  0
LINE
  5
3A9
330
1F
100
AcDbEntity
  8
Untitled
 62
     7
370
     5
100
AcDbLine
 10
27.637196
 20
-56.403745
 30
0.0
 11
27.637196
 21
-55.670745
 31
0.0
  0
ELLIPSE
  5
3AA
330
1F
100
AcDbEntity
  8
Untitled
 62
     7
370
     5
100
AcDbEllipse
 10
28.230696
 20
-56.037245
 30
0.0
 11
0.3125000000000443
 21
0.0
 31
0.0
210
0.0
220
0.0
230
1.0
 40
1.0
 41
5.608917882989184
 42
6.957452731369989
  0
LINE
  5
3AB
330
1F
100
AcDbEntity
  8
Untitled
 62
     7
370
     5
100
AcDbLine
 10
28.125196
 20
-56.478745
 30
0.0
 11
28.125196
 21
-55.595745
 31
0.0
  0
LINE
  5
3AC
330
1F
100
AcDbEntity
  8
Untitled
 62
     7
370
     5
100
AcDbLine
 10
27.637196
 20
-56.403745
 30
0.0
 11
27.712196
 21
-56.478745
 31
0.0
  0
LINE
  5
3AD
330
1F
100
AcDbEntity
  8
Untitled
 62
     7
370
     5
100
AcDbLine
 10
28.277883
 20
-56.478745
 30
0.0
 11
28.47481
 21
-56.232347
 31
0.0
  0
LINE
  5
3AE
330
1F
100
AcDbEntity
  8
Untitled
 62
     7
370
     5
100
AcDbLine
 10
28.125196
 20
-56.478745
 30
0.0
 11
27.712196
 21
-56.478745
 31
0.0
  0
LINE
  5
3AF
330
1F
100
AcDbEntity
  8
Untitled
 62
     7
370
     5
100
AcDbLine
 10
28.150196
 20
-56.428745
 30
0.0
 11
28.125196
 21
-56.478745
 31
0.0
  0
LINE
  5
3B0
330
1F
100
AcDbEntity
  8
Untitled
 62
     7
370
     5
100
AcDbLine
 10
28.150196
 20
-56.428745
 30
0.0
 11
28.175196
 21
-56.478745
 31
0.0
  0
LINE
  5
3B1
330
1F
100
AcDbEntity
  8
Untitled
 62
     7
370
     5
100
AcDbLine
 10
28.277883
 20
-56.478745
 30
0.0
 11
28.175196
 21
-56.478745
 31
0.0
  0
LINE
  5
3B2
330
1F
100
AcDbEntity
  8
Untitled
 62
     7
370
     5
100
AcDbLine
 10
27.712196
 20
-55.595745
 30
0.0
 11
28.125196
 21
-55.595745
 31
0.0
  0
LINE
  5
3B3
330
1F
100
AcDbEntity
  8
Untitled
 62
     7
370
     5
100
AcDbLine
 10
27.637196
 20
-55.670745
 30
0.0
 11
27.712196
 21
-55.595745
 31
0.0
  0
LINE
  5
3B4
330
1F
100
AcDbEntity
  8
Untitled
 62
     7
370
     5
100
AcDbLine
 10
28.150196
 20
-55.645745
 30
0.0
 11
28.125196
 21
-55.595745
 31
0.0
  0
LINE
  5
3B5
330
1F
100
AcDbEntity
  8
Untitled
 62
     7
370
     5
100
AcDbLine
 10
28.150196
 20
-55.645745
 30
0.0
 11
28.175196
 21
-55.595745
 31
0.0
  0
LINE
  5
3B6
330
1F
100
AcDbEntity
  8
Untitled
 62
     7
370
     5
100
AcDbLine
 10
28.277883
 20
-55.595745
 30
0.0
 11
28.175196
 21
-55.595745
 31
0.0
  0
LINE
  5
3B7
330
1F
100
AcDbEntity
  8
Untitled
 62
     7
370
     5
100
AcDbLine
 10
28.277883
 20
-55.595745
 30
0.0
 11
28.47481
 21
-55.842144
 31
0.0
  0
LINE
  5
3B8
330
1F
100
AcDbEntity
  8
Untitled
 62
     7
370
     5
100
AcDbLine
 10
28.237883
 20
-50.119745
 30
0.0
 11
28.237883
 21
-50.255995
 31
0.0
  0
LINE
  5
3B9
330
1F
100
AcDbEntity
  8
Untitled
 62
     7
370
     5
100
AcDbLine
 10
28.237883
 20
-50.119745
 30
0.0
 11
28.257883
 21
-50.099745
 31
0.0
  0
LINE
  5
3BA
330
1F
100
AcDbEntity
  8
Untitled
 62
     7
370
     5
100
AcDbLine
 10
29.317883
 20
-50.119745
 30
0.0
 11
29.317883
 21
-50.255995
 31
0.0
  0
LINE
  5
3BB
330
1F
100
AcDbEntity
  8
Untitled
 62
     7
370
     5
100
AcDbLine
 10
29.317883
 20
-50.119745
 30
0.0
 11
29.297883
 21
-50.099745
 31
0.0
  0
LINE
  5
3BC
330
1F
100
AcDbEntity
  8
Untitled
 62
     7
370
     5
100
AcDbLine
 10
-2.612804
 20
-93.724745
 30
0.0
 11
-33.831431
 21
-93.724745
 31
0.0
  0
LINE
  5
3BD
330
1F
100
AcDbEntity
  8
Untitled
 62
     7
370
     5
100
AcDbLine
 10
-33.831431
 20
-93.099745
 30
0.0
 11
-2.612804
 21
-93.099745
 31
0.0
  0
LINE
  5
3BE
330
1F
100
AcDbEntity
  8
Untitled
 62
     7
370
     5
100
AcDbLine
 10
-27.222117
 20
-88.099745
 30
0.0
 11
-9.222117
 21
-88.099745
 31
0.0
  0
LINE
  5
3BF
330
1F
100
AcDbEntity
  8
Untitled
 62
     7
370
     5
100
AcDbLine
 10
-9.222117
 20
-89.349745
 30
0.0
 11
-27.222117
 21
-89.349745
 31
0.0
  0
LINE
  5
3C0
330
1F
100
AcDbEntity
  8
Untitled
 62
     7
370
     5
100
AcDbLine
 10
-27.222117
 20
-88.224745
 30
0.0
 11
-9.222117
 21
-88.224745
 31
0.0
  0
LINE
  5
3C1
330
1F
100
AcDbEntity
  8
Untitled
 62
     7
370
     5
100
AcDbLine
 10
-35.472117
 20
-119.296745
 30
0.0
 11
-35.472117
 21
-88.255995
 31
0.0
  0
LINE
  5
3C2
330
1F
100
AcDbEntity
  8
Untitled
 62
     7
370
     5
100
AcDbLine
 10
-34.472117
 20
-119.296745
 30
0.0
 11
-34.472117
 21
-93.853745
 31
0.0
  0
LINE
  5
3C3
330
1F
100
AcDbEntity
  8
Untitled
 62
     7
370
     5
100
AcDbLine
 10
-34.344617
 20
-120.024745
 30
0.0
 11
-34.419617
 21
-120.099745
 31
0.0
  0
LINE
  5
3C4
330
1F
100
AcDbEntity
  8
Untitled
 62
     7
370
     5
100
AcDbLine
 10
-35.599617
 20
-120.024745
 30
0.0
 11
-34.344617
 21
-120.024745
 31
0.0
  0
LINE
  5
3C5
330
1F
100
AcDbEntity
  8
Untitled
 62
     7
370
     5
100
AcDbLine
 10
-34.419617
 20
-119.296745
 30
0.0
 11
-34.344617
 21
-119.421745
 31
0.0
  0
LINE
  5
3C6
330
1F
100
AcDbEntity
  8
Untitled
 62
     7
370
     5
100
AcDbLine
 10
-35.599617
 20
-119.421745
 30
0.0
 11
-34.344617
 21
-119.421745
 31
0.0
  0
LINE
  5
3C7
330
1F
100
AcDbEntity
  8
Untitled
 62
     7
370
     5
100
AcDbLine
 10
-34.344617
 20
-119.631745
 30
0.0
 11
-35.599617
 21
-119.631745
 31
0.0
  0
LINE
  5
3C8
330
1F
100
AcDbEntity
  8
Untitled
 62
     7
370
     5
100
AcDbLine
 10
-34.344617
 20
-119.681745
 30
0.0
 11
-35.599617
 21
-119.681745
 31
0.0
  0
LINE
  5
3C9
330
1F
100
AcDbEntity
  8
Untitled
 62
     7
370
     5
100
AcDbLine
 10
-35.524617
 20
-120.099745
 30
0.0
 11
-34.419617
 21
-120.099745
 31
0.0
  0
LINE
  5
3CA
330
1F
100
AcDbEntity
  8
Untitled
 62
     7
370
     5
100
AcDbLine
 10
-35.599617
 20
-119.681745
 30
0.0
 11
-35.599617
 21
-120.024745
 31
0.0
  0
LINE
  5
3CB
330
1F
100
AcDbEntity
  8
Untitled
 62
     7
370
     5
100
AcDbLine
 10
-35.524617
 20
-120.099745
 30
0.0
 11
-35.599617
 21
-120.024745
 31
0.0
  0
LINE
  5
3CC
330
1F
100
AcDbEntity
  8
Untitled
 62
     7
370
     5
100
AcDbLine
 10
-35.524617
 20
-119.296745
 30
0.0
 11
-35.599617
 21
-119.421745
 31
0.0
  0
LINE
  5
3CD
330
1F
100
AcDbEntity
  8
Untitled
 62
     7
370
     5
100
AcDbLine
 10
-34.419617
 20
-119.296745
 30
0.0
 11
-35.524617
 21
-119.296745
 31
0.0
  0
LINE
  5
3CE
330
1F
100
AcDbEntity
  8
Untitled
 62
     7
370
     5
100
AcDbLine
 10
-35.549617
 20
-119.656745
 30
0.0
 11
-35.599617
 21
-119.681745
 31
0.0
  0
LINE
  5
3CF
330
1F
100
AcDbEntity
  8
Untitled
 62
     7
370
     5
100
AcDbLine
 10
-35.549617
 20
-119.656745
 30
0.0
 11
-35.599617
 21
-119.631745
 31
0.0
  0
LINE
  5
3D0
330
1F
100
AcDbEntity
  8
Untitled
 62
     7
370
     5
100
AcDbLine
 10
-35.599617
 20
-119.421745
 30
0.0
 11
-35.599617
 21
-119.631745
 31
0.0
  0
LINE
  5
3D1
330
1F
100
AcDbEntity
  8
Untitled
 62
     7
370
     5
100
AcDbLine
 10
-34.344617
 20
-119.631745
 30
0.0
 11
-34.344617
 21
-119.421745
 31
0.0
  0
LINE
  5
3D2
330
1F
100
AcDbEntity
  8
Untitled
 62
     7
370
     5
100
AcDbLine
 10
-34.394617
 20
-119.656745
 30
0.0
 11
-34.344617
 21
-119.681745
 31
0.0
  0
LINE
  5
3D3
330
1F
100
AcDbEntity
  8
Untitled
 62
     7
370
     5
100
AcDbLine
 10
-34.394617
 20
-119.656745
 30
0.0
 11
-34.344617
 21
-119.631745
 31
0.0
  0
LINE
  5
3D4
330
1F
100
AcDbEntity
  8
Untitled
 62
     7
370
     5
100
AcDbLine
 10
-34.344617
 20
-120.024745
 30
0.0
 11
-34.344617
 21
-119.681745
 31
0.0
  0
LINE
  5
3D5
330
1F
100
AcDbEntity
  8
Untitled
 62
     7
370
     5
100
AcDbLine
 10
-34.472117
 20
-93.853745
 30
0.0
 11
-34.369431
 21
-93.853745
 31
0.0
  0
LINE
  5
3D6
330
1F
100
AcDbEntity
  8
Untitled
 62
     7
370
     5
100
AcDbLine
 10
-34.472117
 20
-92.970745
 30
0.0
 11
-34.369431
 21
-92.970745
 31
0.0
  0
ELLIPSE
  5
3D7
330
1F
100
AcDbEntity
  8
Untitled
 62
     7
370
     5
100
AcDbEllipse
 10
-34.424931
 20
-93.412245
 30
0.0
 11
0.3125000000000721
 21
0.0
 31
0.0
210
0.0
220
0.0
230
1.0
 40
1.0
 41
2.467325229399462
 42
3.815860077780124
  0
LINE
  5
3D8
330
1F
100
AcDbEntity
  8
Untitled
 62
     7
370
     5
100
AcDbLine
 10
-34.472117
 20
-93.853745
 30
0.0
 11
-34.669045
 21
-93.607347
 31
0.0
  0
LINE
  5
3D9
330
1F
100
AcDbEntity
  8
Untitled
 62
     7
370
     5
100
AcDbLine
 10
-34.472117
 20
-92.970745
 30
0.0
 11
-34.472117
 21
-88.255995
 31
0.0
  0
LINE
  5
3DA
330
1F
100
AcDbEntity
  8
Untitled
 62
     7
370
     5
100
AcDbLine
 10
-34.472117
 20
-92.970745
 30
0.0
 11
-34.669045
 21
-93.217144
 31
0.0
  0
LINE
  5
3DB
330
1F
100
AcDbEntity
  8
Untitled
 62
     7
370
     5
100
AcDbLine
 10
-34.452117
 20
-88.099745
 30
0.0
 11
-35.492117
 21
-88.099745
 31
0.0
  0
LINE
  5
3DC
330
1F
100
AcDbEntity
  8
Untitled
 62
     7
370
     5
100
AcDbLine
 10
-35.512117
 20
-88.119745
 30
0.0
 11
-35.512117
 21
-88.255995
 31
0.0
  0
LINE
  5
3DD
330
1F
100
AcDbEntity
  8
Untitled
 62
     7
370
     5
100
AcDbLine
 10
-34.432117
 20
-88.119745
 30
0.0
 11
-34.432117
 21
-88.255995
 31
0.0
  0
LINE
  5
3DE
330
1F
100
AcDbEntity
  8
Untitled
 62
     7
370
     5
100
AcDbLine
 10
-34.432117
 20
-88.255995
 30
0.0
 11
-35.512117
 21
-88.255995
 31
0.0
  0
LINE
  5
3DF
330
1F
100
AcDbEntity
  8
Untitled
 62
     7
370
     5
100
AcDbLine
 10
-34.432117
 20
-88.119745
 30
0.0
 11
-34.452117
 21
-88.099745
 31
0.0
  0
LINE
  5
3E0
330
1F
100
AcDbEntity
  8
Untitled
 62
     7
370
     5
100
AcDbLine
 10
-35.512117
 20
-88.119745
 30
0.0
 11
-35.492117
 21
-88.099745
 31
0.0
  0
LINE
  5
3E1
330
1F
100
AcDbEntity
  8
Untitled
 62
     7
370
     5
100
AcDbLine
 10
-34.432117
 20
-88.119745
 30
0.0
 11
-35.512117
 21
-88.119745
 31
0.0
  0
LINE
  5
3E2
330
1F
100
AcDbEntity
  8
Untitled
 62
     7
370
     5
100
AcDbLine
 10
-33.906431
 20
-92.970745
 30
0.0
 11
-33.906431
 21
-93.853745
 31
0.0
  0
LINE
  5
3E3
330
1F
100
AcDbEntity
  8
Untitled
 62
     7
370
     5
100
AcDbLine
 10
-34.369431
 20
-93.853745
 30
0.0
 11
-34.369431
 21
-92.970745
 31
0.0
  0
LINE
  5
3E4
330
1F
100
AcDbEntity
  8
Untitled
 62
     7
370
     5
100
AcDbLine
 10
-33.831431
 20
-93.778745
 30
0.0
 11
-33.831431
 21
-93.045745
 31
0.0
  0
LINE
  5
3E5
330
1F
100
AcDbEntity
  8
Untitled
 62
     7
370
     5
100
AcDbLine
 10
-34.319431
 20
-93.853745
 30
0.0
 11
-34.319431
 21
-92.970745
 31
0.0
  0
LINE
  5
3E6
330
1F
100
AcDbEntity
  8
Untitled
 62
     7
370
     5
100
AcDbLine
 10
-33.831431
 20
-93.778745
 30
0.0
 11
-33.906431
 21
-93.853745
 31
0.0
  0
LINE
  5
3E7
330
1F
100
AcDbEntity
  8
Untitled
 62
     7
370
     5
100
AcDbLine
 10
-34.319431
 20
-93.853745
 30
0.0
 11
-33.906431
 21
-93.853745
 31
0.0
  0
LINE
  5
3E8
330
1F
100
AcDbEntity
  8
Untitled
 62
     7
370
     5
100
AcDbLine
 10
-34.344431
 20
-93.803745
 30
0.0
 11
-34.319431
 21
-93.853745
 31
0.0
  0
LINE
  5
3E9
330
1F
100
AcDbEntity
  8
Untitled
 62
     7
370
     5
100
AcDbLine
 10
-34.344431
 20
-93.803745
 30
0.0
 11
-34.369431
 21
-93.853745
 31
0.0
  0
LINE
  5
3EA
330
1F
100
AcDbEntity
  8
Untitled
 62
     7
370
     5
100
AcDbLine
 10
-33.906431
 20
-92.970745
 30
0.0
 11
-34.319431
 21
-92.970745
 31
0.0
  0
LINE
  5
3EB
330
1F
100
AcDbEntity
  8
Untitled
 62
     7
370
     5
100
AcDbLine
 10
-33.831431
 20
-93.045745
 30
0.0
 11
-33.906431
 21
-92.970745
 31
0.0
  0
LINE
  5
3EC
330
1F
100
AcDbEntity
  8
Untitled
 62
     7
370
     5
100
AcDbLine
 10
-34.344431
 20
-93.020745
 30
0.0
 11
-34.319431
 21
-92.970745
 31
0.0
  0
LINE
  5
3ED
330
1F
100
AcDbEntity
  8
Untitled
 62
     7
370
     5
100
AcDbLine
 10
-34.344431
 20
-93.020745
 30
0.0
 11
-34.369431
 21
-92.970745
 31
0.0
  0
LINE
  5
3EE
330
1F
100
AcDbEntity
  8
Untitled
 62
     7
370
     5
100
AcDbLine
 10
-27.222117
 20
-89.349745
 30
0.0
 11
-27.222117
 21
-88.099745
 31
0.0
  0
ELLIPSE
  5
3EF
330
1F
100
AcDbEntity
  8
Untitled
 62
     7
370
     5
100
AcDbEllipse
 10
-26.222117
 20
-88.724745
 30
0.0
 11
0.2499999999998695
 21
0.0
 31
0.0
210
0.0
220
0.0
230
1.0
 40
1.0
 41
0.0
 42
6.283185307179586
  0
LINE
  5
3F0
330
1F
100
AcDbEntity
  8
Untitled
 62
     7
370
     5
100
AcDbLine
 10
-1.972117
 20
-119.296745
 30
0.0
 11
-1.972117
 21
-93.853745
 31
0.0
  0
LINE
  5
3F1
330
1F
100
AcDbEntity
  8
Untitled
 62
     7
370
     5
100
AcDbLine
 10
32.527883
 20
-119.296745
 30
0.0
 11
32.527883
 21
-88.255995
 31
0.0
  0
LINE
  5
3F2
330
1F
100
AcDbEntity
  8
Untitled
 62
     7
370
     5
100
AcDbLine
 10
31.527883
 20
-119.296745
 30
0.0
 11
31.527883
 21
-93.853745
 31
0.0
  0
LINE
  5
3F3
330
1F
100
AcDbEntity
  8
Untitled
 62
     7
370
     5
100
AcDbLine
 10
-0.972117
 20
-119.296745
 30
0.0
 11
-0.972117
 21
-93.853745
 31
0.0
  0
LINE
  5
3F4
330
1F
100
AcDbEntity
  8
Untitled
 62
     7
370
     5
100
AcDbLine
 10
-0.919617
 20
-120.099745
 30
0.0
 11
-2.024617
 21
-120.099745
 31
0.0
  0
LINE
  5
3F5
330
1F
100
AcDbEntity
  8
Untitled
 62
     7
370
     5
100
AcDbLine
 10
-0.844617
 20
-120.024745
 30
0.0
 11
-2.099617
 21
-120.024745
 31
0.0
  0
LINE
  5
3F6
330
1F
100
AcDbEntity
  8
Untitled
 62
     7
370
     5
100
AcDbLine
 10
-2.024617
 20
-119.296745
 30
0.0
 11
-0.919617
 21
-119.296745
 31
0.0
  0
LINE
  5
3F7
330
1F
100
AcDbEntity
  8
Untitled
 62
     7
370
     5
100
AcDbLine
 10
-0.844617
 20
-119.421745
 30
0.0
 11
-2.099617
 21
-119.421745
 31
0.0
  0
LINE
  5
3F8
330
1F
100
AcDbEntity
  8
Untitled
 62
     7
370
     5
100
AcDbLine
 10
-2.099617
 20
-119.631745
 30
0.0
 11
-0.844617
 21
-119.631745
 31
0.0
  0
LINE
  5
3F9
330
1F
100
AcDbEntity
  8
Untitled
 62
     7
370
     5
100
AcDbLine
 10
-2.099617
 20
-119.681745
 30
0.0
 11
-0.844617
 21
-119.681745
 31
0.0
  0
LINE
  5
3FA
330
1F
100
AcDbEntity
  8
Untitled
 62
     7
370
     5
100
AcDbLine
 10
-2.099617
 20
-119.631745
 30
0.0
 11
-2.099617
 21
-119.421745
 31
0.0
  0
LINE
  5
3FB
330
1F
100
AcDbEntity
  8
Untitled
 62
     7
370
     5
100
AcDbLine
 10
-2.099617
 20
-120.024745
 30
0.0
 11
-2.024617
 21
-120.099745
 31
0.0
  0
LINE
  5
3FC
330
1F
100
AcDbEntity
  8
Untitled
 62
     7
370
     5
100
AcDbLine
 10
-2.024617
 20
-119.296745
 30
0.0
 11
-2.099617
 21
-119.421745
 31
0.0
  0
LINE
  5
3FD
330
1F
100
AcDbEntity
  8
Untitled
 62
     7
370
     5
100
AcDbLine
 10
-2.049617
 20
-119.656745
 30
0.0
 11
-2.099617
 21
-119.681745
 31
0.0
  0
LINE
  5
3FE
330
1F
100
AcDbEntity
  8
Untitled
 62
     7
370
     5
100
AcDbLine
 10
-2.049617
 20
-119.656745
 30
0.0
 11
-2.099617
 21
-119.631745
 31
0.0
  0
LINE
  5
3FF
330
1F
100
AcDbEntity
  8
Untitled
 62
     7
370
     5
100
AcDbLine
 10
-2.099617
 20
-120.024745
 30
0.0
 11
-2.099617
 21
-119.681745
 31
0.0
  0
LINE
  5
400
330
1F
100
AcDbEntity
  8
Untitled
 62
     7
370
     5
100
AcDbLine
 10
-0.844617
 20
-119.681745
 30
0.0
 11
-0.844617
 21
-120.024745
 31
0.0
  0
LINE
  5
401
330
1F
100
AcDbEntity
  8
Untitled
 62
     7
370
     5
100
AcDbLine
 10
-0.919617
 20
-120.099745
 30
0.0
 11
-0.844617
 21
-120.024745
 31
0.0
  0
LINE
  5
402
330
1F
100
AcDbEntity
  8
Untitled
 62
     7
370
     5
100
AcDbLine
 10
-0.919617
 20
-119.296745
 30
0.0
 11
-0.844617
 21
-119.421745
 31
0.0
  0
LINE
  5
403
330
1F
100
AcDbEntity
  8
Untitled
 62
     7
370
     5
100
AcDbLine
 10
-0.894617
 20
-119.656745
 30
0.0
 11
-0.844617
 21
-119.681745
 31
0.0
  0
LINE
  5
404
330
1F
100
AcDbEntity
  8
Untitled
 62
     7
370
     5
100
AcDbLine
 10
-0.894617
 20
-119.656745
 30
0.0
 11
-0.844617
 21
-119.631745
 31
0.0
  0
LINE
  5
405
330
1F
100
AcDbEntity
  8
Untitled
 62
     7
370
     5
100
AcDbLine
 10
-0.844617
 20
-119.421745
 30
0.0
 11
-0.844617
 21
-119.631745
 31
0.0
  0
LINE
  5
406
330
1F
100
AcDbEntity
  8
Untitled
 62
     7
370
     5
100
AcDbLine
 10
32.655383
 20
-120.024745
 30
0.0
 11
31.400383
 21
-120.024745
 31
0.0
  0
LINE
  5
407
330
1F
100
AcDbEntity
  8
Untitled
 62
     7
370
     5
100
AcDbLine
 10
32.655383
 20
-119.421745
 30
0.0
 11
31.400383
 21
-119.421745
 31
0.0
  0
LINE
  5
408
330
1F
100
AcDbEntity
  8
Untitled
 62
     7
370
     5
100
AcDbLine
 10
31.400383
 20
-119.631745
 30
0.0
 11
32.655383
 21
-119.631745
 31
0.0
  0
LINE
  5
409
330
1F
100
AcDbEntity
  8
Untitled
 62
     7
370
     5
100
AcDbLine
 10
31.400383
 20
-119.681745
 30
0.0
 11
32.655383
 21
-119.681745
 31
0.0
  0
LINE
  5
40A
330
1F
100
AcDbEntity
  8
Untitled
 62
     7
370
     5
100
AcDbLine
 10
32.580383
 20
-120.099745
 30
0.0
 11
31.475383
 21
-120.099745
 31
0.0
  0
LINE
  5
40B
330
1F
100
AcDbEntity
  8
Untitled
 62
     7
370
     5
100
AcDbLine
 10
31.475383
 20
-119.296745
 30
0.0
 11
32.580383
 21
-119.296745
 31
0.0
  0
LINE
  5
40C
330
1F
100
AcDbEntity
  8
Untitled
 62
     7
370
     5
100
AcDbLine
 10
31.400383
 20
-120.024745
 30
0.0
 11
31.475383
 21
-120.099745
 31
0.0
  0
LINE
  5
40D
330
1F
100
AcDbEntity
  8
Untitled
 62
     7
370
     5
100
AcDbLine
 10
31.475383
 20
-119.296745
 30
0.0
 11
31.400383
 21
-119.421745
 31
0.0
  0
LINE
  5
40E
330
1F
100
AcDbEntity
  8
Untitled
 62
     7
370
     5
100
AcDbLine
 10
31.400383
 20
-119.631745
 30
0.0
 11
31.400383
 21
-119.421745
 31
0.0
  0
LINE
  5
40F
330
1F
100
AcDbEntity
  8
Untitled
 62
     7
370
     5
100
AcDbLine
 10
31.450383
 20
-119.656745
 30
0.0
 11
31.400383
 21
-119.681745
 31
0.0
  0
LINE
  5
410
330
1F
100
AcDbEntity
  8
Untitled
 62
     7
370
     5
100
AcDbLine
 10
31.450383
 20
-119.656745
 30
0.0
 11
31.400383
 21
-119.631745
 31
0.0
  0
LINE
  5
411
330
1F
100
AcDbEntity
  8
Untitled
 62
     7
370
     5
100
AcDbLine
 10
31.400383
 20
-120.024745
 30
0.0
 11
31.400383
 21
-119.681745
 31
0.0
  0
LINE
  5
412
330
1F
100
AcDbEntity
  8
Untitled
 62
     7
370
     5
100
AcDbLine
 10
32.655383
 20
-119.681745
 30
0.0
 11
32.655383
 21
-120.024745
 31
0.0
  0
LINE
  5
413
330
1F
100
AcDbEntity
  8
Untitled
 62
     7
370
     5
100
AcDbLine
 10
32.580383
 20
-120.099745
 30
0.0
 11
32.655383
 21
-120.024745
 31
0.0
  0
LINE
  5
414
330
1F
100
AcDbEntity
  8
Untitled
 62
     7
370
     5
100
AcDbLine
 10
32.580383
 20
-119.296745
 30
0.0
 11
32.655383
 21
-119.421745
 31
0.0
  0
LINE
  5
415
330
1F
100
AcDbEntity
  8
Untitled
 62
     7
370
     5
100
AcDbLine
 10
32.605383
 20
-119.656745
 30
0.0
 11
32.655383
 21
-119.681745
 31
0.0
  0
LINE
  5
416
330
1F
100
AcDbEntity
  8
Untitled
 62
     7
370
     5
100
AcDbLine
 10
32.605383
 20
-119.656745
 30
0.0
 11
32.655383
 21
-119.631745
 31
0.0
  0
LINE
  5
417
330
1F
100
AcDbEntity
  8
Untitled
 62
     7
370
     5
100
AcDbLine
 10
32.655383
 20
-119.421745
 30
0.0
 11
32.655383
 21
-119.631745
 31
0.0
  0
LINE
  5
418
330
1F
100
AcDbEntity
  8
Untitled
 62
     7
370
     5
100
AcDbLine
 10
30.887196
 20
-93.099745
 30
0.0
 11
-0.331431
 21
-93.099745
 31
0.0
  0
LINE
  5
419
330
1F
100
AcDbEntity
  8
Untitled
 62
     7
370
     5
100
AcDbLine
 10
-0.331431
 20
-93.724745
 30
0.0
 11
30.887196
 21
-93.724745
 31
0.0
  0
LINE
  5
41A
330
1F
100
AcDbEntity
  8
Untitled
 62
     7
370
     5
100
AcDbLine
 10
24.277883
 20
-88.099745
 30
0.0
 11
6.277883
 21
-88.099745
 31
0.0
  0
LINE
  5
41B
330
1F
100
AcDbEntity
  8
Untitled
 62
     7
370
     5
100
AcDbLine
 10
6.277883
 20
-89.349745
 30
0.0
 11
24.277883
 21
-89.349745
 31
0.0
  0
LINE
  5
41C
330
1F
100
AcDbEntity
  8
Untitled
 62
     7
370
     5
100
AcDbLine
 10
24.277883
 20
-88.224745
 30
0.0
 11
6.277883
 21
-88.224745
 31
0.0
  0
LINE
  5
41D
330
1F
100
AcDbEntity
  8
Untitled
 62
     7
370
     5
100
AcDbLine
 10
-1.992117
 20
-88.099745
 30
0.0
 11
-0.952117
 21
-88.099745
 31
0.0
  0
LINE
  5
41E
330
1F
100
AcDbEntity
  8
Untitled
 62
     7
370
     5
100
AcDbLine
 10
-2.012117
 20
-88.255995
 30
0.0
 11
-0.932117
 21
-88.255995
 31
0.0
  0
LINE
  5
41F
330
1F
100
AcDbEntity
  8
Untitled
 62
     7
370
     5
100
AcDbLine
 10
-2.012117
 20
-88.119745
 30
0.0
 11
-0.932117
 21
-88.119745
 31
0.0
  0
LINE
  5
420
330
1F
100
AcDbEntity
  8
Untitled
 62
     7
370
     5
100
AcDbLine
 10
-0.972117
 20
-93.853745
 30
0.0
 11
-1.169045
 21
-93.607347
 31
0.0
  0
LINE
  5
421
330
1F
100
AcDbEntity
  8
Untitled
 62
     7
370
     5
100
AcDbLine
 10
-0.972117
 20
-92.970745
 30
0.0
 11
-1.169045
 21
-93.217144
 31
0.0
  0
ELLIPSE
  5
422
330
1F
100
AcDbEntity
  8
Untitled
 62
     7
370
     5
100
AcDbEllipse
 10
-18.222117
 20
-88.724745
 30
0.0
 11
0.2499999999998695
 21
0.0
 31
0.0
210
0.0
220
0.0
230
1.0
 40
1.0
 41
0.0
 42
6.283185307179586
  0
LINE
  5
423
330
1F
100
AcDbEntity
  8
Untitled
 62
     7
370
     5
100
AcDbLine
 10
-9.222117
 20
-88.099745
 30
0.0
 11
-9.222117
 21
-89.349745
 31
0.0
  0
ELLIPSE
  5
424
330
1F
100
AcDbEntity
  8
Untitled
 62
     7
370
     5
100
AcDbEllipse
 10
-10.222117
 20
-88.724745
 30
0.0
 11
0.2499999999998711
 21
0.0
 31
0.0
210
0.0
220
0.0
230
1.0
 40
1.0
 41
0.0
 42
6.283185307179586
  0
LINE
  5
425
330
1F
100
AcDbEntity
  8
Untitled
 62
     7
370
     5
100
AcDbLine
 10
-1.972117
 20
-92.970745
 30
0.0
 11
-1.972117
 21
-88.255995
 31
0.0
  0
LINE
  5
426
330
1F
100
AcDbEntity
  8
Untitled
 62
     7
370
     5
100
AcDbLine
 10
-2.537804
 20
-92.970745
 30
0.0
 11
-2.537804
 21
-93.853745
 31
0.0
  0
LINE
  5
427
330
1F
100
AcDbEntity
  8
Untitled
 62
     7
370
     5
100
AcDbLine
 10
-2.074804
 20
-93.853745
 30
0.0
 11
-2.074804
 21
-92.970745
 31
0.0
  0
LINE
  5
428
330
1F
100
AcDbEntity
  8
Untitled
 62
     7
370
     5
100
AcDbLine
 10
-2.612804
 20
-93.778745
 30
0.0
 11
-2.612804
 21
-93.045745
 31
0.0
  0
ELLIPSE
  5
429
330
1F
100
AcDbEntity
  8
Untitled
 62
     7
370
     5
100
AcDbEllipse
 10
-2.019304
 20
-93.412245
 30
0.0
 11
0.3125000000000761
 21
0.0
 31
0.0
210
0.0
220
0.0
230
1.0
 40
1.0
 41
5.608917882989266
 42
6.957452731369907
  0
LINE
  5
42A
330
1F
100
AcDbEntity
  8
Untitled
 62
     7
370
     5
100
AcDbLine
 10
-2.124804
 20
-93.853745
 30
0.0
 11
-2.124804
 21
-92.970745
 31
0.0
  0
LINE
  5
42B
330
1F
100
AcDbEntity
  8
Untitled
 62
     7
370
     5
100
AcDbLine
 10
-2.612804
 20
-93.778745
 30
0.0
 11
-2.537804
 21
-93.853745
 31
0.0
  0
LINE
  5
42C
330
1F
100
AcDbEntity
  8
Untitled
 62
     7
370
     5
100
AcDbLine
 10
-1.972117
 20
-93.853745
 30
0.0
 11
-1.77519
 21
-93.607347
 31
0.0
  0
LINE
  5
42D
330
1F
100
AcDbEntity
  8
Untitled
 62
     7
370
     5
100
AcDbLine
 10
-2.124804
 20
-93.853745
 30
0.0
 11
-2.537804
 21
-93.853745
 31
0.0
  0
LINE
  5
42E
330
1F
100
AcDbEntity
  8
Untitled
 62
     7
370
     5
100
AcDbLine
 10
-2.099804
 20
-93.803745
 30
0.0
 11
-2.124804
 21
-93.853745
 31
0.0
  0
LINE
  5
42F
330
1F
100
AcDbEntity
  8
Untitled
 62
     7
370
     5
100
AcDbLine
 10
-2.099804
 20
-93.803745
 30
0.0
 11
-2.074804
 21
-93.853745
 31
0.0
  0
LINE
  5
430
330
1F
100
AcDbEntity
  8
Untitled
 62
     7
370
     5
100
AcDbLine
 10
-1.972117
 20
-93.853745
 30
0.0
 11
-2.074804
 21
-93.853745
 31
0.0
  0
LINE
  5
431
330
1F
100
AcDbEntity
  8
Untitled
 62
     7
370
     5
100
AcDbLine
 10
-2.537804
 20
-92.970745
 30
0.0
 11
-2.124804
 21
-92.970745
 31
0.0
  0
LINE
  5
432
330
1F
100
AcDbEntity
  8
Untitled
 62
     7
370
     5
100
AcDbLine
 10
-2.612804
 20
-93.045745
 30
0.0
 11
-2.537804
 21
-92.970745
 31
0.0
  0
LINE
  5
433
330
1F
100
AcDbEntity
  8
Untitled
 62
     7
370
     5
100
AcDbLine
 10
-2.099804
 20
-93.020745
 30
0.0
 11
-2.124804
 21
-92.970745
 31
0.0
  0
LINE
  5
434
330
1F
100
AcDbEntity
  8
Untitled
 62
     7
370
     5
100
AcDbLine
 10
-2.099804
 20
-93.020745
 30
0.0
 11
-2.074804
 21
-92.970745
 31
0.0
  0
LINE
  5
435
330
1F
100
AcDbEntity
  8
Untitled
 62
     7
370
     5
100
AcDbLine
 10
-1.972117
 20
-92.970745
 30
0.0
 11
-2.074804
 21
-92.970745
 31
0.0
  0
LINE
  5
436
330
1F
100
AcDbEntity
  8
Untitled
 62
     7
370
     5
100
AcDbLine
 10
-1.972117
 20
-92.970745
 30
0.0
 11
-1.77519
 21
-93.217144
 31
0.0
  0
ELLIPSE
  5
437
330
1F
100
AcDbEntity
  8
Untitled
 62
     7
370
     5
100
AcDbEllipse
 10
-0.924931
 20
-93.412245
 30
0.0
 11
0.312500000000079
 21
0.0
 31
0.0
210
0.0
220
0.0
230
1.0
 40
1.0
 41
2.46732522939948
 42
3.815860077780106
  0
LINE
  5
438
330
1F
100
AcDbEntity
  8
Untitled
 62
     7
370
     5
100
AcDbLine
 10
-2.012117
 20
-88.119745
 30
0.0
 11
-2.012117
 21
-88.255995
 31
0.0
  0
LINE
  5
439
330
1F
100
AcDbEntity
  8
Untitled
 62
     7
370
     5
100
AcDbLine
 10
-2.012117
 20
-88.119745
 30
0.0
 11
-1.992117
 21
-88.099745
 31
0.0
  0
LINE
  5
43A
330
1F
100
AcDbEntity
  8
Untitled
 62
     7
370
     5
100
AcDbLine
 10
-0.932117
 20
-88.119745
 30
0.0
 11
-0.932117
 21
-88.255995
 31
0.0
  0
LINE
  5
43B
330
1F
100
AcDbEntity
  8
Untitled
 62
     7
370
     5
100
AcDbLine
 10
-0.932117
 20
-88.119745
 30
0.0
 11
-0.952117
 21
-88.099745
 31
0.0
  0
LINE
  5
43C
330
1F
100
AcDbEntity
  8
Untitled
 62
     7
370
     5
100
AcDbLine
 10
-0.406431
 20
-92.970745
 30
0.0
 11
-0.406431
 21
-93.853745
 31
0.0
  0
LINE
  5
43D
330
1F
100
AcDbEntity
  8
Untitled
 62
     7
370
     5
100
AcDbLine
 10
-0.869431
 20
-93.853745
 30
0.0
 11
-0.869431
 21
-92.970745
 31
0.0
  0
LINE
  5
43E
330
1F
100
AcDbEntity
  8
Untitled
 62
     7
370
     5
100
AcDbLine
 10
-0.331431
 20
-93.778745
 30
0.0
 11
-0.331431
 21
-93.045745
 31
0.0
  0
LINE
  5
43F
330
1F
100
AcDbEntity
  8
Untitled
 62
     7
370
     5
100
AcDbLine
 10
-0.819431
 20
-93.853745
 30
0.0
 11
-0.819431
 21
-92.970745
 31
0.0
  0
LINE
  5
440
330
1F
100
AcDbEntity
  8
Untitled
 62
     7
370
     5
100
AcDbLine
 10
-0.331431
 20
-93.778745
 30
0.0
 11
-0.406431
 21
-93.853745
 31
0.0
  0
LINE
  5
441
330
1F
100
AcDbEntity
  8
Untitled
 62
     7
370
     5
100
AcDbLine
 10
-0.819431
 20
-93.853745
 30
0.0
 11
-0.406431
 21
-93.853745
 31
0.0
  0
LINE
  5
442
330
1F
100
AcDbEntity
  8
Untitled
 62
     7
370
     5
100
AcDbLine
 10
-0.844431
 20
-93.803745
 30
0.0
 11
-0.819431
 21
-93.853745
 31
0.0
  0
LINE
  5
443
330
1F
100
AcDbEntity
  8
Untitled
 62
     7
370
     5
100
AcDbLine
 10
-0.844431
 20
-93.803745
 30
0.0
 11
-0.869431
 21
-93.853745
 31
0.0
  0
LINE
  5
444
330
1F
100
AcDbEntity
  8
Untitled
 62
     7
370
     5
100
AcDbLine
 10
-0.972117
 20
-93.853745
 30
0.0
 11
-0.869431
 21
-93.853745
 31
0.0
  0
LINE
  5
445
330
1F
100
AcDbEntity
  8
Untitled
 62
     7
370
     5
100
AcDbLine
 10
-0.406431
 20
-92.970745
 30
0.0
 11
-0.819431
 21
-92.970745
 31
0.0
  0
LINE
  5
446
330
1F
100
AcDbEntity
  8
Untitled
 62
     7
370
     5
100
AcDbLine
 10
-0.331431
 20
-93.045745
 30
0.0
 11
-0.406431
 21
-92.970745
 31
0.0
  0
LINE
  5
447
330
1F
100
AcDbEntity
  8
Untitled
 62
     7
370
     5
100
AcDbLine
 10
-0.844431
 20
-93.020745
 30
0.0
 11
-0.819431
 21
-92.970745
 31
0.0
  0
LINE
  5
448
330
1F
100
AcDbEntity
  8
Untitled
 62
     7
370
     5
100
AcDbLine
 10
-0.844431
 20
-93.020745
 30
0.0
 11
-0.869431
 21
-92.970745
 31
0.0
  0
LINE
  5
449
330
1F
100
AcDbEntity
  8
Untitled
 62
     7
370
     5
100
AcDbLine
 10
-0.972117
 20
-92.970745
 30
0.0
 11
-0.869431
 21
-92.970745
 31
0.0
  0
LINE
  5
44A
330
1F
100
AcDbEntity
  8
Untitled
 62
     7
370
     5
100
AcDbLine
 10
-0.972117
 20
-92.970745
 30
0.0
 11
-0.972117
 21
-88.255995
 31
0.0
  0
LINE
  5
44B
330
1F
100
AcDbEntity
  8
Untitled
 62
     7
370
     5
100
AcDbLine
 10
6.277883
 20
-88.099745
 30
0.0
 11
6.277883
 21
-89.349745
 31
0.0
  0
ELLIPSE
  5
44C
330
1F
100
AcDbEntity
  8
Untitled
 62
     7
370
     5
100
AcDbEllipse
 10
7.277883
 20
-88.724745
 30
0.0
 11
0.2500000000000293
 21
0.0
 31
0.0
210
0.0
220
0.0
230
1.0
 40
1.0
 41
0.0
 42
6.283185307179586
  0
ELLIPSE
  5
44D
330
1F
100
AcDbEntity
  8
Untitled
 62
     7
370
     5
100
AcDbEllipse
 10
15.277883
 20
-88.724745
 30
0.0
 11
0.2500000000000301
 21
0.0
 31
0.0
210
0.0
220
0.0
230
1.0
 40
1.0
 41
0.0
 42
6.283185307179586
  0
LINE
  5
44E
330
1F
100
AcDbEntity
  8
Untitled
 62
     7
370
     5
100
AcDbLine
 10
31.507883
 20
-88.099745
 30
0.0
 11
32.547883
 21
-88.099745
 31
0.0
  0
LINE
  5
44F
330
1F
100
AcDbEntity
  8
Untitled
 62
     7
370
     5
100
AcDbLine
 10
31.487883
 20
-88.255995
 30
0.0
 11
32.567883
 21
-88.255995
 31
0.0
  0
LINE
  5
450
330
1F
100
AcDbEntity
  8
Untitled
 62
     7
370
     5
100
AcDbLine
 10
31.487883
 20
-88.119745
 30
0.0
 11
32.567883
 21
-88.119745
 31
0.0
  0
LINE
  5
451
330
1F
100
AcDbEntity
  8
Untitled
 62
     7
370
     5
100
AcDbLine
 10
24.277883
 20
-89.349745
 30
0.0
 11
24.277883
 21
-88.099745
 31
0.0
  0
ELLIPSE
  5
452
330
1F
100
AcDbEntity
  8
Untitled
 62
     7
370
     5
100
AcDbEllipse
 10
23.277883
 20
-88.724745
 30
0.0
 11
0.2500000000000643
 21
0.0
 31
0.0
210
0.0
220
0.0
230
1.0
 40
1.0
 41
0.0
 42
6.283185307179586
  0
LINE
  5
453
330
1F
100
AcDbEntity
  8
Untitled
 62
     7
370
     5
100
AcDbLine
 10
31.527883
 20
-93.853745
 30
0.0
 11
31.425196
 21
-93.853745
 31
0.0
  0
LINE
  5
454
330
1F
100
AcDbEntity
  8
Untitled
 62
     7
370
     5
100
AcDbLine
 10
31.527883
 20
-92.970745
 30
0.0
 11
31.425196
 21
-92.970745
 31
0.0
  0
ELLIPSE
  5
455
330
1F
100
AcDbEntity
  8
Untitled
 62
     7
370
     5
100
AcDbEllipse
 10
31.480696
 20
-93.412245
 30
0.0
 11
0.3125000000000776
 21
0.0
 31
0.0
210
0.0
220
0.0
230
1.0
 40
1.0
 41
5.608917882989269
 42
6.957452731369903
  0
LINE
  5
456
330
1F
100
AcDbEntity
  8
Untitled
 62
     7
370
     5
100
AcDbLine
 10
31.527883
 20
-93.853745
 30
0.0
 11
31.72481
 21
-93.607347
 31
0.0
  0
LINE
  5
457
330
1F
100
AcDbEntity
  8
Untitled
 62
     7
370
     5
100
AcDbLine
 10
31.527883
 20
-92.970745
 30
0.0
 11
31.527883
 21
-88.255995
 31
0.0
  0
LINE
  5
458
330
1F
100
AcDbEntity
  8
Untitled
 62
     7
370
     5
100
AcDbLine
 10
31.527883
 20
-92.970745
 30
0.0
 11
31.72481
 21
-93.217144
 31
0.0
  0
LINE
  5
459
330
1F
100
AcDbEntity
  8
Untitled
 62
     7
370
     5
100
AcDbLine
 10
31.487883
 20
-88.119745
 30
0.0
 11
31.487883
 21
-88.255995
 31
0.0
  0
LINE
  5
45A
330
1F
100
AcDbEntity
  8
Untitled
 62
     7
370
     5
100
AcDbLine
 10
31.487883
 20
-88.119745
 30
0.0
 11
31.507883
 21
-88.099745
 31
0.0
  0
LINE
  5
45B
330
1F
100
AcDbEntity
  8
Untitled
 62
     7
370
     5
100
AcDbLine
 10
30.962196
 20
-92.970745
 30
0.0
 11
30.962196
 21
-93.853745
 31
0.0
  0
LINE
  5
45C
330
1F
100
AcDbEntity
  8
Untitled
 62
     7
370
     5
100
AcDbLine
 10
31.425196
 20
-93.853745
 30
0.0
 11
31.425196
 21
-92.970745
 31
0.0
  0
LINE
  5
45D
330
1F
100
AcDbEntity
  8
Untitled
 62
     7
370
     5
100
AcDbLine
 10
30.887196
 20
-93.778745
 30
0.0
 11
30.887196
 21
-93.045745
 31
0.0
  0
LINE
  5
45E
330
1F
100
AcDbEntity
  8
Untitled
 62
     7
370
     5
100
AcDbLine
 10
31.375196
 20
-93.853745
 30
0.0
 11
31.375196
 21
-92.970745
 31
0.0
  0
LINE
  5
45F
330
1F
100
AcDbEntity
  8
Untitled
 62
     7
370
     5
100
AcDbLine
 10
30.887196
 20
-93.778745
 30
0.0
 11
30.962196
 21
-93.853745
 31
0.0
  0
LINE
  5
460
330
1F
100
AcDbEntity
  8
Untitled
 62
     7
370
     5
100
AcDbLine
 10
31.375196
 20
-93.853745
 30
0.0
 11
30.962196
 21
-93.853745
 31
0.0
  0
LINE
  5
461
330
1F
100
AcDbEntity
  8
Untitled
 62
     7
370
     5
100
AcDbLine
 10
31.400196
 20
-93.803745
 30
0.0
 11
31.375196
 21
-93.853745
 31
0.0
  0
LINE
  5
462
330
1F
100
AcDbEntity
  8
Untitled
 62
     7
370
     5
100
AcDbLine
 10
31.400196
 20
-93.803745
 30
0.0
 11
31.425196
 21
-93.853745
 31
0.0
  0
LINE
  5
463
330
1F
100
AcDbEntity
  8
Untitled
 62
     7
370
     5
100
AcDbLine
 10
30.962196
 20
-92.970745
 30
0.0
 11
31.375196
 21
-92.970745
 31
0.0
  0
LINE
  5
464
330
1F
100
AcDbEntity
  8
Untitled
 62
     7
370
     5
100
AcDbLine
 10
30.887196
 20
-93.045745
 30
0.0
 11
30.962196
 21
-92.970745
 31
0.0
  0
LINE
  5
465
330
1F
100
AcDbEntity
  8
Untitled
 62
     7
370
     5
100
AcDbLine
 10
31.400196
 20
-93.020745
 30
0.0
 11
31.375196
 21
-92.970745
 31
0.0
  0
LINE
  5
466
330
1F
100
AcDbEntity
  8
Untitled
 62
     7
370
     5
100
AcDbLine
 10
31.400196
 20
-93.020745
 30
0.0
 11
31.425196
 21
-92.970745
 31
0.0
  0
LINE
  5
467
330
1F
100
AcDbEntity
  8
Untitled
 62
     7
370
     5
100
AcDbLine
 10
32.567883
 20
-88.119745
 30
0.0
 11
32.567883
 21
-88.255995
 31
0.0
  0
LINE
  5
468
330
1F
100
AcDbEntity
  8
Untitled
 62
     7
370
     5
100
AcDbLine
 10
32.567883
 20
-88.119745
 30
0.0
 11
32.547883
 21
-88.099745
 31
0.0
  0
LINE
  5
469
330
1F
100
AcDbEntity
  8
Untitled
 62
     7
370
     5
100
AcDbLine
 10
60.887196
 20
-94.349745
 30
0.0
 11
44.168569
 21
-94.349745
 31
0.0
  0
LINE
  5
46A
330
1F
100
AcDbEntity
  8
Untitled
 62
     7
370
     5
100
AcDbLine
 10
44.168569
 20
-93.724745
 30
0.0
 11
60.887196
 21
-93.724745
 31
0.0
  0
LINE
  5
46B
330
1F
100
AcDbEntity
  8
Untitled
 62
     7
370
     5
100
AcDbLine
 10
42.527883
 20
-119.296745
 30
0.0
 11
42.527883
 21
-88.255995
 31
0.0
  0
LINE
  5
46C
330
1F
100
AcDbEntity
  8
Untitled
 62
     7
370
     5
100
AcDbLine
 10
43.527883
 20
-119.296745
 30
0.0
 11
43.527883
 21
-94.478745
 31
0.0
  0
LINE
  5
46D
330
1F
100
AcDbEntity
  8
Untitled
 62
     7
370
     5
100
AcDbLine
 10
42.400383
 20
-120.024745
 30
0.0
 11
43.655383
 21
-120.024745
 31
0.0
  0
LINE
  5
46E
330
1F
100
AcDbEntity
  8
Untitled
 62
     7
370
     5
100
AcDbLine
 10
42.400383
 20
-119.421745
 30
0.0
 11
43.655383
 21
-119.421745
 31
0.0
  0
LINE
  5
46F
330
1F
100
AcDbEntity
  8
Untitled
 62
     7
370
     5
100
AcDbLine
 10
43.655383
 20
-119.631745
 30
0.0
 11
42.400383
 21
-119.631745
 31
0.0
  0
LINE
  5
470
330
1F
100
AcDbEntity
  8
Untitled
 62
     7
370
     5
100
AcDbLine
 10
43.655383
 20
-119.681745
 30
0.0
 11
42.400383
 21
-119.681745
 31
0.0
  0
LINE
  5
471
330
1F
100
AcDbEntity
  8
Untitled
 62
     7
370
     5
100
AcDbLine
 10
42.475383
 20
-120.099745
 30
0.0
 11
43.580383
 21
-120.099745
 31
0.0
  0
LINE
  5
472
330
1F
100
AcDbEntity
  8
Untitled
 62
     7
370
     5
100
AcDbLine
 10
43.580383
 20
-119.296745
 30
0.0
 11
42.475383
 21
-119.296745
 31
0.0
  0
LINE
  5
473
330
1F
100
AcDbEntity
  8
Untitled
 62
     7
370
     5
100
AcDbLine
 10
42.400383
 20
-119.681745
 30
0.0
 11
42.400383
 21
-120.024745
 31
0.0
  0
LINE
  5
474
330
1F
100
AcDbEntity
  8
Untitled
 62
     7
370
     5
100
AcDbLine
 10
42.475383
 20
-120.099745
 30
0.0
 11
42.400383
 21
-120.024745
 31
0.0
  0
LINE
  5
475
330
1F
100
AcDbEntity
  8
Untitled
 62
     7
370
     5
100
AcDbLine
 10
42.475383
 20
-119.296745
 30
0.0
 11
42.400383
 21
-119.421745
 31
0.0
  0
LINE
  5
476
330
1F
100
AcDbEntity
  8
Untitled
 62
     7
370
     5
100
AcDbLine
 10
42.450383
 20
-119.656745
 30
0.0
 11
42.400383
 21
-119.681745
 31
0.0
  0
LINE
  5
477
330
1F
100
AcDbEntity
  8
Untitled
 62
     7
370
     5
100
AcDbLine
 10
42.450383
 20
-119.656745
 30
0.0
 11
42.400383
 21
-119.631745
 31
0.0
  0
LINE
  5
478
330
1F
100
AcDbEntity
  8
Untitled
 62
     7
370
     5
100
AcDbLine
 10
42.400383
 20
-119.421745
 30
0.0
 11
42.400383
 21
-119.631745
 31
0.0
  0
LINE
  5
479
330
1F
100
AcDbEntity
  8
Untitled
 62
     7
370
     5
100
AcDbLine
 10
43.655383
 20
-120.024745
 30
0.0
 11
43.580383
 21
-120.099745
 31
0.0
  0
LINE
  5
47A
330
1F
100
AcDbEntity
  8
Untitled
 62
     7
370
     5
100
AcDbLine
 10
43.580383
 20
-119.296745
 30
0.0
 11
43.655383
 21
-119.421745
 31
0.0
  0
LINE
  5
47B
330
1F
100
AcDbEntity
  8
Untitled
 62
     7
370
     5
100
AcDbLine
 10
43.655383
 20
-119.631745
 30
0.0
 11
43.655383
 21
-119.421745
 31
0.0
  0
LINE
  5
47C
330
1F
100
AcDbEntity
  8
Untitled
 62
     7
370
     5
100
AcDbLine
 10
43.605383
 20
-119.656745
 30
0.0
 11
43.655383
 21
-119.681745
 31
0.0
  0
LINE
  5
47D
330
1F
100
AcDbEntity
  8
Untitled
 62
     7
370
     5
100
AcDbLine
 10
43.605383
 20
-119.656745
 30
0.0
 11
43.655383
 21
-119.631745
 31
0.0
  0
LINE
  5
47E
330
1F
100
AcDbEntity
  8
Untitled
 62
     7
370
     5
100
AcDbLine
 10
43.655383
 20
-120.024745
 30
0.0
 11
43.655383
 21
-119.681745
 31
0.0
  0
LINE
  5
47F
330
1F
100
AcDbEntity
  8
Untitled
 62
     7
370
     5
100
AcDbLine
 10
43.527883
 20
-93.595745
 30
0.0
 11
43.527883
 21
-88.255995
 31
0.0
  0
LINE
  5
480
330
1F
100
AcDbEntity
  8
Untitled
 62
     7
370
     5
100
AcDbLine
 10
43.527883
 20
-94.478745
 30
0.0
 11
43.630569
 21
-94.478745
 31
0.0
  0
LINE
  5
481
330
1F
100
AcDbEntity
  8
Untitled
 62
     7
370
     5
100
AcDbLine
 10
43.527883
 20
-93.595745
 30
0.0
 11
43.630569
 21
-93.595745
 31
0.0
  0
ELLIPSE
  5
482
330
1F
100
AcDbEntity
  8
Untitled
 62
     7
370
     5
100
AcDbEllipse
 10
43.575069
 20
-94.037245
 30
0.0
 11
0.3124999999999222
 21
0.0
 31
0.0
210
0.0
220
0.0
230
1.0
 40
1.0
 41
2.467325229399079
 42
3.815860077780507
  0
LINE
  5
483
330
1F
100
AcDbEntity
  8
Untitled
 62
     7
370
     5
100
AcDbLine
 10
43.527883
 20
-94.478745
 30
0.0
 11
43.330955
 21
-94.232347
 31
0.0
  0
LINE
  5
484
330
1F
100
AcDbEntity
  8
Untitled
 62
     7
370
     5
100
AcDbLine
 10
43.527883
 20
-93.595745
 30
0.0
 11
43.330955
 21
-93.842144
 31
0.0
  0
LINE
  5
485
330
1F
100
AcDbEntity
  8
Untitled
 62
     7
370
     5
100
AcDbLine
 10
44.093569
 20
-93.595745
 30
0.0
 11
44.093569
 21
-94.478745
 31
0.0
  0
LINE
  5
486
330
1F
100
AcDbEntity
  8
Untitled
 62
     7
370
     5
100
AcDbLine
 10
43.630569
 20
-94.478745
 30
0.0
 11
43.630569
 21
-93.595745
 31
0.0
  0
LINE
  5
487
330
1F
100
AcDbEntity
  8
Untitled
 62
     7
370
     5
100
AcDbLine
 10
44.168569
 20
-94.403745
 30
0.0
 11
44.168569
 21
-93.670745
 31
0.0
  0
LINE
  5
488
330
1F
100
AcDbEntity
  8
Untitled
 62
     7
370
     5
100
AcDbLine
 10
43.680569
 20
-94.478745
 30
0.0
 11
43.680569
 21
-93.595745
 31
0.0
  0
LINE
  5
489
330
1F
100
AcDbEntity
  8
Untitled
 62
     7
370
     5
100
AcDbLine
 10
44.168569
 20
-94.403745
 30
0.0
 11
44.093569
 21
-94.478745
 31
0.0
  0
LINE
  5
48A
330
1F
100
AcDbEntity
  8
Untitled
 62
     7
370
     5
100
AcDbLine
 10
43.680569
 20
-94.478745
 30
0.0
 11
44.093569
 21
-94.478745
 31
0.0
  0
LINE
  5
48B
330
1F
100
AcDbEntity
  8
Untitled
 62
     7
370
     5
100
AcDbLine
 10
43.655569
 20
-94.428745
 30
0.0
 11
43.680569
 21
-94.478745
 31
0.0
  0
LINE
  5
48C
330
1F
100
AcDbEntity
  8
Untitled
 62
     7
370
     5
100
AcDbLine
 10
43.655569
 20
-94.428745
 30
0.0
 11
43.630569
 21
-94.478745
 31
0.0
  0
LINE
  5
48D
330
1F
100
AcDbEntity
  8
Untitled
 62
     7
370
     5
100
AcDbLine
 10
44.093569
 20
-93.595745
 30
0.0
 11
43.680569
 21
-93.595745
 31
0.0
  0
LINE
  5
48E
330
1F
100
AcDbEntity
  8
Untitled
 62
     7
370
     5
100
AcDbLine
 10
44.168569
 20
-93.670745
 30
0.0
 11
44.093569
 21
-93.595745
 31
0.0
  0
LINE
  5
48F
330
1F
100
AcDbEntity
  8
Untitled
 62
     7
370
     5
100
AcDbLine
 10
43.655569
 20
-93.645745
 30
0.0
 11
43.680569
 21
-93.595745
 31
0.0
  0
LINE
  5
490
330
1F
100
AcDbEntity
  8
Untitled
 62
     7
370
     5
100
AcDbLine
 10
43.655569
 20
-93.645745
 30
0.0
 11
43.630569
 21
-93.595745
 31
0.0
  0
LINE
  5
491
330
1F
100
AcDbEntity
  8
Untitled
 62
     7
370
     5
100
AcDbLine
 10
43.547883
 20
-88.099745
 30
0.0
 11
42.507883
 21
-88.099745
 31
0.0
  0
LINE
  5
492
330
1F
100
AcDbEntity
  8
Untitled
 62
     7
370
     5
100
AcDbLine
 10
42.487883
 20
-88.119745
 30
0.0
 11
42.487883
 21
-88.255995
 31
0.0
  0
LINE
  5
493
330
1F
100
AcDbEntity
  8
Untitled
 62
     7
370
     5
100
AcDbLine
 10
43.567883
 20
-88.119745
 30
0.0
 11
43.567883
 21
-88.255995
 31
0.0
  0
LINE
  5
494
330
1F
100
AcDbEntity
  8
Untitled
 62
     7
370
     5
100
AcDbLine
 10
43.567883
 20
-88.255995
 30
0.0
 11
42.487883
 21
-88.255995
 31
0.0
  0
LINE
  5
495
330
1F
100
AcDbEntity
  8
Untitled
 62
     7
370
     5
100
AcDbLine
 10
43.567883
 20
-88.119745
 30
0.0
 11
43.547883
 21
-88.099745
 31
0.0
  0
LINE
  5
496
330
1F
100
AcDbEntity
  8
Untitled
 62
     7
370
     5
100
AcDbLine
 10
42.487883
 20
-88.119745
 30
0.0
 11
42.507883
 21
-88.099745
 31
0.0
  0
LINE
  5
497
330
1F
100
AcDbEntity
  8
Untitled
 62
     7
370
     5
100
AcDbLine
 10
43.567883
 20
-88.119745
 30
0.0
 11
42.487883
 21
-88.119745
 31
0.0
  0
LINE
  5
498
330
1F
100
AcDbEntity
  8
Untitled
 62
     7
370
     5
100
AcDbLine
 10
61.527883
 20
-119.296745
 30
0.0
 11
61.527883
 21
-94.478745
 31
0.0
  0
LINE
  5
499
330
1F
100
AcDbEntity
  8
Untitled
 62
     7
370
     5
100
AcDbLine
 10
62.527883
 20
-119.296745
 30
0.0
 11
62.527883
 21
-88.255995
 31
0.0
  0
LINE
  5
49A
330
1F
100
AcDbEntity
  8
Untitled
 62
     7
370
     5
100
AcDbLine
 10
62.580383
 20
-120.099745
 30
0.0
 11
61.475383
 21
-120.099745
 31
0.0
  0
LINE
  5
49B
330
1F
100
AcDbEntity
  8
Untitled
 62
     7
370
     5
100
AcDbLine
 10
62.655383
 20
-120.024745
 30
0.0
 11
61.400383
 21
-120.024745
 31
0.0
  0
LINE
  5
49C
330
1F
100
AcDbEntity
  8
Untitled
 62
     7
370
     5
100
AcDbLine
 10
61.475383
 20
-119.296745
 30
0.0
 11
62.580383
 21
-119.296745
 31
0.0
  0
LINE
  5
49D
330
1F
100
AcDbEntity
  8
Untitled
 62
     7
370
     5
100
AcDbLine
 10
62.655383
 20
-119.421745
 30
0.0
 11
61.400383
 21
-119.421745
 31
0.0
  0
LINE
  5
49E
330
1F
100
AcDbEntity
  8
Untitled
 62
     7
370
     5
100
AcDbLine
 10
61.400383
 20
-119.631745
 30
0.0
 11
62.655383
 21
-119.631745
 31
0.0
  0
LINE
  5
49F
330
1F
100
AcDbEntity
  8
Untitled
 62
     7
370
     5
100
AcDbLine
 10
61.400383
 20
-119.681745
 30
0.0
 11
62.655383
 21
-119.681745
 31
0.0
  0
LINE
  5
4A0
330
1F
100
AcDbEntity
  8
Untitled
 62
     7
370
     5
100
AcDbLine
 10
61.400383
 20
-119.631745
 30
0.0
 11
61.400383
 21
-119.421745
 31
0.0
  0
LINE
  5
4A1
330
1F
100
AcDbEntity
  8
Untitled
 62
     7
370
     5
100
AcDbLine
 10
61.400383
 20
-120.024745
 30
0.0
 11
61.475383
 21
-120.099745
 31
0.0
  0
LINE
  5
4A2
330
1F
100
AcDbEntity
  8
Untitled
 62
     7
370
     5
100
AcDbLine
 10
61.475383
 20
-119.296745
 30
0.0
 11
61.400383
 21
-119.421745
 31
0.0
  0
LINE
  5
4A3
330
1F
100
AcDbEntity
  8
Untitled
 62
     7
370
     5
100
AcDbLine
 10
61.450383
 20
-119.656745
 30
0.0
 11
61.400383
 21
-119.681745
 31
0.0
  0
LINE
  5
4A4
330
1F
100
AcDbEntity
  8
Untitled
 62
     7
370
     5
100
AcDbLine
 10
61.450383
 20
-119.656745
 30
0.0
 11
61.400383
 21
-119.631745
 31
0.0
  0
LINE
  5
4A5
330
1F
100
AcDbEntity
  8
Untitled
 62
     7
370
     5
100
AcDbLine
 10
61.400383
 20
-120.024745
 30
0.0
 11
61.400383
 21
-119.681745
 31
0.0
  0
LINE
  5
4A6
330
1F
100
AcDbEntity
  8
Untitled
 62
     7
370
     5
100
AcDbLine
 10
62.655383
 20
-119.681745
 30
0.0
 11
62.655383
 21
-120.024745
 31
0.0
  0
LINE
  5
4A7
330
1F
100
AcDbEntity
  8
Untitled
 62
     7
370
     5
100
AcDbLine
 10
62.580383
 20
-120.099745
 30
0.0
 11
62.655383
 21
-120.024745
 31
0.0
  0
LINE
  5
4A8
330
1F
100
AcDbEntity
  8
Untitled
 62
     7
370
     5
100
AcDbLine
 10
62.580383
 20
-119.296745
 30
0.0
 11
62.655383
 21
-119.421745
 31
0.0
  0
LINE
  5
4A9
330
1F
100
AcDbEntity
  8
Untitled
 62
     7
370
     5
100
AcDbLine
 10
62.605383
 20
-119.656745
 30
0.0
 11
62.655383
 21
-119.681745
 31
0.0
  0
LINE
  5
4AA
330
1F
100
AcDbEntity
  8
Untitled
 62
     7
370
     5
100
AcDbLine
 10
62.605383
 20
-119.656745
 30
0.0
 11
62.655383
 21
-119.631745
 31
0.0
  0
LINE
  5
4AB
330
1F
100
AcDbEntity
  8
Untitled
 62
     7
370
     5
100
AcDbLine
 10
62.655383
 20
-119.421745
 30
0.0
 11
62.655383
 21
-119.631745
 31
0.0
  0
LINE
  5
4AC
330
1F
100
AcDbEntity
  8
Untitled
 62
     7
370
     5
100
AcDbLine
 10
61.527883
 20
-93.595745
 30
0.0
 11
61.527883
 21
-88.255995
 31
0.0
  0
LINE
  5
4AD
330
1F
100
AcDbEntity
  8
Untitled
 62
     7
370
     5
100
AcDbLine
 10
60.962196
 20
-93.595745
 30
0.0
 11
60.962196
 21
-94.478745
 31
0.0
  0
LINE
  5
4AE
330
1F
100
AcDbEntity
  8
Untitled
 62
     7
370
     5
100
AcDbLine
 10
61.425196
 20
-94.478745
 30
0.0
 11
61.425196
 21
-93.595745
 31
0.0
  0
LINE
  5
4AF
330
1F
100
AcDbEntity
  8
Untitled
 62
     7
370
     5
100
AcDbLine
 10
60.887196
 20
-94.403745
 30
0.0
 11
60.887196
 21
-93.670745
 31
0.0
  0
ELLIPSE
  5
4B0
330
1F
100
AcDbEntity
  8
Untitled
 62
     7
370
     5
100
AcDbEllipse
 10
61.480696
 20
-94.037245
 30
0.0
 11
0.312500000000233
 21
0.0
 31
0.0
210
0.0
220
0.0
230
1.0
 40
1.0
 41
5.608917882989667
 42
6.957452731369505
  0
LINE
  5
4B1
330
1F
100
AcDbEntity
  8
Untitled
 62
     7
370
     5
100
AcDbLine
 10
61.375196
 20
-94.478745
 30
0.0
 11
61.375196
 21
-93.595745
 31
0.0
  0
LINE
  5
4B2
330
1F
100
AcDbEntity
  8
Untitled
 62
     7
370
     5
100
AcDbLine
 10
60.887196
 20
-94.403745
 30
0.0
 11
60.962196
 21
-94.478745
 31
0.0
  0
LINE
  5
4B3
330
1F
100
AcDbEntity
  8
Untitled
 62
     7
370
     5
100
AcDbLine
 10
61.527883
 20
-94.478745
 30
0.0
 11
61.72481
 21
-94.232347
 31
0.0
  0
LINE
  5
4B4
330
1F
100
AcDbEntity
  8
Untitled
 62
     7
370
     5
100
AcDbLine
 10
61.375196
 20
-94.478745
 30
0.0
 11
60.962196
 21
-94.478745
 31
0.0
  0
LINE
  5
4B5
330
1F
100
AcDbEntity
  8
Untitled
 62
     7
370
     5
100
AcDbLine
 10
61.400196
 20
-94.428745
 30
0.0
 11
61.375196
 21
-94.478745
 31
0.0
  0
LINE
  5
4B6
330
1F
100
AcDbEntity
  8
Untitled
 62
     7
370
     5
100
AcDbLine
 10
61.400196
 20
-94.428745
 30
0.0
 11
61.425196
 21
-94.478745
 31
0.0
  0
LINE
  5
4B7
330
1F
100
AcDbEntity
  8
Untitled
 62
     7
370
     5
100
AcDbLine
 10
61.527883
 20
-94.478745
 30
0.0
 11
61.425196
 21
-94.478745
 31
0.0
  0
LINE
  5
4B8
330
1F
100
AcDbEntity
  8
Untitled
 62
     7
370
     5
100
AcDbLine
 10
60.962196
 20
-93.595745
 30
0.0
 11
61.375196
 21
-93.595745
 31
0.0
  0
LINE
  5
4B9
330
1F
100
AcDbEntity
  8
Untitled
 62
     7
370
     5
100
AcDbLine
 10
60.887196
 20
-93.670745
 30
0.0
 11
60.962196
 21
-93.595745
 31
0.0
  0
LINE
  5
4BA
330
1F
100
AcDbEntity
  8
Untitled
 62
     7
370
     5
100
AcDbLine
 10
61.400196
 20
-93.645745
 30
0.0
 11
61.375196
 21
-93.595745
 31
0.0
  0
LINE
  5
4BB
330
1F
100
AcDbEntity
  8
Untitled
 62
     7
370
     5
100
AcDbLine
 10
61.400196
 20
-93.645745
 30
0.0
 11
61.425196
 21
-93.595745
 31
0.0
  0
LINE
  5
4BC
330
1F
100
AcDbEntity
  8
Untitled
 62
     7
370
     5
100
AcDbLine
 10
61.527883
 20
-93.595745
 30
0.0
 11
61.425196
 21
-93.595745
 31
0.0
  0
LINE
  5
4BD
330
1F
100
AcDbEntity
  8
Untitled
 62
     7
370
     5
100
AcDbLine
 10
61.527883
 20
-93.595745
 30
0.0
 11
61.72481
 21
-93.842144
 31
0.0
  0
LINE
  5
4BE
330
1F
100
AcDbEntity
  8
Untitled
 62
     7
370
     5
100
AcDbLine
 10
61.507883
 20
-88.099745
 30
0.0
 11
62.547883
 21
-88.099745
 31
0.0
  0
LINE
  5
4BF
330
1F
100
AcDbEntity
  8
Untitled
 62
     7
370
     5
100
AcDbLine
 10
61.487883
 20
-88.255995
 30
0.0
 11
62.567883
 21
-88.255995
 31
0.0
  0
LINE
  5
4C0
330
1F
100
AcDbEntity
  8
Untitled
 62
     7
370
     5
100
AcDbLine
 10
61.487883
 20
-88.119745
 30
0.0
 11
62.567883
 21
-88.119745
 31
0.0
  0
LINE
  5
4C1
330
1F
100
AcDbEntity
  8
Untitled
 62
     7
370
     5
100
AcDbLine
 10
61.487883
 20
-88.119745
 30
0.0
 11
61.487883
 21
-88.255995
 31
0.0
  0
LINE
  5
4C2
330
1F
100
AcDbEntity
  8
Untitled
 62
     7
370
     5
100
AcDbLine
 10
61.487883
 20
-88.119745
 30
0.0
 11
61.507883
 21
-88.099745
 31
0.0
  0
LINE
  5
4C3
330
1F
100
AcDbEntity
  8
Untitled
 62
     7
370
     5
100
AcDbLine
 10
62.567883
 20
-88.119745
 30
0.0
 11
62.567883
 21
-88.255995
 31
0.0
  0
LINE
  5
4C4
330
1F
100
AcDbEntity
  8
Untitled
 62
     7
370
     5
100
AcDbLine
 10
62.567883
 20
-88.119745
 30
0.0
 11
62.547883
 21
-88.099745
 31
0.0
  0
INSERT
  5
4C6
330
1F
100
AcDbEntity
  8
0
100
AcDbBlockReference
  2
Block942
 10
39.777883
 20
2.525255
 30
0.0
  0
INSERT
  5
4CD
330
1F
100
AcDbEntity
  8
0
100
AcDbBlockReference
  2
Block943
 10
-35.472117
 20
2.525255
 30
0.0
  0
INSERT
  5
4D4
330
1F
100
AcDbEntity
  8
0
100
AcDbBlockReference
  2
Block944
 10
42.527883
 20
-35.474745
 30
0.0
  0
INSERT
  5
4DB
330
1F
100
AcDbEntity
  8
0
100
AcDbBlockReference
  2
Block945
 10
28.277883
 20
-73.474745
 30
0.0
  0
INSERT
  5
4E2
330
1F
100
AcDbEntity
  8
0
100
AcDbBlockReference
  2
Block946
 10
61.527883
 20
-111.474745
 30
0.0
  0
INSERT
  5
4E9
330
1F
100
AcDbEntity
  8
0
100
AcDbBlockReference
  2
Block947
 10
58.073883
 20
20.275255
 30
0.0
  0
INSERT
  5
4F0
330
1F
100
AcDbEntity
  8
0
100
AcDbBlockReference
  2
Block948
 10
60.823883
 20
-17.724745
 30
0.0
  0
INSERT
  5
4F7
330
1F
100
AcDbEntity
  8
0
100
AcDbBlockReference
  2
Block949
 10
19.277883
 20
-55.724745
 30
0.0
  0
INSERT
  5
4FE
330
1F
100
AcDbEntity
  8
0
100
AcDbBlockReference
  2
Block950
 10
52.527883
 20
-93.724745
 30
0.0
  0
INSERT
  5
505
330
1F
100
AcDbEntity
  8
0
100
AcDbBlockReference
  2
Block951
 10
26.527883
 20
25.900255
 30
0.0
  0
INSERT
  5
50C
330
1F
100
AcDbEntity
  8
0
100
AcDbBlockReference
  2
Block952
 10
44.027883
 20
25.900255
 30
0.0
  0
INSERT
  5
513
330
1F
100
AcDbEntity
  8
0
100
AcDbBlockReference
  2
Block953
 10
46.777883
 20
-12.099745
 30
0.0
  0
INSERT
  5
51A
330
1F
100
AcDbEntity
  8
0
100
AcDbBlockReference
  2
Block954
 10
29.277883
 20
-12.099745
 30
0.0
  0
INSERT
  5
521
330
1F
100
AcDbEntity
  8
0
100
AcDbBlockReference
  2
Block955
 10
-3.972117
 20
-50.099745
 30
0.0
  0
INSERT
  5
528
330
1F
100
AcDbEntity
  8
0
100
AcDbBlockReference
  2
Block956
 10
13.527883
 20
-50.099745
 30
0.0
  0
INSERT
  5
52F
330
1F
100
AcDbEntity
  8
0
100
AcDbBlockReference
  2
Block957
 10
29.277883
 20
-88.099745
 30
0.0
  0
INSERT
  5
536
330
1F
100
AcDbEntity
  8
0
100
AcDbBlockReference
  2
Block958
 10
46.777883
 20
-88.099745
 30
0.0
  0
INSERT
  5
53D
330
1F
100
AcDbEntity
  8
0
100
AcDbBlockReference
  2
Block959
 10
61.777883
 20
13.802075
 30
0.0
  0
INSERT
  5
544
330
1F
100
AcDbEntity
  8
0
100
AcDbBlockReference
  2
Block960
 10
64.527883
 20
-24.197925
 30
0.0
  0
INSERT
  5
54B
330
1F
100
AcDbEntity
  8
0
100
AcDbBlockReference
  2
Block961
 10
31.277883
 20
-62.197925
 30
0.0
  0
INSERT
  5
552
330
1F
100
AcDbEntity
  8
0
100
AcDbBlockReference
  2
Block962
 10
64.527883
 20
-100.197925
 30
0.0
  0
INSERT
  5
559
330
1F
100
AcDbEntity
  8
0
100
AcDbBlockReference
  2
Block963
 10
31.277883
 20
-59.599745
 30
0.0
  0
INSERT
  5
560
330
1F
100
AcDbEntity
  8
0
100
AcDbBlockReference
  2
Block964
 10
64.527883
 20
-97.599745
 30
0.0
  0
INSERT
  5
567
330
1F
100
AcDbEntity
  8
0
100
AcDbBlockReference
  2
Block965
 10
-9.809368
 20
39.295968
 30
0.0
  0
TEXT
  5
56A
330
1F
100
AcDbEntity
  8
Untitled
 62
     7
100
AcDbText
 10
-15.728101
 20
34.413427
 30
0.0
 40
1.125
  1
Refer to the PDF specification for model numbers and additional information.
  7
ARIAL_400_0
100
AcDbText
  0
INSERT
  5
56C
330
1F
100
AcDbEntity
  8
0
100
AcDbBlockReference
  2
Block968
 10
-16.890506
 20
31.677299
 30
0.0
  0
LINE
  5
570
330
1F
100
AcDbEntity
  8
Untitled
 62
     1
370
     5
100
AcDbLine
 10
-9.677487
 20
37.006394
 30
0.0
 11
30.341048
 21
37.006394
 31
0.0
  0
TEXT
  5
571
330
1F
100
AcDbEntity
  8
Untitled
 62
     7
100
AcDbText
 10
1.232159
 20
41.740138
 30
0.0
 40
1.125
  1
PALMER INDUSTRIES
  7
ARIAL_400_0
100
AcDbText
  0
LINE
  5
572
330
1F
100
AcDbEntity
  8
Untitled
 62
   136
370
    25
100
AcDbLine
 10
1.387927
 20
41.161154
 30
0.0
 11
17.48638
 21
41.161154
 31
0.0
  0
ENDSEC
  0
SECTION
  2
OBJECTS
  0
DICTIONARY
  5
C
330
0
100
AcDbDictionary
281
     1
  3
ACAD_COLOR
350
6B
  3
ACAD_GROUP
350
D
  3
ACAD_IMAGE_VARS
350
8D
  3
ACAD_LAYOUT
350
1A
  3
ACAD_MATERIAL
350
6A
  3
ACAD_MLEADERSTYLE
350
D8
  3
ACAD_MLINESTYLE
350
17
  3
ACAD_PLOTSETTINGS
350
19
  3
ACAD_PLOTSTYLENAME
350
E
  3
ACAD_SCALELIST
350
98
  3
ACAD_TABLESTYLE
350
D6
  3
ACAD_VISUALSTYLE
350
BD
  3
ACDBHEADERROUNDTRIPXREC
350
5BC
  3
AcDbVariableDictionary
350
5E
  0
DICTIONARY
  5
5BF
330
8
100
AcDbDictionary
280
     1
281
     1
  3
ACAD_XREC_ROUNDTRIP
360
5C0
  0
DICTIONARY
  5
6B
102
{ACAD_REACTORS
330
C
102
}
330
C
100
AcDbDictionary
281
     1
  0
DICTIONARY
  5
D
102
{ACAD_REACTORS
330
C
102
}
330
C
100
AcDbDictionary
281
     1
  0
RASTERVARIABLES
  5
8D
102
{ACAD_REACTORS
330
C
102
}
330
C
100
AcDbRasterVariables
 90
        0
 70
     0
 71
     1
 72
     1
  0
DICTIONARY
  5
1A
102
{ACAD_REACTORS
330
C
102
}
330
C
100
AcDbDictionary
281
     1
  3
Layout1
350
51
  3
Layout2
350
56
  3
Model
350
22
  0
DICTIONARY
  5
6A
102
{ACAD_REACTORS
330
C
102
}
330
C
100
AcDbDictionary
281
     1
  3
ByBlock
350
BB
  3
ByLayer
350
BA
  3
Global
350
BC
  0
DICTIONARY
  5
D8
102
{ACAD_REACTORS
330
C
102
}
330
C
100
AcDbDictionary
281
     1
  3
Standard
350
D9
  0
DICTIONARY
  5
17
102
{ACAD_REACTORS
330
C
102
}
330
C
100
AcDbDictionary
281
     1
  3
Standard
350
18
  0
DICTIONARY
  5
19
102
{ACAD_REACTORS
330
C
102
}
330
C
100
AcDbDictionary
281
     1
  0
ACDBDICTIONARYWDFLT
  5
E
102
{ACAD_REACTORS
330
C
102
}
330
C
100
AcDbDictionary
281
     1
  3
Normal
350
F
100
AcDbDictionaryWithDefault
340
F
  0
DICTIONARY
  5
98
102
{ACAD_REACTORS
330
C
102
}
330
C
100
AcDbDictionary
281
     1
  3
A0
350
99
  3
A1
350
9A
  3
A2
350
9B
  3
A3
350
9C
  3
A4
350
9D
  3
A5
350
9E
  3
A6
350
9F
  3
A7
350
A0
  3
A8
350
A1
  3
A9
350
A2
  3
B0
350
A3
  3
B1
350
A4
  3
B2
350
A5
  3
B3
350
A6
  3
B4
350
A7
  3
B5
350
A8
  3
B6
350
A9
  3
B7
350
AA
  3
B8
350
AB
  3
B9
350
AC
  3
C0
350
AD
  3
C1
350
AE
  3
C2
350
AF
  3
C3
350
B0
  3
C4
350
B1
  3
C5
350
B2
  3
C6
350
B3
  3
C7
350
B4
  3
C8
350
B5
  3
C9
350
B6
  3
D0
350
B7
  3
D1
350
B8
  3
D2
350
B9
  0
DICTIONARY
  5
D6
102
{ACAD_REACTORS
330
C
102
}
330
C
100
AcDbDictionary
281
     1
  3
Standard
350
D7
  0
DICTIONARY
  5
BD
102
{ACAD_REACTORS
330
C
102
}
330
C
100
AcDbDictionary
281
     1
  3
2dWireframe
350
C2
  3
Basic
350
C5
  3
Brighten
350
C9
  3
ColorChange
350
CD
  3
Conceptual
350
C7
  3
Dim
350
C8
  3
EdgeColorOff
350
D0
  3
Facepattern
350
CC
  3
Flat
350
BE
  3
FlatWithEdges
350
BF
  3
Gouraud
350
C0
  3
GouraudWithEdges
350
C1
  3
Hidden
350
C4
  3
JitterOff
350
CE
  3
Linepattern
350
CB
  3
OverhangOff
350
CF
  3
Realistic
350
C6
  3
Shaded
350
D5
  3
Shaded with edges
350
D4
  3
Shades of Gray
350
D1
  3
Sketchy
350
D2
  3
Thicken
350
CA
  3
Wireframe
350
C3
  3
X-Ray
350
D3
  0
DICTIONARY
  5
5BC
102
{ACAD_REACTORS
330
C
102
}
330
C
100
AcDbDictionary
281
     1
  3
COLORDICT
350
5BD
  3
MATERIALDICT
350
5BE
  0
DICTIONARY
  5
5E
102
{ACAD_REACTORS
330
C
102
}
330
C
100
AcDbDictionary
281
     1
  3
CANNOSCALE
350
5C1
  3
CMLEADERSTYLE
350
5B8
  3
CTABLESTYLE
350
5B7
  3
DIMASSOC
350
5F
  3
HIDETEXT
350
63
  3
MSLTSCALE
350
5B9
  3
PROJECTNAME
350
89
  0
XRECORD
  5
5C0
102
{ACAD_REACTORS
330
5BF
102
}
330
5BF
100
AcDbXrecord
280
     1
102
VTR_0.000_0.000_1.000_1.000_VISUALSTYLE
340
C2
102
VTR_0.000_0.000_1.000_1.000_GRIDDISPLAY
 70
     3
102
VTR_0.000_0.000_1.000_1.000_GRIDMAJOR
 70
     5
102
VTR_0.000_0.000_1.000_1.000_DEFAULTLIGHTING
280
     1
102
VTR_0.000_0.000_1.000_1.000_DEFAULTLIGHTINGTYPE
 70
     1
102
VTR_0.000_0.000_1.000_1.000_BRIGHTNESS
141
0.0
102
VTR_0.000_0.000_1.000_1.000_CONTRAST
142
0.0
  0
LAYOUT
  5
51
102
{ACAD_REACTORS
330
1A
102
}
330
1A
100
AcDbPlotSettings
  1

  2
None
  4

  6

 40
0.0
 41
0.0
 42
0.0
 43
0.0
 44
0.0
 45
0.0
 46
0.0
 47
0.0
 48
0.0
 49
0.0
140
0.0
141
0.0
142
1.0
143
1.0
 70
   688
 72
     0
 73
     0
 74
     5
  7

 75
    16
147
1.0
148
0.0
149
0.0
100
AcDbLayout
  1
Layout1
 70
     1
 71
     1
 10
0.0
 20
0.0
 11
12.0
 21
9.0
 12
0.0
 22
0.0
 32
0.0
 14
0.0
 24
0.0
 34
0.0
 15
0.0
 25
0.0
 35
0.0
146
0.0
 13
0.0
 23
0.0
 33
0.0
 16
1.0
 26
0.0
 36
0.0
 17
0.0
 27
1.0
 37
0.0
 76
     0
330
50
  0
LAYOUT
  5
56
102
{ACAD_REACTORS
330
1A
102
}
330
1A
100
AcDbPlotSettings
  1

  2
None
  4

  6

 40
0.0
 41
0.0
 42
0.0
 43
0.0
 44
0.0
 45
0.0
 46
0.0
 47
0.0
 48
0.0
 49
0.0
140
0.0
141
0.0
142
1.0
143
1.0
 70
   688
 72
     0
 73
     0
 74
     5
  7

 75
    16
147
1.0
148
0.0
149
0.0
100
AcDbLayout
  1
Layout2
 70
     1
 71
     2
 10
0.0
 20
0.0
 11
12.0
 21
9.0
 12
0.0
 22
0.0
 32
0.0
 14
0.0
 24
0.0
 34
0.0
 15
0.0
 25
0.0
 35
0.0
146
0.0
 13
0.0
 23
0.0
 33
0.0
 16
1.0
 26
0.0
 36
0.0
 17
0.0
 27
1.0
 37
0.0
 76
     0
330
55
  0
LAYOUT
  5
22
102
{ACAD_REACTORS
330
1A
102
}
330
1A
100
AcDbPlotSettings
  1

  2
none_device
  4
ANSI_A_(8.50_x_11.00_Inches)
  6

 40
6.35
 41
19.049999
 42
6.350006
 43
19.049988
 44
215.899994
 45
279.399994
 46
0.0
 47
0.0
 48
0.0
 49
0.0
140
0.0
141
0.0
142
1.0
143
78.436453
 70
 11952
 72
     0
 73
     1
 74
     0
  7

 75
     0
147
0.012749
148
0.0
149
0.0
100
AcDbLayout
  1
Model
 70
     1
 71
     0
 10
0.0
 20
0.0
 11
12.0
 21
9.0
 12
0.0
 22
0.0
 32
0.0
 14
0.0
 24
0.0
 34
0.0
 15
0.0
 25
0.0
 35
0.0
146
0.0
 13
0.0
 23
0.0
 33
0.0
 16
1.0
 26
0.0
 36
0.0
 17
0.0
 27
1.0
 37
0.0
 76
     0
330
1F
331
8E
  0
MATERIAL
  5
BB
102
{ACAD_REACTORS
330
6A
102
}
102
{ACAD_XDICTIONARY
360
5C4
102
}
330
6A
100
AcDbMaterial
  1
ByBlock
  0
MATERIAL
  5
BA
102
{ACAD_REACTORS
330
6A
102
}
102
{ACAD_XDICTIONARY
360
5C2
102
}
330
6A
100
AcDbMaterial
  1
ByLayer
  0
MATERIAL
  5
BC
102
{ACAD_REACTORS
330
6A
102
}
102
{ACAD_XDICTIONARY
360
5C6
102
}
330
6A
100
AcDbMaterial
  1
Global
  0
MLEADERSTYLE
  5
D9
102
{ACAD_REACTORS
330
D8
102
}
102
{ACAD_XDICTIONARY
360
5F9
102
}
330
D8
100
AcDbMLeaderStyle
170
     2
171
     1
172
     0
 90
        2
 40
0.0
 41
0.0
173
     1
 91
-1056964608
340
14
 92
       -2
290
     1
 42
2.0
291
     1
 43
8.0
  3
Standard
341
0
 44
4.0
300

342
11
174
     1
178
     6
175
     1
176
     0
 93
-1056964608
 45
4.0
292
     0
297
     0
 46
4.0
343
0
 94
-1056964608
 47
1.0
 49
1.0
140
1.0
293
     1
141
0.0
294
     1
177
     0
142
1.0
295
     0
296
     0
143
3.75
1001
ACAD_MLEADERVER
1070
     2
  0
MLINESTYLE
  5
18
102
{ACAD_REACTORS
330
17
102
}
330
17
100
AcDbMlineStyle
  2
STANDARD
 70
     0
  3

 62
   256
 51
90.0
 52
90.0
 71
     2
 49
0.5
 62
   256
  6
BYLAYER
 49
-0.5
 62
   256
  6
BYLAYER
  0
ACDBPLACEHOLDER
  5
F
102
{ACAD_REACTORS
330
E
102
}
330
E
  0
SCALE
  5
99
102
{ACAD_REACTORS
330
98
102
}
330
98
100
AcDbScale
 70
     0
300
1:1
140
1.0
141
1.0
290
     1
  0
SCALE
  5
9A
102
{ACAD_REACTORS
330
98
102
}
330
98
100
AcDbScale
 70
     0
300
1:2
140
1.0
141
2.0
290
     0
  0
SCALE
  5
9B
102
{ACAD_REACTORS
330
98
102
}
330
98
100
AcDbScale
 70
     0
300
1:4
140
1.0
141
4.0
290
     0
  0
SCALE
  5
9C
102
{ACAD_REACTORS
330
98
102
}
330
98
100
AcDbScale
 70
     0
300
1:5
140
1.0
141
5.0
290
     0
  0
SCALE
  5
9D
102
{ACAD_REACTORS
330
98
102
}
330
98
100
AcDbScale
 70
     0
300
1:8
140
1.0
141
8.0
290
     0
  0
SCALE
  5
9E
102
{ACAD_REACTORS
330
98
102
}
330
98
100
AcDbScale
 70
     0
300
1:10
140
1.0
141
10.0
290
     0
  0
SCALE
  5
9F
102
{ACAD_REACTORS
330
98
102
}
330
98
100
AcDbScale
 70
     0
300
1:16
140
1.0
141
16.0
290
     0
  0
SCALE
  5
A0
102
{ACAD_REACTORS
330
98
102
}
330
98
100
AcDbScale
 70
     0
300
1:20
140
1.0
141
20.0
290
     0
  0
SCALE
  5
A1
102
{ACAD_REACTORS
330
98
102
}
330
98
100
AcDbScale
 70
     0
300
1:30
140
1.0
141
30.0
290
     0
  0
SCALE
  5
A2
102
{ACAD_REACTORS
330
98
102
}
330
98
100
AcDbScale
 70
     0
300
1:40
140
1.0
141
40.0
290
     0
  0
SCALE
  5
A3
102
{ACAD_REACTORS
330
98
102
}
330
98
100
AcDbScale
 70
     0
300
1:50
140
1.0
141
50.0
290
     0
  0
SCALE
  5
A4
102
{ACAD_REACTORS
330
98
102
}
330
98
100
AcDbScale
 70
     0
300
1:100
140
1.0
141
100.0
290
     0
  0
SCALE
  5
A5
102
{ACAD_REACTORS
330
98
102
}
330
98
100
AcDbScale
 70
     0
300
2:1
140
2.0
141
1.0
290
     0
  0
SCALE
  5
A6
102
{ACAD_REACTORS
330
98
102
}
330
98
100
AcDbScale
 70
     0
300
4:1
140
4.0
141
1.0
290
     0
  0
SCALE
  5
A7
102
{ACAD_REACTORS
330
98
102
}
330
98
100
AcDbScale
 70
     0
300
8:1
140
8.0
141
1.0
290
     0
  0
SCALE
  5
A8
102
{ACAD_REACTORS
330
98
102
}
330
98
100
AcDbScale
 70
     0
300
10:1
140
10.0
141
1.0
290
     0
  0
SCALE
  5
A9
102
{ACAD_REACTORS
330
98
102
}
330
98
100
AcDbScale
 70
     0
300
100:1
140
100.0
141
1.0
290
     0
  0
SCALE
  5
AA
102
{ACAD_REACTORS
330
98
102
}
330
98
100
AcDbScale
 70
     0
300
1/128" = 1'-0"
140
0.007812
141
12.0
290
     0
  0
SCALE
  5
AB
102
{ACAD_REACTORS
330
98
102
}
330
98
100
AcDbScale
 70
     0
300
1/64" = 1'-0"
140
0.015625
141
12.0
290
     0
  0
SCALE
  5
AC
102
{ACAD_REACTORS
330
98
102
}
330
98
100
AcDbScale
 70
     0
300
1/32" = 1'-0"
140
0.03125
141
12.0
290
     0
  0
SCALE
  5
AD
102
{ACAD_REACTORS
330
98
102
}
330
98
100
AcDbScale
 70
     0
300
1/16" = 1'-0"
140
0.0625
141
12.0
290
     0
  0
SCALE
  5
AE
102
{ACAD_REACTORS
330
98
102
}
330
98
100
AcDbScale
 70
     0
300
3/32" = 1'-0"
140
0.09375
141
12.0
290
     0
  0
SCALE
  5
AF
102
{ACAD_REACTORS
330
98
102
}
330
98
100
AcDbScale
 70
     0
300
1/8" = 1'-0"
140
0.125
141
12.0
290
     0
  0
SCALE
  5
B0
102
{ACAD_REACTORS
330
98
102
}
330
98
100
AcDbScale
 70
     0
300
3/16" = 1'-0"
140
0.1875
141
12.0
290
     0
  0
SCALE
  5
B1
102
{ACAD_REACTORS
330
98
102
}
330
98
100
AcDbScale
 70
     0
300
1/4" = 1'-0"
140
0.25
141
12.0
290
     0
  0
SCALE
  5
B2
102
{ACAD_REACTORS
330
98
102
}
330
98
100
AcDbScale
 70
     0
300
3/8" = 1'-0"
140
0.375
141
12.0
290
     0
  0
SCALE
  5
B3
102
{ACAD_REACTORS
330
98
102
}
330
98
100
AcDbScale
 70
     0
300
1/2" = 1'-0"
140
0.5
141
12.0
290
     0
  0
SCALE
  5
B4
102
{ACAD_REACTORS
330
98
102
}
330
98
100
AcDbScale
 70
     0
300
3/4" = 1'-0"
140
0.75
141
12.0
290
     0
  0
SCALE
  5
B5
102
{ACAD_REACTORS
330
98
102
}
330
98
100
AcDbScale
 70
     0
300
1" = 1'-0"
140
1.0
141
12.0
290
     0
  0
SCALE
  5
B6
102
{ACAD_REACTORS
330
98
102
}
330
98
100
AcDbScale
 70
     0
300
1-1/2" = 1'-0"
140
1.5
141
12.0
290
     0
  0
SCALE
  5
B7
102
{ACAD_REACTORS
330
98
102
}
330
98
100
AcDbScale
 70
     0
300
3" = 1'-0"
140
3.0
141
12.0
290
     0
  0
SCALE
  5
B8
102
{ACAD_REACTORS
330
98
102
}
330
98
100
AcDbScale
 70
     0
300
6" = 1'-0"
140
6.0
141
12.0
290
     0
  0
SCALE
  5
B9
102
{ACAD_REACTORS
330
98
102
}
330
98
100
AcDbScale
 70
     0
300
1'-0" = 1'-0"
140
12.0
141
12.0
290
     0
  0
TABLESTYLE
  5
D7
102
{ACAD_REACTORS
330
D6
102
}
330
D6
100
AcDbTableStyle
  3
Standard
 70
     0
 71
     0
 40
1.5
 41
1.5
280
     0
281
     0
  7
Standard
140
4.5
170
     2
 62
     0
 63
   257
283
     0
274
    -2
284
     1
 64
     0
275
    -2
285
     1
 65
     0
276
    -2
286
     1
 66
     0
277
    -2
287
     1
 67
     0
278
    -2
288
     1
 68
     0
279
    -2
289
     1
 69
     0
  7
Standard
140
6.0
170
     5
 62
     0
 63
   257
283
     0
274
    -2
284
     1
 64
     0
275
    -2
285
     1
 65
     0
276
    -2
286
     1
 66
     0
277
    -2
287
     1
 67
     0
278
    -2
288
     1
 68
     0
279
    -2
289
     1
 69
     0
  7
Standard
140
4.5
170
     5
 62
     0
 63
   257
283
     0
274
    -2
284
     1
 64
     0
275
    -2
285
     1
 65
     0
276
    -2
286
     1
 66
     0
277
    -2
287
     1
 67
     0
278
    -2
288
     1
 68
     0
279
    -2
289
     1
 69
     0
  0
VISUALSTYLE
  5
C2
102
{ACAD_REACTORS
330
BD
102
}
102
{ACAD_XDICTIONARY
360
5D0
102
}
330
BD
100
AcDbVisualStyle
  2
2dWireframe
 70
     4
 71
     0
 72
     2
 73
     0
 90
        0
 40
0.6
 41
30.0
 62
     5
 63
     7
 74
     1
 91
        4
 64
     7
 65
   257
 75
     1
175
     1
 42
1.0
 92
        0
 66
   257
 43
1.0
 76
     1
 77
     6
 78
     2
 67
     7
 79
     5
170
     0
171
     0
290
     0
174
     0
 93
        1
 44
0.0
173
     0
291
     0
 45
0.0
1001
ACAD
1000
AcDbSavedByObjectVersion
1070
     0
  0
VISUALSTYLE
  5
C5
102
{ACAD_REACTORS
330
BD
102
}
102
{ACAD_XDICTIONARY
360
5D6
102
}
330
BD
100
AcDbVisualStyle
  2
Basic
 70
     7
 71
     1
 72
     0
 73
     1
 90
        0
 40
0.6
 41
30.0
 62
     5
 63
     7
 74
     0
 91
        4
 64
     7
 65
   257
 75
     1
175
     1
 42
1.0
 92
        8
 66
     7
 43
1.0
 76
     1
 77
     6
 78
     2
 67
     7
 79
     5
170
     0
171
     0
290
     0
174
     0
 93
        1
 44
0.0
173
     0
291
     1
 45
0.0
1001
ACAD
1000
AcDbSavedByObjectVersion
1070
     0
  0
VISUALSTYLE
  5
C9
102
{ACAD_REACTORS
330
BD
102
}
102
{ACAD_XDICTIONARY
360
5DE
102
}
330
BD
100
AcDbVisualStyle
  2
Brighten
 70
    12
 71
     2
 72
     2
 73
     0
 90
        0
 40
0.6
 41
30.0
 62
     5
 63
     7
 74
     1
 91
        4
 64
     7
 65
   257
 75
     1
175
     1
 42
1.0
 92
        8
 66
     7
 43
1.0
 76
     1
 77
     6
 78
     2
 67
     7
 79
     5
170
     0
171
     0
290
     0
174
     0
 93
        1
 44
50.0
173
     0
291
     1
 45
0.0
1001
ACAD
1000
AcDbSavedByObjectVersion
1070
     0
  0
VISUALSTYLE
  5
CD
102
{ACAD_REACTORS
330
BD
102
}
102
{ACAD_XDICTIONARY
360
5E6
102
}
330
BD
100
AcDbVisualStyle
  2
ColorChange
 70
    16
 71
     2
 72
     2
 73
     3
 90
        0
 40
0.6
 41
30.0
 62
     5
 63
     8
 74
     1
 91
        4
 64
     7
 65
   257
 75
     1
175
     1
 42
1.0
 92
        8
 66
     8
 43
1.0
 76
     1
 77
     6
 78
     2
 67
     7
 79
     5
170
     0
171
     0
290
     0
174
     0
 93
        1
 44
0.0
173
     0
291
     1
 45
0.0
1001
ACAD
1000
AcDbSavedByObjectVersion
1070
     0
  0
VISUALSTYLE
  5
C7
102
{ACAD_REACTORS
330
BD
102
}
102
{ACAD_XDICTIONARY
360
5DA
102
}
330
BD
100
AcDbVisualStyle
  2
Conceptual
 70
     9
 71
     3
 72
     2
 73
     0
 90
        0
 40
0.6
 41
30.0
 62
     5
 63
     7
 74
     2
 91
        2
 64
     7
 65
   257
 75
     1
175
     1
 42
179.0
 92
        8
 66
     7
 43
1.0
 76
     1
 77
     6
 78
     2
 67
     7
 79
     3
170
     0
171
     0
290
     0
174
     0
 93
        1
 44
0.0
173
     0
291
     0
 45
0.0
1001
ACAD
1000
AcDbSavedByObjectVersion
1070
     0
  0
VISUALSTYLE
  5
C8
102
{ACAD_REACTORS
330
BD
102
}
102
{ACAD_XDICTIONARY
360
5DC
102
}
330
BD
100
AcDbVisualStyle
  2
Dim
 70
    11
 71
     2
 72
     2
 73
     0
 90
        0
 40
0.6
 41
30.0
 62
     5
 63
     7
 74
     1
 91
        4
 64
     7
 65
   257
 75
     1
175
     1
 42
1.0
 92
        8
 66
     7
 43
1.0
 76
     1
 77
     6
 78
     2
 67
     7
 79
     5
170
     0
171
     0
290
     0
174
     0
 93
        1
 44
-50.0
173
     0
291
     1
 45
0.0
1001
ACAD
1000
AcDbSavedByObjectVersion
1070
     0
  0
VISUALSTYLE
  5
D0
102
{ACAD_REACTORS
330
BD
102
}
102
{ACAD_XDICTIONARY
360
5EC
102
}
330
BD
100
AcDbVisualStyle
  2
EdgeColorOff
 70
    22
 71
     2
 72
     2
 73
     0
 90
        0
 40
0.6
 41
30.0
 62
     5
 63
     7
 74
     1
 91
        4
 64
     7
 65
   257
 75
     1
175
     1
 42
1.0
 92
        8
 66
     7
 43
1.0
 76
     1
 77
     6
 78
     2
 67
     7
 79
     5
170
     0
171
     0
290
     0
174
     0
 93
        1
 44
0.0
173
     0
291
     1
 45
0.0
1001
ACAD
1000
AcDbSavedByObjectVersion
1070
     0
  0
VISUALSTYLE
  5
CC
102
{ACAD_REACTORS
330
BD
102
}
102
{ACAD_XDICTIONARY
360
5E4
102
}
330
BD
100
AcDbVisualStyle
  2
Facepattern
 70
    15
 71
     2
 72
     2
 73
     0
 90
        0
 40
0.6
 41
30.0
 62
     5
 63
     7
 74
     1
 91
        4
 64
     7
 65
   257
 75
     1
175
     1
 42
1.0
 92
        8
 66
     7
 43
1.0
 76
     1
 77
     6
 78
     2
 67
     7
 79
     5
170
     0
171
     0
290
     0
174
     0
 93
        1
 44
0.0
173
     0
291
     1
 45
0.0
1001
ACAD
1000
AcDbSavedByObjectVersion
1070
     0
  0
VISUALSTYLE
  5
BE
102
{ACAD_REACTORS
330
BD
102
}
102
{ACAD_XDICTIONARY
360
5C8
102
}
330
BD
100
AcDbVisualStyle
  2
Flat
 70
     0
 71
     2
 72
     1
 73
     1
 90
        2
 40
0.6
 41
30.0
 62
     5
 63
     7
 74
     0
 91
        0
 64
     7
 65
   257
 75
     1
175
     1
 42
1.0
 92
        8
 66
     7
 43
1.0
 76
     1
 77
     6
 78
     2
 67
     7
 79
     5
170
     0
171
     0
290
     0
174
     0
 93
       13
 44
0.0
173
     0
291
     1
 45
0.0
1001
ACAD
1000
AcDbSavedByObjectVersion
1070
     0
  0
VISUALSTYLE
  5
BF
102
{ACAD_REACTORS
330
BD
102
}
102
{ACAD_XDICTIONARY
360
5CA
102
}
330
BD
100
AcDbVisualStyle
  2
FlatWithEdges
 70
     1
 71
     2
 72
     1
 73
     1
 90
        2
 40
0.6
 41
30.0
 62
     5
 63
     7
 74
     1
 91
        0
 64
     7
 65
   257
 75
     1
175
     1
 42
1.0
 92
        0
 66
   257
 43
1.0
 76
     1
 77
     6
 78
     2
 67
     7
 79
     5
170
     0
171
     0
290
     0
174
     0
 93
       13
 44
0.0
173
     0
291
     1
 45
0.0
1001
ACAD
1000
AcDbSavedByObjectVersion
1070
     0
  0
VISUALSTYLE
  5
C0
102
{ACAD_REACTORS
330
BD
102
}
102
{ACAD_XDICTIONARY
360
5CC
102
}
330
BD
100
AcDbVisualStyle
  2
Gouraud
 70
     2
 71
     2
 72
     2
 73
     1
 90
        2
 40
0.6
 41
30.0
 62
     5
 63
     7
 74
     0
 91
        0
 64
     7
 65
   257
 75
     1
175
     1
 42
1.0
 92
        0
 66
     7
 43
1.0
 76
     1
 77
     6
 78
     2
 67
     7
 79
     5
170
     0
171
     0
290
     0
174
     0
 93
       13
 44
0.0
173
     0
291
     1
 45
0.0
1001
ACAD
1000
AcDbSavedByObjectVersion
1070
     0
  0
VISUALSTYLE
  5
C1
102
{ACAD_REACTORS
330
BD
102
}
102
{ACAD_XDICTIONARY
360
5CE
102
}
330
BD
100
AcDbVisualStyle
  2
GouraudWithEdges
 70
     3
 71
     2
 72
     2
 73
     1
 90
        2
 40
0.6
 41
30.0
 62
     5
 63
     7
 74
     1
 91
        0
 64
     7
 65
   257
 75
     1
175
     1
 42
1.0
 92
        0
 66
   257
 43
1.0
 76
     1
 77
     6
 78
     2
 67
     7
 79
     5
170
     0
171
     0
290
     0
174
     0
 93
       13
 44
0.0
173
     0
291
     1
 45
0.0
1001
ACAD
1000
AcDbSavedByObjectVersion
1070
     0
  0
VISUALSTYLE
  5
C4
102
{ACAD_REACTORS
330
BD
102
}
102
{ACAD_XDICTIONARY
360
5D4
102
}
330
BD
100
AcDbVisualStyle
  2
Hidden
 70
     6
 71
     1
 72
     2
 73
     2
 90
        0
 40
0.6
 41
30.0
 62
     5
 63
     7
 74
     2
 91
        2
 64
     7
 65
   257
 75
     2
175
     1
 42
40.0
 92
        0
 66
   257
 43
1.0
 76
     1
 77
     6
 78
     2
 67
     7
 79
     3
170
     0
171
     0
290
     0
174
     0
 93
        1
 44
0.0
173
     0
291
     0
 45
0.0
1001
ACAD
1000
AcDbSavedByObjectVersion
1070
     0
  0
VISUALSTYLE
  5
CE
102
{ACAD_REACTORS
330
BD
102
}
102
{ACAD_XDICTIONARY
360
5E8
102
}
330
BD
100
AcDbVisualStyle
  2
JitterOff
 70
    20
 71
     2
 72
     2
 73
     0
 90
        0
 40
0.6
 41
30.0
 62
     5
 63
     7
 74
     1
 91
        4
 64
     7
 65
   257
 75
     1
175
     1
 42
1.0
 92
       10
 66
     7
 43
1.0
 76
     1
 77
     6
 78
     2
 67
     7
 79
     5
170
     0
171
     0
290
     0
174
     0
 93
        1
 44
0.0
173
     0
291
     1
 45
0.0
1001
ACAD
1000
AcDbSavedByObjectVersion
1070
     0
  0
VISUALSTYLE
  5
CB
102
{ACAD_REACTORS
330
BD
102
}
102
{ACAD_XDICTIONARY
360
5E2
102
}
330
BD
100
AcDbVisualStyle
  2
Linepattern
 70
    14
 71
     2
 72
     2
 73
     0
 90
        0
 40
0.6
 41
30.0
 62
     5
 63
     7
 74
     1
 91
        4
 64
     7
 65
   257
 75
     7
175
     7
 42
1.0
 92
        8
 66
     7
 43
1.0
 76
     1
 77
     6
 78
     2
 67
     7
 79
     5
170
     0
171
     0
290
     0
174
     0
 93
        1
 44
0.0
173
     0
291
     1
 45
0.0
1001
ACAD
1000
AcDbSavedByObjectVersion
1070
     0
  0
VISUALSTYLE
  5
CF
102
{ACAD_REACTORS
330
BD
102
}
102
{ACAD_XDICTIONARY
360
5EA
102
}
330
BD
100
AcDbVisualStyle
  2
OverhangOff
 70
    21
 71
     2
 72
     2
 73
     0
 90
        0
 40
0.6
 41
30.0
 62
     5
 63
     7
 74
     1
 91
        4
 64
     7
 65
   257
 75
     1
175
     1
 42
1.0
 92
        9
 66
     7
 43
1.0
 76
     1
 77
     6
 78
     2
 67
     7
 79
     5
170
     0
171
     0
290
     0
174
     0
 93
        1
 44
0.0
173
     0
291
     1
 45
0.0
1001
ACAD
1000
AcDbSavedByObjectVersion
1070
     0
  0
VISUALSTYLE
  5
C6
102
{ACAD_REACTORS
330
BD
102
}
102
{ACAD_XDICTIONARY
360
5D8
102
}
330
BD
100
AcDbVisualStyle
  2
Realistic
 70
     8
 71
     2
 72
     3
 73
     0
 90
        2
 40
0.6
 41
30.0
 62
     5
 63
     7
 74
     0
 91
        0
 64
     7
 65
   257
 75
     1
175
     1
 42
1.0
 92
        8
 66
   257
 43
1.0
 76
     1
 77
     6
 78
     2
 67
     7
 79
     3
170
     0
171
     0
290
     0
174
     0
 93
       13
 44
0.0
173
     0
291
     0
 45
0.0
1001
ACAD
1000
AcDbSavedByObjectVersion
1070
     0
  0
VISUALSTYLE
  5
D5
102
{ACAD_REACTORS
330
BD
102
}
102
{ACAD_XDICTIONARY
360
5F6
102
}
330
BD
100
AcDbVisualStyle
  2
Shaded
 70
    27
 71
     2
 72
     2
 73
     1
 90
        2
 40
0.6
 41
30.0
 62
     5
 63
     7
 74
     0
 91
        4
 64
     7
 65
   257
 75
     1
175
     1
 42
1.0
 92
        8
 66
   257
 43
1.0
 76
     1
 77
     6
 78
     2
 67
     8
 79
     3
170
     0
171
     0
290
     0
174
     0
 93
        5
 44
0.0
173
     0
291
     0
 45
0.0
1001
ACAD
1000
AcDbSavedByObjectVersion
1070
     0
  0
VISUALSTYLE
  5
D4
102
{ACAD_REACTORS
330
BD
102
}
102
{ACAD_XDICTIONARY
360
5F4
102
}
330
BD
100
AcDbVisualStyle
  2
Shaded with edges
 70
    26
 71
     2
 72
     2
 73
     1
 90
        2
 40
0.6
 41
30.0
 62
     5
 63
     7
 74
     1
 91
       10
 64
     7
 65
   257
 75
     2
175
     1
 42
1.0
 92
        8
 66
   257
 43
1.0
 76
     1
 77
     6
 78
     2
 67
     7
 79
     3
170
     0
171
     0
290
     0
174
     0
 93
        5
 44
0.0
173
     0
291
     0
 45
0.0
1001
ACAD
1000
AcDbSavedByObjectVersion
1070
     0
  0
VISUALSTYLE
  5
D1
102
{ACAD_REACTORS
330
BD
102
}
102
{ACAD_XDICTIONARY
360
5EE
102
}
330
BD
100
AcDbVisualStyle
  2
Shades of Gray
 70
    23
 71
     2
 72
     2
 73
     3
 90
        0
 40
0.6
 41
30.0
 62
     5
 63
     7
 74
     2
 91
        2
 64
     7
 65
     7
 75
     1
175
     1
 42
40.0
 92
        8
 66
     7
 43
1.0
 76
     1
 77
     6
 78
     2
 67
     7
 79
     3
170
     0
171
     0
290
     0
174
     0
 93
        1
 44
0.0
173
     0
291
     0
 45
0.0
1001
ACAD
1000
AcDbSavedByObjectVersion
1070
     0
  0
VISUALSTYLE
  5
D2
102
{ACAD_REACTORS
330
BD
102
}
102
{ACAD_XDICTIONARY
360
5F0
102
}
330
BD
100
AcDbVisualStyle
  2
Sketchy
 70
    24
 71
     1
 72
     2
 73
     2
 90
        0
 40
0.6
 41
30.0
 62
     5
 63
     7
 74
     2
 91
        2
 64
     7
 65
     7
 75
     1
175
     1
 42
40.0
 92
       11
 66
     7
 43
1.0
 76
     1
 77
     6
 78
     2
 67
     7
 79
     6
170
     0
171
     0
290
     0
174
     0
 93
        1
 44
0.0
173
     0
291
     0
 45
0.0
1001
ACAD
1000
AcDbSavedByObjectVersion
1070
     0
  0
VISUALSTYLE
  5
CA
102
{ACAD_REACTORS
330
BD
102
}
102
{ACAD_XDICTIONARY
360
5E0
102
}
330
BD
100
AcDbVisualStyle
  2
Thicken
 70
    13
 71
     2
 72
     2
 73
     0
 90
        0
 40
0.6
 41
30.0
 62
     5
 63
     7
 74
     1
 91
        4
 64
     7
 65
   257
 75
     1
175
     1
 42
1.0
 92
       12
 66
     7
 43
1.0
 76
     1
 77
     6
 78
     2
 67
     7
 79
     5
170
     0
171
     0
290
     0
174
     0
 93
        1
 44
0.0
173
     0
291
     1
 45
0.0
1001
ACAD
1000
AcDbSavedByObjectVersion
1070
     0
  0
VISUALSTYLE
  5
C3
102
{ACAD_REACTORS
330
BD
102
}
102
{ACAD_XDICTIONARY
360
5D2
102
}
330
BD
100
AcDbVisualStyle
  2
Wireframe
 70
     5
 71
     0
 72
     2
 73
     0
 90
        0
 40
0.6
 41
30.0
 62
     5
 63
     7
 74
     1
 91
        4
 64
     7
 65
   257
 75
     1
175
     1
 42
1.0
 92
        0
 66
   257
 43
1.0
 76
     1
 77
     6
 78
     2
 67
     7
 79
     3
170
     0
171
     0
290
     0
174
     0
 93
        1
 44
0.0
173
     0
291
     0
 45
0.0
1001
ACAD
1000
AcDbSavedByObjectVersion
1070
     0
  0
VISUALSTYLE
  5
D3
102
{ACAD_REACTORS
330
BD
102
}
102
{ACAD_XDICTIONARY
360
5F2
102
}
330
BD
100
AcDbVisualStyle
  2
X-Ray
 70
    25
 71
     2
 72
     2
 73
     1
 90
        1
 40
0.5
 41
30.0
 62
     5
 63
     7
 74
     1
 91
        0
 64
     7
 65
   257
 75
     1
175
     1
 42
1.0
 92
        8
 66
     7
 43
1.0
 76
     1
 77
     6
 78
     2
 67
     7
 79
     3
170
     0
171
     0
290
     0
174
     0
 93
       13
 44
0.0
173
     0
291
     0
 45
0.0
1001
ACAD
1000
AcDbSavedByObjectVersion
1070
     0
  0
XRECORD
  5
5BD
102
{ACAD_REACTORS
330
5BC
102
}
330
5BC
100
AcDbXrecord
280
     1
340
6B
  0
XRECORD
  5
5BE
102
{ACAD_REACTORS
330
5BC
102
}
330
5BC
100
AcDbXrecord
280
     1
340
6A
  0
DICTIONARYVAR
  5
5C1
102
{ACAD_REACTORS
330
5E
102
}
330
5E
100
DictionaryVariables
280
     0
  1
1:1
  0
DICTIONARYVAR
  5
5B8
102
{ACAD_REACTORS
330
5E
102
}
330
5E
100
DictionaryVariables
280
     0
  1
Standard
  0
DICTIONARYVAR
  5
5B7
102
{ACAD_REACTORS
330
5E
102
}
330
5E
100
DictionaryVariables
280
     0
  1
Standard
  0
DICTIONARYVAR
  5
5F
102
{ACAD_REACTORS
330
5E
102
}
330
5E
100
DictionaryVariables
280
     0
  1
2
  0
DICTIONARYVAR
  5
63
102
{ACAD_REACTORS
330
5E
102
}
330
5E
100
DictionaryVariables
280
     0
  1
1
  0
DICTIONARYVAR
  5
5B9
102
{ACAD_REACTORS
330
5E
102
}
330
5E
100
DictionaryVariables
280
     0
  1
0
  0
DICTIONARYVAR
  5
89
102
{ACAD_REACTORS
330
5E
102
}
330
5E
100
DictionaryVariables
280
     0
  1

  0
DICTIONARY
  5
5C4
330
BB
100
AcDbDictionary
280
     1
281
     1
  3
ACAD_XREC_ROUNDTRIP
360
5C5
  0
DICTIONARY
  5
5C2
330
BA
100
AcDbDictionary
280
     1
281
     1
  3
ACAD_XREC_ROUNDTRIP
360
5C3
  0
DICTIONARY
  5
5C6
330
BC
100
AcDbDictionary
280
     1
281
     1
  3
ACAD_XREC_ROUNDTRIP
360
5C7
  0
DICTIONARY
  5
5F9
330
D9
100
AcDbDictionary
280
     1
281
     1
  3
ACAD_XREC_ROUNDTRIP
360
5FA
  0
DICTIONARY
  5
5D0
330
C2
100
AcDbDictionary
280
     1
281
     1
  3
ACAD_XREC_ROUNDTRIP
360
5D1
  0
DICTIONARY
  5
5D6
330
C5
100
AcDbDictionary
280
     1
281
     1
  3
ACAD_XREC_ROUNDTRIP
360
5D7
  0
DICTIONARY
  5
5DE
330
C9
100
AcDbDictionary
280
     1
281
     1
  3
ACAD_XREC_ROUNDTRIP
360
5DF
  0
DICTIONARY
  5
5E6
330
CD
100
AcDbDictionary
280
     1
281
     1
  3
ACAD_XREC_ROUNDTRIP
360
5E7
  0
DICTIONARY
  5
5DA
330
C7
100
AcDbDictionary
280
     1
281
     1
  3
ACAD_XREC_ROUNDTRIP
360
5DB
  0
DICTIONARY
  5
5DC
330
C8
100
AcDbDictionary
280
     1
281
     1
  3
ACAD_XREC_ROUNDTRIP
360
5DD
  0
DICTIONARY
  5
5EC
330
D0
100
AcDbDictionary
280
     1
281
     1
  3
ACAD_XREC_ROUNDTRIP
360
5ED
  0
DICTIONARY
  5
5E4
330
CC
100
AcDbDictionary
280
     1
281
     1
  3
ACAD_XREC_ROUNDTRIP
360
5E5
  0
DICTIONARY
  5
5C8
330
BE
100
AcDbDictionary
280
     1
281
     1
  3
ACAD_XREC_ROUNDTRIP
360
5C9
  0
DICTIONARY
  5
5CA
330
BF
100
AcDbDictionary
280
     1
281
     1
  3
ACAD_XREC_ROUNDTRIP
360
5CB
  0
DICTIONARY
  5
5CC
330
C0
100
AcDbDictionary
280
     1
281
     1
  3
ACAD_XREC_ROUNDTRIP
360
5CD
  0
DICTIONARY
  5
5CE
330
C1
100
AcDbDictionary
280
     1
281
     1
  3
ACAD_XREC_ROUNDTRIP
360
5CF
  0
DICTIONARY
  5
5D4
330
C4
100
AcDbDictionary
280
     1
281
     1
  3
ACAD_XREC_ROUNDTRIP
360
5D5
  0
DICTIONARY
  5
5E8
330
CE
100
AcDbDictionary
280
     1
281
     1
  3
ACAD_XREC_ROUNDTRIP
360
5E9
  0
DICTIONARY
  5
5E2
330
CB
100
AcDbDictionary
280
     1
281
     1
  3
ACAD_XREC_ROUNDTRIP
360
5E3
  0
DICTIONARY
  5
5EA
330
CF
100
AcDbDictionary
280
     1
281
     1
  3
ACAD_XREC_ROUNDTRIP
360
5EB
  0
DICTIONARY
  5
5D8
330
C6
100
AcDbDictionary
280
     1
281
     1
  3
ACAD_XREC_ROUNDTRIP
360
5D9
  0
DICTIONARY
  5
5F6
330
D5
100
AcDbDictionary
280
     1
281
     1
  3
ACAD_XREC_ROUNDTRIP
360
5F7
  0
DICTIONARY
  5
5F4
330
D4
100
AcDbDictionary
280
     1
281
     1
  3
ACAD_XREC_ROUNDTRIP
360
5F5
  0
DICTIONARY
  5
5EE
330
D1
100
AcDbDictionary
280
     1
281
     1
  3
ACAD_XREC_ROUNDTRIP
360
5EF
  0
DICTIONARY
  5
5F0
330
D2
100
AcDbDictionary
280
     1
281
     1
  3
ACAD_XREC_ROUNDTRIP
360
5F1
  0
DICTIONARY
  5
5E0
330
CA
100
AcDbDictionary
280
     1
281
     1
  3
ACAD_XREC_ROUNDTRIP
360
5E1
  0
DICTIONARY
  5
5D2
330
C3
100
AcDbDictionary
280
     1
281
     1
  3
ACAD_XREC_ROUNDTRIP
360
5D3
  0
DICTIONARY
  5
5F2
330
D3
100
AcDbDictionary
280
     1
281
     1
  3
ACAD_XREC_ROUNDTRIP
360
5F3
  0
XRECORD
  5
5C5
102
{ACAD_REACTORS
330
5C4
102
}
330
5C4
100
AcDbXrecord
280
     1
102
MATERIAL
148
0.0
149
0.0
149
0.0
 93
        0
 94
      127
282
     0
 72
     1
 77
     1
171
     1
175
     1
179
     1
273
     0
  0
XRECORD
  5
5C3
102
{ACAD_REACTORS
330
5C2
102
}
330
5C2
100
AcDbXrecord
280
     1
102
MATERIAL
148
0.0
149
0.0
149
0.0
 93
        0
 94
      127
282
     0
 72
     1
 77
     1
171
     1
175
     1
179
     1
273
     0
  0
XRECORD
  5
5C7
102
{ACAD_REACTORS
330
5C6
102
}
330
5C6
100
AcDbXrecord
280
     1
102
MATERIAL
148
0.0
149
0.0
149
0.0
 93
        0
 94
      127
282
     0
 72
     1
 77
     1
171
     1
175
     1
179
     1
273
     0
  0
XRECORD
  5
5FA
102
{ACAD_REACTORS
330
5F9
102
}
330
5F9
100
AcDbXrecord
280
     1
102
ACAD_ROUNDTRIP_2010_MLEADER_STYLE
  0
XRECORD
  5
5D1
102
{ACAD_REACTORS
330
5D0
102
}
330
5D0
100
AcDbXrecord
280
     1
102
RTVSPropertyOp0
 70
     1
102
RTVSPropertyOp1
 70
     1
102
RTVSPropertyOp2
 70
     1
102
RTVSPropertyOp3
 70
     1
102
RTVSPropertyOp4
 70
     1
102
RTVSPropertyOp5
 70
     1
102
RTVSPropertyOp6
 70
     1
102
RTVSPropertyOp7
 70
     1
102
RTVSPropertyOp8
 70
     1
102
RTVSPropertyOp9
 70
     1
102
RTVSPropertyOp10
 70
     1
102
RTVSPropertyOp11
 70
     1
102
RTVSPropertyOp12
 70
     1
102
RTVSPropertyOp13
 70
     1
102
RTVSPropertyOp14
 70
     1
102
RTVSPropertyOp15
 70
     1
102
RTVSPropertyOp16
 70
     1
102
RTVSPropertyOp17
 70
     1
102
RTVSPropertyOp18
 70
     1
102
RTVSPropertyOp19
 70
     1
102
RTVSPropertyOp20
 70
     1
102
RTVSPropertyOp21
 70
     1
102
RTVSPropertyOp22
 70
     1
102
RTVSPropertyOp23
 70
     1
102
RTVSPropertyOp24
 70
     1
102
RTVSPropertyOp25
 70
     1
102
RTVSPropertyOp26
 70
     1
102
RTVSPropertyOp27
 70
     1
102
RTVSPropertyOp28
 70
     1
102
RTVSPropertyOp29
 70
     1
102
RTVSPropertyOp30
 70
     1
102
RTVSPropertyOp31
 70
     1
102
RTVSPropertyOp32
 70
     1
102
RTVSPropertyOp33
 70
     1
102
RTVSPropertyOp34
 70
     1
102
RTVSPropertyOp35
 70
     1
102
RTVSPropertyOp36
 70
     1
102
RTVSPropertyOp37
 70
     1
102
RTVSPropertyOp38
 70
     1
102
RTVSPropertyOp39
 70
     1
102
RTVSPropertyOp40
 70
     1
102
RTVSPropertyOp41
 70
     1
102
RTVSPropertyOp42
 70
     1
102
RTVSPropertyOp43
 70
     1
102
RTVSPropertyOp44
 70
     1
102
RTVSPropertyOp45
 70
     1
102
RTVSPropertyOp46
 70
     1
102
RTVSPropertyOp47
 70
     1
102
RTVSPropertyOp48
 70
     1
102
RTVSPropertyOp49
 70
     1
102
RTVSPropertyOp50
 70
     1
102
RTVSPropertyOp51
 70
     0
102
RTVSPropertyOp52
 70
     0
102
RTVSPropertyOp53
 70
     1
102
RTVSPropertyOp54
 70
     1
102
RTVSPropertyOp55
 70
     1
102
RTVSPropertyOp56
 70
     1
102
RTVSPropertyOp57
 70
     1
102
RTVSPost2010Prop28
280
     1
102
RTVSPost2010PropOp28
 70
     1
102
RTVSPost2010Prop29
280
     1
102
RTVSPost2010PropOp29
 70
     1
102
RTVSPost2010Prop30
280
     0
102
RTVSPost2010PropOp30
 70
     1
102
RTVSPost2010Prop31
280
     0
102
RTVSPost2010PropOp31
 70
     1
102
RTVSPost2010Prop32
280
     0
102
RTVSPost2010PropOp32
 70
     1
102
RTVSPost2010Prop33
280
     0
102
RTVSPost2010PropOp33
 70
     1
102
RTVSPost2010Prop34
280
     0
102
RTVSPost2010PropOp34
 70
     1
102
RTVSPost2010Prop35
280
     0
102
RTVSPost2010PropOp35
 70
     1
102
RTVSPost2010Prop36
280
     0
102
RTVSPost2010PropOp36
 70
     1
102
RTVSPost2010Prop37
 90
       50
102
RTVSPost2010PropOp37
 70
     1
102
RTVSPost2010Prop38
140
0.0
102
RTVSPost2010PropOp38
 70
     1
102
RTVSPost2010Prop39
140
1.0
102
RTVSPost2010PropOp39
 70
     1
102
RTVSPost2010Prop40
 90
        0
102
RTVSPost2010PropOp40
 70
     1
102
RTVSPost2010Prop41ColorIndex
 90
       18
102
RTVSPost2010Prop41ColorRGB
 90
        0
102
RTVSPost2010PropOp41
 70
     1
102
RTVSPost2010Prop42
 90
       50
102
RTVSPost2010PropOp42
 70
     1
102
RTVSPost2010Prop43
 90
        3
102
RTVSPost2010PropOp43
 70
     1
102
RTVSPost2010Prop44ColorIndex
 90
        5
102
RTVSPost2010Prop44ColorRGB
 90
      255
102
RTVSPost2010PropOp44
 70
     1
102
RTVSPost2010Prop45
280
     0
102
RTVSPost2010PropOp45
 70
     1
102
RTVSPost2010Prop46
 90
       50
102
RTVSPost2010PropOp46
 70
     1
102
RTVSPost2010Prop47
 90
       50
102
RTVSPost2010PropOp47
 70
     1
102
RTVSPost2010Prop48
 90
       50
102
RTVSPost2010PropOp48
 70
     1
102
RTVSPost2010Prop49
280
     0
102
RTVSPost2010PropOp49
 70
     1
102
RTVSPost2010Prop50
 90
       50
102
RTVSPost2010PropOp50
 70
     1
102
RTVSPost2010Prop51ColorIndex
 90
      256
102
RTVSPost2010Prop51ColorRGB
 90
-16777216
102
RTVSPost2010PropOp51
 70
     0
102
RTVSPost2010Prop52
140
1.0
102
RTVSPost2010PropOp52
 70
     0
102
RTVSPost2010Prop53
 90
        2
102
RTVSPost2010PropOp53
 70
     1
102
RTVSPost2010Prop54
  1
strokes_ogs.tif
102
RTVSPost2010PropOp54
 70
     1
102
RTVSPost2010Prop55
280
     0
102
RTVSPost2010PropOp55
 70
     1
102
RTVSPost2010Prop56
140
1.0
102
RTVSPost2010PropOp56
 70
     1
102
RTVSPost2010Prop57
140
1.0
102
RTVSPost2010PropOp57
 70
     1
  0
XRECORD
  5
5D7
102
{ACAD_REACTORS
330
5D6
102
}
330
5D6
100
AcDbXrecord
280
     1
102
RTVSPropertyOp0
 70
     1
102
RTVSPropertyOp1
 70
     1
102
RTVSPropertyOp2
 70
     1
102
RTVSPropertyOp3
 70
     1
102
RTVSPropertyOp4
 70
     1
102
RTVSPropertyOp5
 70
     1
102
RTVSPropertyOp6
 70
     1
102
RTVSPropertyOp7
 70
     1
102
RTVSPropertyOp8
 70
     1
102
RTVSPropertyOp9
 70
     1
102
RTVSPropertyOp10
 70
     1
102
RTVSPropertyOp11
 70
     1
102
RTVSPropertyOp12
 70
     1
102
RTVSPropertyOp13
 70
     1
102
RTVSPropertyOp14
 70
     1
102
RTVSPropertyOp15
 70
     1
102
RTVSPropertyOp16
 70
     1
102
RTVSPropertyOp17
 70
     1
102
RTVSPropertyOp18
 70
     1
102
RTVSPropertyOp19
 70
     1
102
RTVSPropertyOp20
 70
     1
102
RTVSPropertyOp21
 70
     1
102
RTVSPropertyOp22
 70
     1
102
RTVSPropertyOp23
 70
     1
102
RTVSPropertyOp24
 70
     1
102
RTVSPropertyOp25
 70
     1
102
RTVSPropertyOp26
 70
     1
102
RTVSPropertyOp27
 70
     1
102
RTVSPropertyOp28
 70
     1
102
RTVSPropertyOp29
 70
     1
102
RTVSPropertyOp30
 70
     1
102
RTVSPropertyOp31
 70
     1
102
RTVSPropertyOp32
 70
     1
102
RTVSPropertyOp33
 70
     1
102
RTVSPropertyOp34
 70
     1
102
RTVSPropertyOp35
 70
     1
102
RTVSPropertyOp36
 70
     1
102
RTVSPropertyOp37
 70
     1
102
RTVSPropertyOp38
 70
     1
102
RTVSPropertyOp39
 70
     1
102
RTVSPropertyOp40
 70
     1
102
RTVSPropertyOp41
 70
     1
102
RTVSPropertyOp42
 70
     1
102
RTVSPropertyOp43
 70
     1
102
RTVSPropertyOp44
 70
     1
102
RTVSPropertyOp45
 70
     1
102
RTVSPropertyOp46
 70
     1
102
RTVSPropertyOp47
 70
     1
102
RTVSPropertyOp48
 70
     1
102
RTVSPropertyOp49
 70
     1
102
RTVSPropertyOp50
 70
     1
102
RTVSPropertyOp51
 70
     0
102
RTVSPropertyOp52
 70
     0
102
RTVSPropertyOp53
 70
     1
102
RTVSPropertyOp54
 70
     1
102
RTVSPropertyOp55
 70
     1
102
RTVSPropertyOp56
 70
     1
102
RTVSPropertyOp57
 70
     1
102
RTVSPost2010Prop28
280
     0
102
RTVSPost2010PropOp28
 70
     1
102
RTVSPost2010Prop29
280
     1
102
RTVSPost2010PropOp29
 70
     1
102
RTVSPost2010Prop30
280
     1
102
RTVSPost2010PropOp30
 70
     1
102
RTVSPost2010Prop31
280
     0
102
RTVSPost2010PropOp31
 70
     1
102
RTVSPost2010Prop32
280
     0
102
RTVSPost2010PropOp32
 70
     1
102
RTVSPost2010Prop33
280
     0
102
RTVSPost2010PropOp33
 70
     1
102
RTVSPost2010Prop34
280
     0
102
RTVSPost2010PropOp34
 70
     1
102
RTVSPost2010Prop35
280
     0
102
RTVSPost2010PropOp35
 70
     1
102
RTVSPost2010Prop36
280
     0
102
RTVSPost2010PropOp36
 70
     1
102
RTVSPost2010Prop37
 90
       50
102
RTVSPost2010PropOp37
 70
     1
102
RTVSPost2010Prop38
140
0.0
102
RTVSPost2010PropOp38
 70
     1
102
RTVSPost2010Prop39
140
1.0
102
RTVSPost2010PropOp39
 70
     1
102
RTVSPost2010Prop40
 90
        0
102
RTVSPost2010PropOp40
 70
     1
102
RTVSPost2010Prop41ColorIndex
 90
       18
102
RTVSPost2010Prop41ColorRGB
 90
        0
102
RTVSPost2010PropOp41
 70
     1
102
RTVSPost2010Prop42
 90
       50
102
RTVSPost2010PropOp42
 70
     1
102
RTVSPost2010Prop43
 90
        3
102
RTVSPost2010PropOp43
 70
     1
102
RTVSPost2010Prop44ColorIndex
 90
        5
102
RTVSPost2010Prop44ColorRGB
 90
      255
102
RTVSPost2010PropOp44
 70
     1
102
RTVSPost2010Prop45
280
     0
102
RTVSPost2010PropOp45
 70
     1
102
RTVSPost2010Prop46
 90
       50
102
RTVSPost2010PropOp46
 70
     1
102
RTVSPost2010Prop47
 90
       50
102
RTVSPost2010PropOp47
 70
     1
102
RTVSPost2010Prop48
 90
       50
102
RTVSPost2010PropOp48
 70
     1
102
RTVSPost2010Prop49
280
     0
102
RTVSPost2010PropOp49
 70
     1
102
RTVSPost2010Prop50
 90
       50
102
RTVSPost2010PropOp50
 70
     1
102
RTVSPost2010Prop51ColorIndex
 90
      256
102
RTVSPost2010Prop51ColorRGB
 90
-16777216
102
RTVSPost2010PropOp51
 70
     0
102
RTVSPost2010Prop52
140
1.0
102
RTVSPost2010PropOp52
 70
     0
102
RTVSPost2010Prop53
 90
        2
102
RTVSPost2010PropOp53
 70
     1
102
RTVSPost2010Prop54
  1
strokes_ogs.tif
102
RTVSPost2010PropOp54
 70
     1
102
RTVSPost2010Prop55
280
     0
102
RTVSPost2010PropOp55
 70
     1
102
RTVSPost2010Prop56
140
1.0
102
RTVSPost2010PropOp56
 70
     1
102
RTVSPost2010Prop57
140
1.0
102
RTVSPost2010PropOp57
 70
     1
  0
XRECORD
  5
5DF
102
{ACAD_REACTORS
330
5DE
102
}
330
5DE
100
AcDbXrecord
280
     1
102
RTVSPropertyOp0
 70
     1
102
RTVSPropertyOp1
 70
     1
102
RTVSPropertyOp2
 70
     1
102
RTVSPropertyOp3
 70
     1
102
RTVSPropertyOp4
 70
     1
102
RTVSPropertyOp5
 70
     1
102
RTVSPropertyOp6
 70
     1
102
RTVSPropertyOp7
 70
     1
102
RTVSPropertyOp8
 70
     1
102
RTVSPropertyOp9
 70
     1
102
RTVSPropertyOp10
 70
     1
102
RTVSPropertyOp11
 70
     1
102
RTVSPropertyOp12
 70
     1
102
RTVSPropertyOp13
 70
     1
102
RTVSPropertyOp14
 70
     1
102
RTVSPropertyOp15
 70
     1
102
RTVSPropertyOp16
 70
     1
102
RTVSPropertyOp17
 70
     1
102
RTVSPropertyOp18
 70
     1
102
RTVSPropertyOp19
 70
     1
102
RTVSPropertyOp20
 70
     1
102
RTVSPropertyOp21
 70
     1
102
RTVSPropertyOp22
 70
     1
102
RTVSPropertyOp23
 70
     1
102
RTVSPropertyOp24
 70
     1
102
RTVSPropertyOp25
 70
     1
102
RTVSPropertyOp26
 70
     1
102
RTVSPropertyOp27
 70
     1
102
RTVSPropertyOp28
 70
     1
102
RTVSPropertyOp29
 70
     1
102
RTVSPropertyOp30
 70
     1
102
RTVSPropertyOp31
 70
     1
102
RTVSPropertyOp32
 70
     1
102
RTVSPropertyOp33
 70
     1
102
RTVSPropertyOp34
 70
     1
102
RTVSPropertyOp35
 70
     1
102
RTVSPropertyOp36
 70
     1
102
RTVSPropertyOp37
 70
     1
102
RTVSPropertyOp38
 70
     1
102
RTVSPropertyOp39
 70
     1
102
RTVSPropertyOp40
 70
     1
102
RTVSPropertyOp41
 70
     1
102
RTVSPropertyOp42
 70
     1
102
RTVSPropertyOp43
 70
     1
102
RTVSPropertyOp44
 70
     1
102
RTVSPropertyOp45
 70
     1
102
RTVSPropertyOp46
 70
     1
102
RTVSPropertyOp47
 70
     1
102
RTVSPropertyOp48
 70
     1
102
RTVSPropertyOp49
 70
     1
102
RTVSPropertyOp50
 70
     1
102
RTVSPropertyOp51
 70
     0
102
RTVSPropertyOp52
 70
     0
102
RTVSPropertyOp53
 70
     1
102
RTVSPropertyOp54
 70
     1
102
RTVSPropertyOp55
 70
     1
102
RTVSPropertyOp56
 70
     1
102
RTVSPropertyOp57
 70
     1
102
RTVSPost2010Prop28
280
     0
102
RTVSPost2010PropOp28
 70
     1
102
RTVSPost2010Prop29
280
     1
102
RTVSPost2010PropOp29
 70
     1
102
RTVSPost2010Prop30
280
     1
102
RTVSPost2010PropOp30
 70
     1
102
RTVSPost2010Prop31
280
     0
102
RTVSPost2010PropOp31
 70
     1
102
RTVSPost2010Prop32
280
     0
102
RTVSPost2010PropOp32
 70
     1
102
RTVSPost2010Prop33
280
     0
102
RTVSPost2010PropOp33
 70
     1
102
RTVSPost2010Prop34
280
     0
102
RTVSPost2010PropOp34
 70
     1
102
RTVSPost2010Prop35
280
     0
102
RTVSPost2010PropOp35
 70
     1
102
RTVSPost2010Prop36
280
     0
102
RTVSPost2010PropOp36
 70
     1
102
RTVSPost2010Prop37
 90
       50
102
RTVSPost2010PropOp37
 70
     1
102
RTVSPost2010Prop38
140
0.0
102
RTVSPost2010PropOp38
 70
     1
102
RTVSPost2010Prop39
140
1.0
102
RTVSPost2010PropOp39
 70
     1
102
RTVSPost2010Prop40
 90
        0
102
RTVSPost2010PropOp40
 70
     1
102
RTVSPost2010Prop41ColorIndex
 90
       18
102
RTVSPost2010Prop41ColorRGB
 90
        0
102
RTVSPost2010PropOp41
 70
     1
102
RTVSPost2010Prop42
 90
       50
102
RTVSPost2010PropOp42
 70
     1
102
RTVSPost2010Prop43
 90
        3
102
RTVSPost2010PropOp43
 70
     1
102
RTVSPost2010Prop44ColorIndex
 90
        5
102
RTVSPost2010Prop44ColorRGB
 90
      255
102
RTVSPost2010PropOp44
 70
     1
102
RTVSPost2010Prop45
280
     0
102
RTVSPost2010PropOp45
 70
     1
102
RTVSPost2010Prop46
 90
       50
102
RTVSPost2010PropOp46
 70
     1
102
RTVSPost2010Prop47
 90
       50
102
RTVSPost2010PropOp47
 70
     1
102
RTVSPost2010Prop48
 90
       50
102
RTVSPost2010PropOp48
 70
     1
102
RTVSPost2010Prop49
280
     0
102
RTVSPost2010PropOp49
 70
     1
102
RTVSPost2010Prop50
 90
       50
102
RTVSPost2010PropOp50
 70
     1
102
RTVSPost2010Prop51ColorIndex
 90
      256
102
RTVSPost2010Prop51ColorRGB
 90
-16777216
102
RTVSPost2010PropOp51
 70
     0
102
RTVSPost2010Prop52
140
1.0
102
RTVSPost2010PropOp52
 70
     0
102
RTVSPost2010Prop53
 90
        2
102
RTVSPost2010PropOp53
 70
     1
102
RTVSPost2010Prop54
  1
strokes_ogs.tif
102
RTVSPost2010PropOp54
 70
     1
102
RTVSPost2010Prop55
280
     0
102
RTVSPost2010PropOp55
 70
     1
102
RTVSPost2010Prop56
140
1.0
102
RTVSPost2010PropOp56
 70
     1
102
RTVSPost2010Prop57
140
1.0
102
RTVSPost2010PropOp57
 70
     1
  0
XRECORD
  5
5E7
102
{ACAD_REACTORS
330
5E6
102
}
330
5E6
100
AcDbXrecord
280
     1
102
RTVSPropertyOp0
 70
     1
102
RTVSPropertyOp1
 70
     1
102
RTVSPropertyOp2
 70
     1
102
RTVSPropertyOp3
 70
     1
102
RTVSPropertyOp4
 70
     1
102
RTVSPropertyOp5
 70
     1
102
RTVSPropertyOp6
 70
     1
102
RTVSPropertyOp7
 70
     1
102
RTVSPropertyOp8
 70
     1
102
RTVSPropertyOp9
 70
     1
102
RTVSPropertyOp10
 70
     1
102
RTVSPropertyOp11
 70
     1
102
RTVSPropertyOp12
 70
     1
102
RTVSPropertyOp13
 70
     1
102
RTVSPropertyOp14
 70
     1
102
RTVSPropertyOp15
 70
     1
102
RTVSPropertyOp16
 70
     1
102
RTVSPropertyOp17
 70
     1
102
RTVSPropertyOp18
 70
     1
102
RTVSPropertyOp19
 70
     1
102
RTVSPropertyOp20
 70
     1
102
RTVSPropertyOp21
 70
     1
102
RTVSPropertyOp22
 70
     1
102
RTVSPropertyOp23
 70
     1
102
RTVSPropertyOp24
 70
     1
102
RTVSPropertyOp25
 70
     1
102
RTVSPropertyOp26
 70
     1
102
RTVSPropertyOp27
 70
     1
102
RTVSPropertyOp28
 70
     1
102
RTVSPropertyOp29
 70
     1
102
RTVSPropertyOp30
 70
     1
102
RTVSPropertyOp31
 70
     1
102
RTVSPropertyOp32
 70
     1
102
RTVSPropertyOp33
 70
     1
102
RTVSPropertyOp34
 70
     1
102
RTVSPropertyOp35
 70
     1
102
RTVSPropertyOp36
 70
     1
102
RTVSPropertyOp37
 70
     1
102
RTVSPropertyOp38
 70
     1
102
RTVSPropertyOp39
 70
     1
102
RTVSPropertyOp40
 70
     1
102
RTVSPropertyOp41
 70
     1
102
RTVSPropertyOp42
 70
     1
102
RTVSPropertyOp43
 70
     1
102
RTVSPropertyOp44
 70
     1
102
RTVSPropertyOp45
 70
     1
102
RTVSPropertyOp46
 70
     1
102
RTVSPropertyOp47
 70
     1
102
RTVSPropertyOp48
 70
     1
102
RTVSPropertyOp49
 70
     1
102
RTVSPropertyOp50
 70
     1
102
RTVSPropertyOp51
 70
     0
102
RTVSPropertyOp52
 70
     0
102
RTVSPropertyOp53
 70
     1
102
RTVSPropertyOp54
 70
     1
102
RTVSPropertyOp55
 70
     1
102
RTVSPropertyOp56
 70
     1
102
RTVSPropertyOp57
 70
     1
102
RTVSPost2010Prop28
280
     0
102
RTVSPost2010PropOp28
 70
     1
102
RTVSPost2010Prop29
280
     1
102
RTVSPost2010PropOp29
 70
     1
102
RTVSPost2010Prop30
280
     1
102
RTVSPost2010PropOp30
 70
     1
102
RTVSPost2010Prop31
280
     0
102
RTVSPost2010PropOp31
 70
     1
102
RTVSPost2010Prop32
280
     0
102
RTVSPost2010PropOp32
 70
     1
102
RTVSPost2010Prop33
280
     0
102
RTVSPost2010PropOp33
 70
     1
102
RTVSPost2010Prop34
280
     0
102
RTVSPost2010PropOp34
 70
     1
102
RTVSPost2010Prop35
280
     0
102
RTVSPost2010PropOp35
 70
     1
102
RTVSPost2010Prop36
280
     0
102
RTVSPost2010PropOp36
 70
     1
102
RTVSPost2010Prop37
 90
       50
102
RTVSPost2010PropOp37
 70
     1
102
RTVSPost2010Prop38
140
0.0
102
RTVSPost2010PropOp38
 70
     1
102
RTVSPost2010Prop39
140
1.0
102
RTVSPost2010PropOp39
 70
     1
102
RTVSPost2010Prop40
 90
        0
102
RTVSPost2010PropOp40
 70
     1
102
RTVSPost2010Prop41ColorIndex
 90
       18
102
RTVSPost2010Prop41ColorRGB
 90
        0
102
RTVSPost2010PropOp41
 70
     1
102
RTVSPost2010Prop42
 90
       50
102
RTVSPost2010PropOp42
 70
     1
102
RTVSPost2010Prop43
 90
        3
102
RTVSPost2010PropOp43
 70
     1
102
RTVSPost2010Prop44ColorIndex
 90
        5
102
RTVSPost2010Prop44ColorRGB
 90
      255
102
RTVSPost2010PropOp44
 70
     1
102
RTVSPost2010Prop45
280
     0
102
RTVSPost2010PropOp45
 70
     1
102
RTVSPost2010Prop46
 90
       50
102
RTVSPost2010PropOp46
 70
     1
102
RTVSPost2010Prop47
 90
       50
102
RTVSPost2010PropOp47
 70
     1
102
RTVSPost2010Prop48
 90
       50
102
RTVSPost2010PropOp48
 70
     1
102
RTVSPost2010Prop49
280
     0
102
RTVSPost2010PropOp49
 70
     1
102
RTVSPost2010Prop50
 90
       50
102
RTVSPost2010PropOp50
 70
     1
102
RTVSPost2010Prop51ColorIndex
 90
      256
102
RTVSPost2010Prop51ColorRGB
 90
-16777216
102
RTVSPost2010PropOp51
 70
     0
102
RTVSPost2010Prop52
140
1.0
102
RTVSPost2010PropOp52
 70
     0
102
RTVSPost2010Prop53
 90
        2
102
RTVSPost2010PropOp53
 70
     1
102
RTVSPost2010Prop54
  1
strokes_ogs.tif
102
RTVSPost2010PropOp54
 70
     1
102
RTVSPost2010Prop55
280
     0
102
RTVSPost2010PropOp55
 70
     1
102
RTVSPost2010Prop56
140
1.0
102
RTVSPost2010PropOp56
 70
     1
102
RTVSPost2010Prop57
140
1.0
102
RTVSPost2010PropOp57
 70
     1
  0
XRECORD
  5
5DB
102
{ACAD_REACTORS
330
5DA
102
}
330
5DA
100
AcDbXrecord
280
     1
102
RTVSPropertyOp0
 70
     1
102
RTVSPropertyOp1
 70
     1
102
RTVSPropertyOp2
 70
     1
102
RTVSPropertyOp3
 70
     1
102
RTVSPropertyOp4
 70
     1
102
RTVSPropertyOp5
 70
     1
102
RTVSPropertyOp6
 70
     1
102
RTVSPropertyOp7
 70
     1
102
RTVSPropertyOp8
 70
     1
102
RTVSPropertyOp9
 70
     1
102
RTVSPropertyOp10
 70
     1
102
RTVSPropertyOp11
 70
     1
102
RTVSPropertyOp12
 70
     1
102
RTVSPropertyOp13
 70
     1
102
RTVSPropertyOp14
 70
     1
102
RTVSPropertyOp15
 70
     1
102
RTVSPropertyOp16
 70
     1
102
RTVSPropertyOp17
 70
     1
102
RTVSPropertyOp18
 70
     1
102
RTVSPropertyOp19
 70
     1
102
RTVSPropertyOp20
 70
     1
102
RTVSPropertyOp21
 70
     1
102
RTVSPropertyOp22
 70
     1
102
RTVSPropertyOp23
 70
     1
102
RTVSPropertyOp24
 70
     1
102
RTVSPropertyOp25
 70
     1
102
RTVSPropertyOp26
 70
     1
102
RTVSPropertyOp27
 70
     1
102
RTVSPropertyOp28
 70
     1
102
RTVSPropertyOp29
 70
     1
102
RTVSPropertyOp30
 70
     1
102
RTVSPropertyOp31
 70
     1
102
RTVSPropertyOp32
 70
     1
102
RTVSPropertyOp33
 70
     1
102
RTVSPropertyOp34
 70
     1
102
RTVSPropertyOp35
 70
     1
102
RTVSPropertyOp36
 70
     1
102
RTVSPropertyOp37
 70
     1
102
RTVSPropertyOp38
 70
     1
102
RTVSPropertyOp39
 70
     1
102
RTVSPropertyOp40
 70
     1
102
RTVSPropertyOp41
 70
     1
102
RTVSPropertyOp42
 70
     1
102
RTVSPropertyOp43
 70
     1
102
RTVSPropertyOp44
 70
     1
102
RTVSPropertyOp45
 70
     1
102
RTVSPropertyOp46
 70
     1
102
RTVSPropertyOp47
 70
     1
102
RTVSPropertyOp48
 70
     1
102
RTVSPropertyOp49
 70
     1
102
RTVSPropertyOp50
 70
     1
102
RTVSPropertyOp51
 70
     0
102
RTVSPropertyOp52
 70
     0
102
RTVSPropertyOp53
 70
     1
102
RTVSPropertyOp54
 70
     1
102
RTVSPropertyOp55
 70
     1
102
RTVSPropertyOp56
 70
     1
102
RTVSPropertyOp57
 70
     1
102
RTVSPost2010Prop28
280
     0
102
RTVSPost2010PropOp28
 70
     1
102
RTVSPost2010Prop29
280
     1
102
RTVSPost2010PropOp29
 70
     1
102
RTVSPost2010Prop30
280
     1
102
RTVSPost2010PropOp30
 70
     1
102
RTVSPost2010Prop31
280
     0
102
RTVSPost2010PropOp31
 70
     1
102
RTVSPost2010Prop32
280
     0
102
RTVSPost2010PropOp32
 70
     1
102
RTVSPost2010Prop33
280
     0
102
RTVSPost2010PropOp33
 70
     1
102
RTVSPost2010Prop34
280
     0
102
RTVSPost2010PropOp34
 70
     1
102
RTVSPost2010Prop35
280
     0
102
RTVSPost2010PropOp35
 70
     1
102
RTVSPost2010Prop36
280
     0
102
RTVSPost2010PropOp36
 70
     1
102
RTVSPost2010Prop37
 90
       50
102
RTVSPost2010PropOp37
 70
     1
102
RTVSPost2010Prop38
140
0.0
102
RTVSPost2010PropOp38
 70
     1
102
RTVSPost2010Prop39
140
1.0
102
RTVSPost2010PropOp39
 70
     1
102
RTVSPost2010Prop40
 90
        0
102
RTVSPost2010PropOp40
 70
     1
102
RTVSPost2010Prop41ColorIndex
 90
       18
102
RTVSPost2010Prop41ColorRGB
 90
        0
102
RTVSPost2010PropOp41
 70
     1
102
RTVSPost2010Prop42
 90
       50
102
RTVSPost2010PropOp42
 70
     1
102
RTVSPost2010Prop43
 90
        3
102
RTVSPost2010PropOp43
 70
     1
102
RTVSPost2010Prop44ColorIndex
 90
        5
102
RTVSPost2010Prop44ColorRGB
 90
      255
102
RTVSPost2010PropOp44
 70
     1
102
RTVSPost2010Prop45
280
     0
102
RTVSPost2010PropOp45
 70
     1
102
RTVSPost2010Prop46
 90
       50
102
RTVSPost2010PropOp46
 70
     1
102
RTVSPost2010Prop47
 90
       50
102
RTVSPost2010PropOp47
 70
     1
102
RTVSPost2010Prop48
 90
       50
102
RTVSPost2010PropOp48
 70
     1
102
RTVSPost2010Prop49
280
     0
102
RTVSPost2010PropOp49
 70
     1
102
RTVSPost2010Prop50
 90
       50
102
RTVSPost2010PropOp50
 70
     1
102
RTVSPost2010Prop51ColorIndex
 90
      256
102
RTVSPost2010Prop51ColorRGB
 90
-16777216
102
RTVSPost2010PropOp51
 70
     0
102
RTVSPost2010Prop52
140
1.0
102
RTVSPost2010PropOp52
 70
     0
102
RTVSPost2010Prop53
 90
        2
102
RTVSPost2010PropOp53
 70
     1
102
RTVSPost2010Prop54
  1
strokes_ogs.tif
102
RTVSPost2010PropOp54
 70
     1
102
RTVSPost2010Prop55
280
     0
102
RTVSPost2010PropOp55
 70
     1
102
RTVSPost2010Prop56
140
1.0
102
RTVSPost2010PropOp56
 70
     1
102
RTVSPost2010Prop57
140
1.0
102
RTVSPost2010PropOp57
 70
     1
  0
XRECORD
  5
5DD
102
{ACAD_REACTORS
330
5DC
102
}
330
5DC
100
AcDbXrecord
280
     1
102
RTVSPropertyOp0
 70
     1
102
RTVSPropertyOp1
 70
     1
102
RTVSPropertyOp2
 70
     1
102
RTVSPropertyOp3
 70
     1
102
RTVSPropertyOp4
 70
     1
102
RTVSPropertyOp5
 70
     1
102
RTVSPropertyOp6
 70
     1
102
RTVSPropertyOp7
 70
     1
102
RTVSPropertyOp8
 70
     1
102
RTVSPropertyOp9
 70
     1
102
RTVSPropertyOp10
 70
     1
102
RTVSPropertyOp11
 70
     1
102
RTVSPropertyOp12
 70
     1
102
RTVSPropertyOp13
 70
     1
102
RTVSPropertyOp14
 70
     1
102
RTVSPropertyOp15
 70
     1
102
RTVSPropertyOp16
 70
     1
102
RTVSPropertyOp17
 70
     1
102
RTVSPropertyOp18
 70
     1
102
RTVSPropertyOp19
 70
     1
102
RTVSPropertyOp20
 70
     1
102
RTVSPropertyOp21
 70
     1
102
RTVSPropertyOp22
 70
     1
102
RTVSPropertyOp23
 70
     1
102
RTVSPropertyOp24
 70
     1
102
RTVSPropertyOp25
 70
     1
102
RTVSPropertyOp26
 70
     1
102
RTVSPropertyOp27
 70
     1
102
RTVSPropertyOp28
 70
     1
102
RTVSPropertyOp29
 70
     1
102
RTVSPropertyOp30
 70
     1
102
RTVSPropertyOp31
 70
     1
102
RTVSPropertyOp32
 70
     1
102
RTVSPropertyOp33
 70
     1
102
RTVSPropertyOp34
 70
     1
102
RTVSPropertyOp35
 70
     1
102
RTVSPropertyOp36
 70
     1
102
RTVSPropertyOp37
 70
     1
102
RTVSPropertyOp38
 70
     1
102
RTVSPropertyOp39
 70
     1
102
RTVSPropertyOp40
 70
     1
102
RTVSPropertyOp41
 70
     1
102
RTVSPropertyOp42
 70
     1
102
RTVSPropertyOp43
 70
     1
102
RTVSPropertyOp44
 70
     1
102
RTVSPropertyOp45
 70
     1
102
RTVSPropertyOp46
 70
     1
102
RTVSPropertyOp47
 70
     1
102
RTVSPropertyOp48
 70
     1
102
RTVSPropertyOp49
 70
     1
102
RTVSPropertyOp50
 70
     1
102
RTVSPropertyOp51
 70
     0
102
RTVSPropertyOp52
 70
     0
102
RTVSPropertyOp53
 70
     1
102
RTVSPropertyOp54
 70
     1
102
RTVSPropertyOp55
 70
     1
102
RTVSPropertyOp56
 70
     1
102
RTVSPropertyOp57
 70
     1
102
RTVSPost2010Prop28
280
     0
102
RTVSPost2010PropOp28
 70
     1
102
RTVSPost2010Prop29
280
     1
102
RTVSPost2010PropOp29
 70
     1
102
RTVSPost2010Prop30
280
     1
102
RTVSPost2010PropOp30
 70
     1
102
RTVSPost2010Prop31
280
     0
102
RTVSPost2010PropOp31
 70
     1
102
RTVSPost2010Prop32
280
     0
102
RTVSPost2010PropOp32
 70
     1
102
RTVSPost2010Prop33
280
     0
102
RTVSPost2010PropOp33
 70
     1
102
RTVSPost2010Prop34
280
     0
102
RTVSPost2010PropOp34
 70
     1
102
RTVSPost2010Prop35
280
     0
102
RTVSPost2010PropOp35
 70
     1
102
RTVSPost2010Prop36
280
     0
102
RTVSPost2010PropOp36
 70
     1
102
RTVSPost2010Prop37
 90
       50
102
RTVSPost2010PropOp37
 70
     1
102
RTVSPost2010Prop38
140
0.0
102
RTVSPost2010PropOp38
 70
     1
102
RTVSPost2010Prop39
140
1.0
102
RTVSPost2010PropOp39
 70
     1
102
RTVSPost2010Prop40
 90
        0
102
RTVSPost2010PropOp40
 70
     1
102
RTVSPost2010Prop41ColorIndex
 90
       18
102
RTVSPost2010Prop41ColorRGB
 90
        0
102
RTVSPost2010PropOp41
 70
     1
102
RTVSPost2010Prop42
 90
       50
102
RTVSPost2010PropOp42
 70
     1
102
RTVSPost2010Prop43
 90
        3
102
RTVSPost2010PropOp43
 70
     1
102
RTVSPost2010Prop44ColorIndex
 90
        5
102
RTVSPost2010Prop44ColorRGB
 90
      255
102
RTVSPost2010PropOp44
 70
     1
102
RTVSPost2010Prop45
280
     0
102
RTVSPost2010PropOp45
 70
     1
102
RTVSPost2010Prop46
 90
       50
102
RTVSPost2010PropOp46
 70
     1
102
RTVSPost2010Prop47
 90
       50
102
RTVSPost2010PropOp47
 70
     1
102
RTVSPost2010Prop48
 90
       50
102
RTVSPost2010PropOp48
 70
     1
102
RTVSPost2010Prop49
280
     0
102
RTVSPost2010PropOp49
 70
     1
102
RTVSPost2010Prop50
 90
       50
102
RTVSPost2010PropOp50
 70
     1
102
RTVSPost2010Prop51ColorIndex
 90
      256
102
RTVSPost2010Prop51ColorRGB
 90
-16777216
102
RTVSPost2010PropOp51
 70
     0
102
RTVSPost2010Prop52
140
1.0
102
RTVSPost2010PropOp52
 70
     0
102
RTVSPost2010Prop53
 90
        2
102
RTVSPost2010PropOp53
 70
     1
102
RTVSPost2010Prop54
  1
strokes_ogs.tif
102
RTVSPost2010PropOp54
 70
     1
102
RTVSPost2010Prop55
280
     0
102
RTVSPost2010PropOp55
 70
     1
102
RTVSPost2010Prop56
140
1.0
102
RTVSPost2010PropOp56
 70
     1
102
RTVSPost2010Prop57
140
1.0
102
RTVSPost2010PropOp57
 70
     1
  0
XRECORD
  5
5ED
102
{ACAD_REACTORS
330
5EC
102
}
330
5EC
100
AcDbXrecord
280
     1
102
RTVSPropertyOp0
 70
     0
102
RTVSPropertyOp1
 70
     0
102
RTVSPropertyOp2
 70
     0
102
RTVSPropertyOp3
 70
     0
102
RTVSPropertyOp4
 70
     0
102
RTVSPropertyOp5
 70
     0
102
RTVSPropertyOp6
 70
     0
102
RTVSPropertyOp7
 70
     0
102
RTVSPropertyOp8
 70
     0
102
RTVSPropertyOp9
 70
     0
102
RTVSPropertyOp10
 70
     0
102
RTVSPropertyOp11
 70
     0
102
RTVSPropertyOp12
 70
     0
102
RTVSPropertyOp13
 70
     0
102
RTVSPropertyOp14
 70
     2
102
RTVSPropertyOp15
 70
     0
102
RTVSPropertyOp16
 70
     0
102
RTVSPropertyOp17
 70
     0
102
RTVSPropertyOp18
 70
     0
102
RTVSPropertyOp19
 70
     0
102
RTVSPropertyOp20
 70
     0
102
RTVSPropertyOp21
 70
     0
102
RTVSPropertyOp22
 70
     0
102
RTVSPropertyOp23
 70
     0
102
RTVSPropertyOp24
 70
     0
102
RTVSPropertyOp25
 70
     0
102
RTVSPropertyOp26
 70
     0
102
RTVSPropertyOp27
 70
     0
102
RTVSPropertyOp28
 70
     0
102
RTVSPropertyOp29
 70
     0
102
RTVSPropertyOp30
 70
     0
102
RTVSPropertyOp31
 70
     0
102
RTVSPropertyOp32
 70
     0
102
RTVSPropertyOp33
 70
     0
102
RTVSPropertyOp34
 70
     0
102
RTVSPropertyOp35
 70
     0
102
RTVSPropertyOp36
 70
     0
102
RTVSPropertyOp37
 70
     0
102
RTVSPropertyOp38
 70
     0
102
RTVSPropertyOp39
 70
     0
102
RTVSPropertyOp40
 70
     0
102
RTVSPropertyOp41
 70
     0
102
RTVSPropertyOp42
 70
     0
102
RTVSPropertyOp43
 70
     0
102
RTVSPropertyOp44
 70
     0
102
RTVSPropertyOp45
 70
     0
102
RTVSPropertyOp46
 70
     0
102
RTVSPropertyOp47
 70
     0
102
RTVSPropertyOp48
 70
     0
102
RTVSPropertyOp49
 70
     0
102
RTVSPropertyOp50
 70
     0
102
RTVSPropertyOp51
 70
     0
102
RTVSPropertyOp52
 70
     0
102
RTVSPropertyOp53
 70
     0
102
RTVSPropertyOp54
 70
     0
102
RTVSPropertyOp55
 70
     0
102
RTVSPropertyOp56
 70
     0
102
RTVSPropertyOp57
 70
     0
102
RTVSPost2010Prop28
280
     0
102
RTVSPost2010PropOp28
 70
     0
102
RTVSPost2010Prop29
280
     1
102
RTVSPost2010PropOp29
 70
     0
102
RTVSPost2010Prop30
280
     1
102
RTVSPost2010PropOp30
 70
     0
102
RTVSPost2010Prop31
280
     0
102
RTVSPost2010PropOp31
 70
     0
102
RTVSPost2010Prop32
280
     0
102
RTVSPost2010PropOp32
 70
     0
102
RTVSPost2010Prop33
280
     0
102
RTVSPost2010PropOp33
 70
     0
102
RTVSPost2010Prop34
280
     0
102
RTVSPost2010PropOp34
 70
     0
102
RTVSPost2010Prop35
280
     0
102
RTVSPost2010PropOp35
 70
     0
102
RTVSPost2010Prop36
280
     0
102
RTVSPost2010PropOp36
 70
     0
102
RTVSPost2010Prop37
 90
       50
102
RTVSPost2010PropOp37
 70
     0
102
RTVSPost2010Prop38
140
0.0
102
RTVSPost2010PropOp38
 70
     0
102
RTVSPost2010Prop39
140
1.0
102
RTVSPost2010PropOp39
 70
     0
102
RTVSPost2010Prop40
 90
        0
102
RTVSPost2010PropOp40
 70
     0
102
RTVSPost2010Prop41ColorIndex
 90
       18
102
RTVSPost2010Prop41ColorRGB
 90
        0
102
RTVSPost2010PropOp41
 70
     0
102
RTVSPost2010Prop42
 90
       50
102
RTVSPost2010PropOp42
 70
     0
102
RTVSPost2010Prop43
 90
        3
102
RTVSPost2010PropOp43
 70
     0
102
RTVSPost2010Prop44ColorIndex
 90
        5
102
RTVSPost2010Prop44ColorRGB
 90
      255
102
RTVSPost2010PropOp44
 70
     0
102
RTVSPost2010Prop45
280
     0
102
RTVSPost2010PropOp45
 70
     0
102
RTVSPost2010Prop46
 90
       50
102
RTVSPost2010PropOp46
 70
     0
102
RTVSPost2010Prop47
 90
       50
102
RTVSPost2010PropOp47
 70
     0
102
RTVSPost2010Prop48
 90
       50
102
RTVSPost2010PropOp48
 70
     0
102
RTVSPost2010Prop49
280
     0
102
RTVSPost2010PropOp49
 70
     0
102
RTVSPost2010Prop50
 90
       50
102
RTVSPost2010PropOp50
 70
     0
102
RTVSPost2010Prop51ColorIndex
 90
      256
102
RTVSPost2010Prop51ColorRGB
 90
-16777216
102
RTVSPost2010PropOp51
 70
     0
102
RTVSPost2010Prop52
140
1.0
102
RTVSPost2010PropOp52
 70
     0
102
RTVSPost2010Prop53
 90
        2
102
RTVSPost2010PropOp53
 70
     0
102
RTVSPost2010Prop54
  1
strokes_ogs.tif
102
RTVSPost2010PropOp54
 70
     0
102
RTVSPost2010Prop55
280
     0
102
RTVSPost2010PropOp55
 70
     0
102
RTVSPost2010Prop56
140
1.0
102
RTVSPost2010PropOp56
 70
     0
102
RTVSPost2010Prop57
140
1.0
102
RTVSPost2010PropOp57
 70
     0
  0
XRECORD
  5
5E5
102
{ACAD_REACTORS
330
5E4
102
}
330
5E4
100
AcDbXrecord
280
     1
102
RTVSPropertyOp0
 70
     1
102
RTVSPropertyOp1
 70
     1
102
RTVSPropertyOp2
 70
     1
102
RTVSPropertyOp3
 70
     1
102
RTVSPropertyOp4
 70
     1
102
RTVSPropertyOp5
 70
     1
102
RTVSPropertyOp6
 70
     1
102
RTVSPropertyOp7
 70
     1
102
RTVSPropertyOp8
 70
     1
102
RTVSPropertyOp9
 70
     1
102
RTVSPropertyOp10
 70
     1
102
RTVSPropertyOp11
 70
     1
102
RTVSPropertyOp12
 70
     1
102
RTVSPropertyOp13
 70
     1
102
RTVSPropertyOp14
 70
     1
102
RTVSPropertyOp15
 70
     1
102
RTVSPropertyOp16
 70
     1
102
RTVSPropertyOp17
 70
     1
102
RTVSPropertyOp18
 70
     1
102
RTVSPropertyOp19
 70
     1
102
RTVSPropertyOp20
 70
     1
102
RTVSPropertyOp21
 70
     1
102
RTVSPropertyOp22
 70
     1
102
RTVSPropertyOp23
 70
     1
102
RTVSPropertyOp24
 70
     1
102
RTVSPropertyOp25
 70
     1
102
RTVSPropertyOp26
 70
     1
102
RTVSPropertyOp27
 70
     1
102
RTVSPropertyOp28
 70
     1
102
RTVSPropertyOp29
 70
     1
102
RTVSPropertyOp30
 70
     1
102
RTVSPropertyOp31
 70
     1
102
RTVSPropertyOp32
 70
     1
102
RTVSPropertyOp33
 70
     1
102
RTVSPropertyOp34
 70
     1
102
RTVSPropertyOp35
 70
     1
102
RTVSPropertyOp36
 70
     1
102
RTVSPropertyOp37
 70
     1
102
RTVSPropertyOp38
 70
     1
102
RTVSPropertyOp39
 70
     1
102
RTVSPropertyOp40
 70
     1
102
RTVSPropertyOp41
 70
     1
102
RTVSPropertyOp42
 70
     1
102
RTVSPropertyOp43
 70
     1
102
RTVSPropertyOp44
 70
     1
102
RTVSPropertyOp45
 70
     1
102
RTVSPropertyOp46
 70
     1
102
RTVSPropertyOp47
 70
     1
102
RTVSPropertyOp48
 70
     1
102
RTVSPropertyOp49
 70
     1
102
RTVSPropertyOp50
 70
     1
102
RTVSPropertyOp51
 70
     0
102
RTVSPropertyOp52
 70
     0
102
RTVSPropertyOp53
 70
     1
102
RTVSPropertyOp54
 70
     1
102
RTVSPropertyOp55
 70
     1
102
RTVSPropertyOp56
 70
     1
102
RTVSPropertyOp57
 70
     1
102
RTVSPost2010Prop28
280
     0
102
RTVSPost2010PropOp28
 70
     1
102
RTVSPost2010Prop29
280
     1
102
RTVSPost2010PropOp29
 70
     1
102
RTVSPost2010Prop30
280
     1
102
RTVSPost2010PropOp30
 70
     1
102
RTVSPost2010Prop31
280
     0
102
RTVSPost2010PropOp31
 70
     1
102
RTVSPost2010Prop32
280
     0
102
RTVSPost2010PropOp32
 70
     1
102
RTVSPost2010Prop33
280
     0
102
RTVSPost2010PropOp33
 70
     1
102
RTVSPost2010Prop34
280
     0
102
RTVSPost2010PropOp34
 70
     1
102
RTVSPost2010Prop35
280
     0
102
RTVSPost2010PropOp35
 70
     1
102
RTVSPost2010Prop36
280
     0
102
RTVSPost2010PropOp36
 70
     1
102
RTVSPost2010Prop37
 90
       50
102
RTVSPost2010PropOp37
 70
     1
102
RTVSPost2010Prop38
140
0.0
102
RTVSPost2010PropOp38
 70
     1
102
RTVSPost2010Prop39
140
1.0
102
RTVSPost2010PropOp39
 70
     1
102
RTVSPost2010Prop40
 90
        0
102
RTVSPost2010PropOp40
 70
     1
102
RTVSPost2010Prop41ColorIndex
 90
       18
102
RTVSPost2010Prop41ColorRGB
 90
        0
102
RTVSPost2010PropOp41
 70
     1
102
RTVSPost2010Prop42
 90
       50
102
RTVSPost2010PropOp42
 70
     1
102
RTVSPost2010Prop43
 90
        3
102
RTVSPost2010PropOp43
 70
     1
102
RTVSPost2010Prop44ColorIndex
 90
        5
102
RTVSPost2010Prop44ColorRGB
 90
      255
102
RTVSPost2010PropOp44
 70
     1
102
RTVSPost2010Prop45
280
     0
102
RTVSPost2010PropOp45
 70
     1
102
RTVSPost2010Prop46
 90
       50
102
RTVSPost2010PropOp46
 70
     1
102
RTVSPost2010Prop47
 90
       50
102
RTVSPost2010PropOp47
 70
     1
102
RTVSPost2010Prop48
 90
       50
102
RTVSPost2010PropOp48
 70
     1
102
RTVSPost2010Prop49
280
     0
102
RTVSPost2010PropOp49
 70
     1
102
RTVSPost2010Prop50
 90
       50
102
RTVSPost2010PropOp50
 70
     1
102
RTVSPost2010Prop51ColorIndex
 90
      256
102
RTVSPost2010Prop51ColorRGB
 90
-16777216
102
RTVSPost2010PropOp51
 70
     0
102
RTVSPost2010Prop52
140
1.0
102
RTVSPost2010PropOp52
 70
     0
102
RTVSPost2010Prop53
 90
        2
102
RTVSPost2010PropOp53
 70
     1
102
RTVSPost2010Prop54
  1
strokes_ogs.tif
102
RTVSPost2010PropOp54
 70
     1
102
RTVSPost2010Prop55
280
     0
102
RTVSPost2010PropOp55
 70
     1
102
RTVSPost2010Prop56
140
1.0
102
RTVSPost2010PropOp56
 70
     1
102
RTVSPost2010Prop57
140
1.0
102
RTVSPost2010PropOp57
 70
     1
  0
XRECORD
  5
5C9
102
{ACAD_REACTORS
330
5C8
102
}
330
5C8
100
AcDbXrecord
280
     1
102
RTVSPropertyOp0
 70
     1
102
RTVSPropertyOp1
 70
     1
102
RTVSPropertyOp2
 70
     1
102
RTVSPropertyOp3
 70
     1
102
RTVSPropertyOp4
 70
     1
102
RTVSPropertyOp5
 70
     1
102
RTVSPropertyOp6
 70
     1
102
RTVSPropertyOp7
 70
     1
102
RTVSPropertyOp8
 70
     1
102
RTVSPropertyOp9
 70
     1
102
RTVSPropertyOp10
 70
     1
102
RTVSPropertyOp11
 70
     1
102
RTVSPropertyOp12
 70
     1
102
RTVSPropertyOp13
 70
     1
102
RTVSPropertyOp14
 70
     1
102
RTVSPropertyOp15
 70
     1
102
RTVSPropertyOp16
 70
     1
102
RTVSPropertyOp17
 70
     1
102
RTVSPropertyOp18
 70
     1
102
RTVSPropertyOp19
 70
     1
102
RTVSPropertyOp20
 70
     1
102
RTVSPropertyOp21
 70
     1
102
RTVSPropertyOp22
 70
     1
102
RTVSPropertyOp23
 70
     1
102
RTVSPropertyOp24
 70
     1
102
RTVSPropertyOp25
 70
     1
102
RTVSPropertyOp26
 70
     1
102
RTVSPropertyOp27
 70
     1
102
RTVSPropertyOp28
 70
     1
102
RTVSPropertyOp29
 70
     1
102
RTVSPropertyOp30
 70
     1
102
RTVSPropertyOp31
 70
     1
102
RTVSPropertyOp32
 70
     1
102
RTVSPropertyOp33
 70
     1
102
RTVSPropertyOp34
 70
     1
102
RTVSPropertyOp35
 70
     1
102
RTVSPropertyOp36
 70
     1
102
RTVSPropertyOp37
 70
     1
102
RTVSPropertyOp38
 70
     1
102
RTVSPropertyOp39
 70
     1
102
RTVSPropertyOp40
 70
     1
102
RTVSPropertyOp41
 70
     1
102
RTVSPropertyOp42
 70
     1
102
RTVSPropertyOp43
 70
     1
102
RTVSPropertyOp44
 70
     1
102
RTVSPropertyOp45
 70
     1
102
RTVSPropertyOp46
 70
     1
102
RTVSPropertyOp47
 70
     1
102
RTVSPropertyOp48
 70
     1
102
RTVSPropertyOp49
 70
     1
102
RTVSPropertyOp50
 70
     1
102
RTVSPropertyOp51
 70
     0
102
RTVSPropertyOp52
 70
     0
102
RTVSPropertyOp53
 70
     1
102
RTVSPropertyOp54
 70
     1
102
RTVSPropertyOp55
 70
     1
102
RTVSPropertyOp56
 70
     1
102
RTVSPropertyOp57
 70
     1
102
RTVSPost2010Prop28
280
     0
102
RTVSPost2010PropOp28
 70
     1
102
RTVSPost2010Prop29
280
     1
102
RTVSPost2010PropOp29
 70
     1
102
RTVSPost2010Prop30
280
     1
102
RTVSPost2010PropOp30
 70
     1
102
RTVSPost2010Prop31
280
     0
102
RTVSPost2010PropOp31
 70
     1
102
RTVSPost2010Prop32
280
     0
102
RTVSPost2010PropOp32
 70
     1
102
RTVSPost2010Prop33
280
     0
102
RTVSPost2010PropOp33
 70
     1
102
RTVSPost2010Prop34
280
     0
102
RTVSPost2010PropOp34
 70
     1
102
RTVSPost2010Prop35
280
     0
102
RTVSPost2010PropOp35
 70
     1
102
RTVSPost2010Prop36
280
     0
102
RTVSPost2010PropOp36
 70
     1
102
RTVSPost2010Prop37
 90
       50
102
RTVSPost2010PropOp37
 70
     1
102
RTVSPost2010Prop38
140
0.0
102
RTVSPost2010PropOp38
 70
     1
102
RTVSPost2010Prop39
140
1.0
102
RTVSPost2010PropOp39
 70
     1
102
RTVSPost2010Prop40
 90
        0
102
RTVSPost2010PropOp40
 70
     1
102
RTVSPost2010Prop41ColorIndex
 90
       18
102
RTVSPost2010Prop41ColorRGB
 90
        0
102
RTVSPost2010PropOp41
 70
     1
102
RTVSPost2010Prop42
 90
       50
102
RTVSPost2010PropOp42
 70
     1
102
RTVSPost2010Prop43
 90
        3
102
RTVSPost2010PropOp43
 70
     1
102
RTVSPost2010Prop44ColorIndex
 90
        5
102
RTVSPost2010Prop44ColorRGB
 90
      255
102
RTVSPost2010PropOp44
 70
     1
102
RTVSPost2010Prop45
280
     0
102
RTVSPost2010PropOp45
 70
     1
102
RTVSPost2010Prop46
 90
       50
102
RTVSPost2010PropOp46
 70
     1
102
RTVSPost2010Prop47
 90
       50
102
RTVSPost2010PropOp47
 70
     1
102
RTVSPost2010Prop48
 90
       50
102
RTVSPost2010PropOp48
 70
     1
102
RTVSPost2010Prop49
280
     0
102
RTVSPost2010PropOp49
 70
     1
102
RTVSPost2010Prop50
 90
       50
102
RTVSPost2010PropOp50
 70
     1
102
RTVSPost2010Prop51ColorIndex
 90
      256
102
RTVSPost2010Prop51ColorRGB
 90
-16777216
102
RTVSPost2010PropOp51
 70
     0
102
RTVSPost2010Prop52
140
1.0
102
RTVSPost2010PropOp52
 70
     0
102
RTVSPost2010Prop53
 90
        2
102
RTVSPost2010PropOp53
 70
     1
102
RTVSPost2010Prop54
  1
strokes_ogs.tif
102
RTVSPost2010PropOp54
 70
     1
102
RTVSPost2010Prop55
280
     0
102
RTVSPost2010PropOp55
 70
     1
102
RTVSPost2010Prop56
140
1.0
102
RTVSPost2010PropOp56
 70
     1
102
RTVSPost2010Prop57
140
1.0
102
RTVSPost2010PropOp57
 70
     1
  0
XRECORD
  5
5CB
102
{ACAD_REACTORS
330
5CA
102
}
330
5CA
100
AcDbXrecord
280
     1
102
RTVSPropertyOp0
 70
     1
102
RTVSPropertyOp1
 70
     1
102
RTVSPropertyOp2
 70
     1
102
RTVSPropertyOp3
 70
     1
102
RTVSPropertyOp4
 70
     1
102
RTVSPropertyOp5
 70
     1
102
RTVSPropertyOp6
 70
     1
102
RTVSPropertyOp7
 70
     1
102
RTVSPropertyOp8
 70
     1
102
RTVSPropertyOp9
 70
     1
102
RTVSPropertyOp10
 70
     1
102
RTVSPropertyOp11
 70
     1
102
RTVSPropertyOp12
 70
     1
102
RTVSPropertyOp13
 70
     1
102
RTVSPropertyOp14
 70
     1
102
RTVSPropertyOp15
 70
     1
102
RTVSPropertyOp16
 70
     1
102
RTVSPropertyOp17
 70
     1
102
RTVSPropertyOp18
 70
     1
102
RTVSPropertyOp19
 70
     1
102
RTVSPropertyOp20
 70
     1
102
RTVSPropertyOp21
 70
     1
102
RTVSPropertyOp22
 70
     1
102
RTVSPropertyOp23
 70
     1
102
RTVSPropertyOp24
 70
     1
102
RTVSPropertyOp25
 70
     1
102
RTVSPropertyOp26
 70
     1
102
RTVSPropertyOp27
 70
     1
102
RTVSPropertyOp28
 70
     1
102
RTVSPropertyOp29
 70
     1
102
RTVSPropertyOp30
 70
     1
102
RTVSPropertyOp31
 70
     1
102
RTVSPropertyOp32
 70
     1
102
RTVSPropertyOp33
 70
     1
102
RTVSPropertyOp34
 70
     1
102
RTVSPropertyOp35
 70
     1
102
RTVSPropertyOp36
 70
     1
102
RTVSPropertyOp37
 70
     1
102
RTVSPropertyOp38
 70
     1
102
RTVSPropertyOp39
 70
     1
102
RTVSPropertyOp40
 70
     1
102
RTVSPropertyOp41
 70
     1
102
RTVSPropertyOp42
 70
     1
102
RTVSPropertyOp43
 70
     1
102
RTVSPropertyOp44
 70
     1
102
RTVSPropertyOp45
 70
     1
102
RTVSPropertyOp46
 70
     1
102
RTVSPropertyOp47
 70
     1
102
RTVSPropertyOp48
 70
     1
102
RTVSPropertyOp49
 70
     1
102
RTVSPropertyOp50
 70
     1
102
RTVSPropertyOp51
 70
     0
102
RTVSPropertyOp52
 70
     0
102
RTVSPropertyOp53
 70
     1
102
RTVSPropertyOp54
 70
     1
102
RTVSPropertyOp55
 70
     1
102
RTVSPropertyOp56
 70
     1
102
RTVSPropertyOp57
 70
     1
102
RTVSPost2010Prop28
280
     0
102
RTVSPost2010PropOp28
 70
     1
102
RTVSPost2010Prop29
280
     1
102
RTVSPost2010PropOp29
 70
     1
102
RTVSPost2010Prop30
280
     1
102
RTVSPost2010PropOp30
 70
     1
102
RTVSPost2010Prop31
280
     0
102
RTVSPost2010PropOp31
 70
     1
102
RTVSPost2010Prop32
280
     0
102
RTVSPost2010PropOp32
 70
     1
102
RTVSPost2010Prop33
280
     0
102
RTVSPost2010PropOp33
 70
     1
102
RTVSPost2010Prop34
280
     0
102
RTVSPost2010PropOp34
 70
     1
102
RTVSPost2010Prop35
280
     0
102
RTVSPost2010PropOp35
 70
     1
102
RTVSPost2010Prop36
280
     0
102
RTVSPost2010PropOp36
 70
     1
102
RTVSPost2010Prop37
 90
       50
102
RTVSPost2010PropOp37
 70
     1
102
RTVSPost2010Prop38
140
0.0
102
RTVSPost2010PropOp38
 70
     1
102
RTVSPost2010Prop39
140
1.0
102
RTVSPost2010PropOp39
 70
     1
102
RTVSPost2010Prop40
 90
        0
102
RTVSPost2010PropOp40
 70
     1
102
RTVSPost2010Prop41ColorIndex
 90
       18
102
RTVSPost2010Prop41ColorRGB
 90
        0
102
RTVSPost2010PropOp41
 70
     1
102
RTVSPost2010Prop42
 90
       50
102
RTVSPost2010PropOp42
 70
     1
102
RTVSPost2010Prop43
 90
        3
102
RTVSPost2010PropOp43
 70
     1
102
RTVSPost2010Prop44ColorIndex
 90
        5
102
RTVSPost2010Prop44ColorRGB
 90
      255
102
RTVSPost2010PropOp44
 70
     1
102
RTVSPost2010Prop45
280
     0
102
RTVSPost2010PropOp45
 70
     1
102
RTVSPost2010Prop46
 90
       50
102
RTVSPost2010PropOp46
 70
     1
102
RTVSPost2010Prop47
 90
       50
102
RTVSPost2010PropOp47
 70
     1
102
RTVSPost2010Prop48
 90
       50
102
RTVSPost2010PropOp48
 70
     1
102
RTVSPost2010Prop49
280
     0
102
RTVSPost2010PropOp49
 70
     1
102
RTVSPost2010Prop50
 90
       50
102
RTVSPost2010PropOp50
 70
     1
102
RTVSPost2010Prop51ColorIndex
 90
      256
102
RTVSPost2010Prop51ColorRGB
 90
-16777216
102
RTVSPost2010PropOp51
 70
     0
102
RTVSPost2010Prop52
140
1.0
102
RTVSPost2010PropOp52
 70
     0
102
RTVSPost2010Prop53
 90
        2
102
RTVSPost2010PropOp53
 70
     1
102
RTVSPost2010Prop54
  1
strokes_ogs.tif
102
RTVSPost2010PropOp54
 70
     1
102
RTVSPost2010Prop55
280
     0
102
RTVSPost2010PropOp55
 70
     1
102
RTVSPost2010Prop56
140
1.0
102
RTVSPost2010PropOp56
 70
     1
102
RTVSPost2010Prop57
140
1.0
102
RTVSPost2010PropOp57
 70
     1
  0
XRECORD
  5
5CD
102
{ACAD_REACTORS
330
5CC
102
}
330
5CC
100
AcDbXrecord
280
     1
102
RTVSPropertyOp0
 70
     1
102
RTVSPropertyOp1
 70
     1
102
RTVSPropertyOp2
 70
     1
102
RTVSPropertyOp3
 70
     1
102
RTVSPropertyOp4
 70
     1
102
RTVSPropertyOp5
 70
     1
102
RTVSPropertyOp6
 70
     1
102
RTVSPropertyOp7
 70
     1
102
RTVSPropertyOp8
 70
     1
102
RTVSPropertyOp9
 70
     1
102
RTVSPropertyOp10
 70
     1
102
RTVSPropertyOp11
 70
     1
102
RTVSPropertyOp12
 70
     1
102
RTVSPropertyOp13
 70
     1
102
RTVSPropertyOp14
 70
     1
102
RTVSPropertyOp15
 70
     1
102
RTVSPropertyOp16
 70
     1
102
RTVSPropertyOp17
 70
     1
102
RTVSPropertyOp18
 70
     1
102
RTVSPropertyOp19
 70
     1
102
RTVSPropertyOp20
 70
     1
102
RTVSPropertyOp21
 70
     1
102
RTVSPropertyOp22
 70
     1
102
RTVSPropertyOp23
 70
     1
102
RTVSPropertyOp24
 70
     1
102
RTVSPropertyOp25
 70
     1
102
RTVSPropertyOp26
 70
     1
102
RTVSPropertyOp27
 70
     1
102
RTVSPropertyOp28
 70
     1
102
RTVSPropertyOp29
 70
     1
102
RTVSPropertyOp30
 70
     1
102
RTVSPropertyOp31
 70
     1
102
RTVSPropertyOp32
 70
     1
102
RTVSPropertyOp33
 70
     1
102
RTVSPropertyOp34
 70
     1
102
RTVSPropertyOp35
 70
     1
102
RTVSPropertyOp36
 70
     1
102
RTVSPropertyOp37
 70
     1
102
RTVSPropertyOp38
 70
     1
102
RTVSPropertyOp39
 70
     1
102
RTVSPropertyOp40
 70
     1
102
RTVSPropertyOp41
 70
     1
102
RTVSPropertyOp42
 70
     1
102
RTVSPropertyOp43
 70
     1
102
RTVSPropertyOp44
 70
     1
102
RTVSPropertyOp45
 70
     1
102
RTVSPropertyOp46
 70
     1
102
RTVSPropertyOp47
 70
     1
102
RTVSPropertyOp48
 70
     1
102
RTVSPropertyOp49
 70
     1
102
RTVSPropertyOp50
 70
     1
102
RTVSPropertyOp51
 70
     0
102
RTVSPropertyOp52
 70
     0
102
RTVSPropertyOp53
 70
     1
102
RTVSPropertyOp54
 70
     1
102
RTVSPropertyOp55
 70
     1
102
RTVSPropertyOp56
 70
     1
102
RTVSPropertyOp57
 70
     1
102
RTVSPost2010Prop28
280
     0
102
RTVSPost2010PropOp28
 70
     1
102
RTVSPost2010Prop29
280
     1
102
RTVSPost2010PropOp29
 70
     1
102
RTVSPost2010Prop30
280
     1
102
RTVSPost2010PropOp30
 70
     1
102
RTVSPost2010Prop31
280
     0
102
RTVSPost2010PropOp31
 70
     1
102
RTVSPost2010Prop32
280
     0
102
RTVSPost2010PropOp32
 70
     1
102
RTVSPost2010Prop33
280
     0
102
RTVSPost2010PropOp33
 70
     1
102
RTVSPost2010Prop34
280
     0
102
RTVSPost2010PropOp34
 70
     1
102
RTVSPost2010Prop35
280
     0
102
RTVSPost2010PropOp35
 70
     1
102
RTVSPost2010Prop36
280
     0
102
RTVSPost2010PropOp36
 70
     1
102
RTVSPost2010Prop37
 90
       50
102
RTVSPost2010PropOp37
 70
     1
102
RTVSPost2010Prop38
140
0.0
102
RTVSPost2010PropOp38
 70
     1
102
RTVSPost2010Prop39
140
1.0
102
RTVSPost2010PropOp39
 70
     1
102
RTVSPost2010Prop40
 90
        0
102
RTVSPost2010PropOp40
 70
     1
102
RTVSPost2010Prop41ColorIndex
 90
       18
102
RTVSPost2010Prop41ColorRGB
 90
        0
102
RTVSPost2010PropOp41
 70
     1
102
RTVSPost2010Prop42
 90
       50
102
RTVSPost2010PropOp42
 70
     1
102
RTVSPost2010Prop43
 90
        3
102
RTVSPost2010PropOp43
 70
     1
102
RTVSPost2010Prop44ColorIndex
 90
        5
102
RTVSPost2010Prop44ColorRGB
 90
      255
102
RTVSPost2010PropOp44
 70
     1
102
RTVSPost2010Prop45
280
     0
102
RTVSPost2010PropOp45
 70
     1
102
RTVSPost2010Prop46
 90
       50
102
RTVSPost2010PropOp46
 70
     1
102
RTVSPost2010Prop47
 90
       50
102
RTVSPost2010PropOp47
 70
     1
102
RTVSPost2010Prop48
 90
       50
102
RTVSPost2010PropOp48
 70
     1
102
RTVSPost2010Prop49
280
     0
102
RTVSPost2010PropOp49
 70
     1
102
RTVSPost2010Prop50
 90
       50
102
RTVSPost2010PropOp50
 70
     1
102
RTVSPost2010Prop51ColorIndex
 90
      256
102
RTVSPost2010Prop51ColorRGB
 90
-16777216
102
RTVSPost2010PropOp51
 70
     0
102
RTVSPost2010Prop52
140
1.0
102
RTVSPost2010PropOp52
 70
     0
102
RTVSPost2010Prop53
 90
        2
102
RTVSPost2010PropOp53
 70
     1
102
RTVSPost2010Prop54
  1
strokes_ogs.tif
102
RTVSPost2010PropOp54
 70
     1
102
RTVSPost2010Prop55
280
     0
102
RTVSPost2010PropOp55
 70
     1
102
RTVSPost2010Prop56
140
1.0
102
RTVSPost2010PropOp56
 70
     1
102
RTVSPost2010Prop57
140
1.0
102
RTVSPost2010PropOp57
 70
     1
  0
XRECORD
  5
5CF
102
{ACAD_REACTORS
330
5CE
102
}
330
5CE
100
AcDbXrecord
280
     1
102
RTVSPropertyOp0
 70
     1
102
RTVSPropertyOp1
 70
     1
102
RTVSPropertyOp2
 70
     1
102
RTVSPropertyOp3
 70
     1
102
RTVSPropertyOp4
 70
     1
102
RTVSPropertyOp5
 70
     1
102
RTVSPropertyOp6
 70
     1
102
RTVSPropertyOp7
 70
     1
102
RTVSPropertyOp8
 70
     1
102
RTVSPropertyOp9
 70
     1
102
RTVSPropertyOp10
 70
     1
102
RTVSPropertyOp11
 70
     1
102
RTVSPropertyOp12
 70
     1
102
RTVSPropertyOp13
 70
     1
102
RTVSPropertyOp14
 70
     1
102
RTVSPropertyOp15
 70
     1
102
RTVSPropertyOp16
 70
     1
102
RTVSPropertyOp17
 70
     1
102
RTVSPropertyOp18
 70
     1
102
RTVSPropertyOp19
 70
     1
102
RTVSPropertyOp20
 70
     1
102
RTVSPropertyOp21
 70
     1
102
RTVSPropertyOp22
 70
     1
102
RTVSPropertyOp23
 70
     1
102
RTVSPropertyOp24
 70
     1
102
RTVSPropertyOp25
 70
     1
102
RTVSPropertyOp26
 70
     1
102
RTVSPropertyOp27
 70
     1
102
RTVSPropertyOp28
 70
     1
102
RTVSPropertyOp29
 70
     1
102
RTVSPropertyOp30
 70
     1
102
RTVSPropertyOp31
 70
     1
102
RTVSPropertyOp32
 70
     1
102
RTVSPropertyOp33
 70
     1
102
RTVSPropertyOp34
 70
     1
102
RTVSPropertyOp35
 70
     1
102
RTVSPropertyOp36
 70
     1
102
RTVSPropertyOp37
 70
     1
102
RTVSPropertyOp38
 70
     1
102
RTVSPropertyOp39
 70
     1
102
RTVSPropertyOp40
 70
     1
102
RTVSPropertyOp41
 70
     1
102
RTVSPropertyOp42
 70
     1
102
RTVSPropertyOp43
 70
     1
102
RTVSPropertyOp44
 70
     1
102
RTVSPropertyOp45
 70
     1
102
RTVSPropertyOp46
 70
     1
102
RTVSPropertyOp47
 70
     1
102
RTVSPropertyOp48
 70
     1
102
RTVSPropertyOp49
 70
     1
102
RTVSPropertyOp50
 70
     1
102
RTVSPropertyOp51
 70
     0
102
RTVSPropertyOp52
 70
     0
102
RTVSPropertyOp53
 70
     1
102
RTVSPropertyOp54
 70
     1
102
RTVSPropertyOp55
 70
     1
102
RTVSPropertyOp56
 70
     1
102
RTVSPropertyOp57
 70
     1
102
RTVSPost2010Prop28
280
     0
102
RTVSPost2010PropOp28
 70
     1
102
RTVSPost2010Prop29
280
     1
102
RTVSPost2010PropOp29
 70
     1
102
RTVSPost2010Prop30
280
     1
102
RTVSPost2010PropOp30
 70
     1
102
RTVSPost2010Prop31
280
     0
102
RTVSPost2010PropOp31
 70
     1
102
RTVSPost2010Prop32
280
     0
102
RTVSPost2010PropOp32
 70
     1
102
RTVSPost2010Prop33
280
     0
102
RTVSPost2010PropOp33
 70
     1
102
RTVSPost2010Prop34
280
     0
102
RTVSPost2010PropOp34
 70
     1
102
RTVSPost2010Prop35
280
     0
102
RTVSPost2010PropOp35
 70
     1
102
RTVSPost2010Prop36
280
     0
102
RTVSPost2010PropOp36
 70
     1
102
RTVSPost2010Prop37
 90
       50
102
RTVSPost2010PropOp37
 70
     1
102
RTVSPost2010Prop38
140
0.0
102
RTVSPost2010PropOp38
 70
     1
102
RTVSPost2010Prop39
140
1.0
102
RTVSPost2010PropOp39
 70
     1
102
RTVSPost2010Prop40
 90
        0
102
RTVSPost2010PropOp40
 70
     1
102
RTVSPost2010Prop41ColorIndex
 90
       18
102
RTVSPost2010Prop41ColorRGB
 90
        0
102
RTVSPost2010PropOp41
 70
     1
102
RTVSPost2010Prop42
 90
       50
102
RTVSPost2010PropOp42
 70
     1
102
RTVSPost2010Prop43
 90
        3
102
RTVSPost2010PropOp43
 70
     1
102
RTVSPost2010Prop44ColorIndex
 90
        5
102
RTVSPost2010Prop44ColorRGB
 90
      255
102
RTVSPost2010PropOp44
 70
     1
102
RTVSPost2010Prop45
280
     0
102
RTVSPost2010PropOp45
 70
     1
102
RTVSPost2010Prop46
 90
       50
102
RTVSPost2010PropOp46
 70
     1
102
RTVSPost2010Prop47
 90
       50
102
RTVSPost2010PropOp47
 70
     1
102
RTVSPost2010Prop48
 90
       50
102
RTVSPost2010PropOp48
 70
     1
102
RTVSPost2010Prop49
280
     0
102
RTVSPost2010PropOp49
 70
     1
102
RTVSPost2010Prop50
 90
       50
102
RTVSPost2010PropOp50
 70
     1
102
RTVSPost2010Prop51ColorIndex
 90
      256
102
RTVSPost2010Prop51ColorRGB
 90
-16777216
102
RTVSPost2010PropOp51
 70
     0
102
RTVSPost2010Prop52
140
1.0
102
RTVSPost2010PropOp52
 70
     0
102
RTVSPost2010Prop53
 90
        2
102
RTVSPost2010PropOp53
 70
     1
102
RTVSPost2010Prop54
  1
strokes_ogs.tif
102
RTVSPost2010PropOp54
 70
     1
102
RTVSPost2010Prop55
280
     0
102
RTVSPost2010PropOp55
 70
     1
102
RTVSPost2010Prop56
140
1.0
102
RTVSPost2010PropOp56
 70
     1
102
RTVSPost2010Prop57
140
1.0
102
RTVSPost2010PropOp57
 70
     1
  0
XRECORD
  5
5D5
102
{ACAD_REACTORS
330
5D4
102
}
330
5D4
100
AcDbXrecord
280
     1
102
RTVSPropertyOp0
 70
     1
102
RTVSPropertyOp1
 70
     1
102
RTVSPropertyOp2
 70
     1
102
RTVSPropertyOp3
 70
     1
102
RTVSPropertyOp4
 70
     1
102
RTVSPropertyOp5
 70
     1
102
RTVSPropertyOp6
 70
     1
102
RTVSPropertyOp7
 70
     1
102
RTVSPropertyOp8
 70
     1
102
RTVSPropertyOp9
 70
     1
102
RTVSPropertyOp10
 70
     1
102
RTVSPropertyOp11
 70
     1
102
RTVSPropertyOp12
 70
     1
102
RTVSPropertyOp13
 70
     1
102
RTVSPropertyOp14
 70
     1
102
RTVSPropertyOp15
 70
     1
102
RTVSPropertyOp16
 70
     1
102
RTVSPropertyOp17
 70
     1
102
RTVSPropertyOp18
 70
     1
102
RTVSPropertyOp19
 70
     1
102
RTVSPropertyOp20
 70
     1
102
RTVSPropertyOp21
 70
     1
102
RTVSPropertyOp22
 70
     1
102
RTVSPropertyOp23
 70
     1
102
RTVSPropertyOp24
 70
     1
102
RTVSPropertyOp25
 70
     1
102
RTVSPropertyOp26
 70
     1
102
RTVSPropertyOp27
 70
     1
102
RTVSPropertyOp28
 70
     1
102
RTVSPropertyOp29
 70
     1
102
RTVSPropertyOp30
 70
     1
102
RTVSPropertyOp31
 70
     1
102
RTVSPropertyOp32
 70
     1
102
RTVSPropertyOp33
 70
     1
102
RTVSPropertyOp34
 70
     1
102
RTVSPropertyOp35
 70
     1
102
RTVSPropertyOp36
 70
     1
102
RTVSPropertyOp37
 70
     1
102
RTVSPropertyOp38
 70
     1
102
RTVSPropertyOp39
 70
     1
102
RTVSPropertyOp40
 70
     1
102
RTVSPropertyOp41
 70
     1
102
RTVSPropertyOp42
 70
     1
102
RTVSPropertyOp43
 70
     1
102
RTVSPropertyOp44
 70
     1
102
RTVSPropertyOp45
 70
     1
102
RTVSPropertyOp46
 70
     1
102
RTVSPropertyOp47
 70
     1
102
RTVSPropertyOp48
 70
     1
102
RTVSPropertyOp49
 70
     1
102
RTVSPropertyOp50
 70
     1
102
RTVSPropertyOp51
 70
     0
102
RTVSPropertyOp52
 70
     0
102
RTVSPropertyOp53
 70
     1
102
RTVSPropertyOp54
 70
     1
102
RTVSPropertyOp55
 70
     1
102
RTVSPropertyOp56
 70
     1
102
RTVSPropertyOp57
 70
     1
102
RTVSPost2010Prop28
280
     0
102
RTVSPost2010PropOp28
 70
     1
102
RTVSPost2010Prop29
280
     1
102
RTVSPost2010PropOp29
 70
     1
102
RTVSPost2010Prop30
280
     1
102
RTVSPost2010PropOp30
 70
     1
102
RTVSPost2010Prop31
280
     0
102
RTVSPost2010PropOp31
 70
     1
102
RTVSPost2010Prop32
280
     0
102
RTVSPost2010PropOp32
 70
     1
102
RTVSPost2010Prop33
280
     0
102
RTVSPost2010PropOp33
 70
     1
102
RTVSPost2010Prop34
280
     0
102
RTVSPost2010PropOp34
 70
     1
102
RTVSPost2010Prop35
280
     0
102
RTVSPost2010PropOp35
 70
     1
102
RTVSPost2010Prop36
280
     0
102
RTVSPost2010PropOp36
 70
     1
102
RTVSPost2010Prop37
 90
       50
102
RTVSPost2010PropOp37
 70
     1
102
RTVSPost2010Prop38
140
0.0
102
RTVSPost2010PropOp38
 70
     1
102
RTVSPost2010Prop39
140
1.0
102
RTVSPost2010PropOp39
 70
     1
102
RTVSPost2010Prop40
 90
        0
102
RTVSPost2010PropOp40
 70
     1
102
RTVSPost2010Prop41ColorIndex
 90
       18
102
RTVSPost2010Prop41ColorRGB
 90
        0
102
RTVSPost2010PropOp41
 70
     1
102
RTVSPost2010Prop42
 90
       50
102
RTVSPost2010PropOp42
 70
     1
102
RTVSPost2010Prop43
 90
        3
102
RTVSPost2010PropOp43
 70
     1
102
RTVSPost2010Prop44ColorIndex
 90
        5
102
RTVSPost2010Prop44ColorRGB
 90
      255
102
RTVSPost2010PropOp44
 70
     1
102
RTVSPost2010Prop45
280
     0
102
RTVSPost2010PropOp45
 70
     1
102
RTVSPost2010Prop46
 90
       50
102
RTVSPost2010PropOp46
 70
     1
102
RTVSPost2010Prop47
 90
       50
102
RTVSPost2010PropOp47
 70
     1
102
RTVSPost2010Prop48
 90
       50
102
RTVSPost2010PropOp48
 70
     1
102
RTVSPost2010Prop49
280
     0
102
RTVSPost2010PropOp49
 70
     1
102
RTVSPost2010Prop50
 90
       50
102
RTVSPost2010PropOp50
 70
     1
102
RTVSPost2010Prop51ColorIndex
 90
      256
102
RTVSPost2010Prop51ColorRGB
 90
-16777216
102
RTVSPost2010PropOp51
 70
     0
102
RTVSPost2010Prop52
140
1.0
102
RTVSPost2010PropOp52
 70
     0
102
RTVSPost2010Prop53
 90
        2
102
RTVSPost2010PropOp53
 70
     1
102
RTVSPost2010Prop54
  1
strokes_ogs.tif
102
RTVSPost2010PropOp54
 70
     1
102
RTVSPost2010Prop55
280
     0
102
RTVSPost2010PropOp55
 70
     1
102
RTVSPost2010Prop56
140
1.0
102
RTVSPost2010PropOp56
 70
     1
102
RTVSPost2010Prop57
140
1.0
102
RTVSPost2010PropOp57
 70
     1
  0
XRECORD
  5
5E9
102
{ACAD_REACTORS
330
5E8
102
}
330
5E8
100
AcDbXrecord
280
     1
102
RTVSPropertyOp0
 70
     0
102
RTVSPropertyOp1
 70
     0
102
RTVSPropertyOp2
 70
     0
102
RTVSPropertyOp3
 70
     0
102
RTVSPropertyOp4
 70
     0
102
RTVSPropertyOp5
 70
     0
102
RTVSPropertyOp6
 70
     0
102
RTVSPropertyOp7
 70
     0
102
RTVSPropertyOp8
 70
     0
102
RTVSPropertyOp9
 70
     0
102
RTVSPropertyOp10
 70
     0
102
RTVSPropertyOp11
 70
     0
102
RTVSPropertyOp12
 70
     0
102
RTVSPropertyOp13
 70
     0
102
RTVSPropertyOp14
 70
     2
102
RTVSPropertyOp15
 70
     0
102
RTVSPropertyOp16
 70
     0
102
RTVSPropertyOp17
 70
     0
102
RTVSPropertyOp18
 70
     0
102
RTVSPropertyOp19
 70
     0
102
RTVSPropertyOp20
 70
     0
102
RTVSPropertyOp21
 70
     0
102
RTVSPropertyOp22
 70
     0
102
RTVSPropertyOp23
 70
     0
102
RTVSPropertyOp24
 70
     0
102
RTVSPropertyOp25
 70
     0
102
RTVSPropertyOp26
 70
     0
102
RTVSPropertyOp27
 70
     0
102
RTVSPropertyOp28
 70
     0
102
RTVSPropertyOp29
 70
     0
102
RTVSPropertyOp30
 70
     0
102
RTVSPropertyOp31
 70
     0
102
RTVSPropertyOp32
 70
     0
102
RTVSPropertyOp33
 70
     0
102
RTVSPropertyOp34
 70
     0
102
RTVSPropertyOp35
 70
     0
102
RTVSPropertyOp36
 70
     0
102
RTVSPropertyOp37
 70
     0
102
RTVSPropertyOp38
 70
     0
102
RTVSPropertyOp39
 70
     0
102
RTVSPropertyOp40
 70
     0
102
RTVSPropertyOp41
 70
     0
102
RTVSPropertyOp42
 70
     0
102
RTVSPropertyOp43
 70
     0
102
RTVSPropertyOp44
 70
     0
102
RTVSPropertyOp45
 70
     0
102
RTVSPropertyOp46
 70
     0
102
RTVSPropertyOp47
 70
     0
102
RTVSPropertyOp48
 70
     0
102
RTVSPropertyOp49
 70
     0
102
RTVSPropertyOp50
 70
     0
102
RTVSPropertyOp51
 70
     0
102
RTVSPropertyOp52
 70
     0
102
RTVSPropertyOp53
 70
     0
102
RTVSPropertyOp54
 70
     0
102
RTVSPropertyOp55
 70
     0
102
RTVSPropertyOp56
 70
     0
102
RTVSPropertyOp57
 70
     0
102
RTVSPost2010Prop28
280
     0
102
RTVSPost2010PropOp28
 70
     0
102
RTVSPost2010Prop29
280
     1
102
RTVSPost2010PropOp29
 70
     0
102
RTVSPost2010Prop30
280
     1
102
RTVSPost2010PropOp30
 70
     0
102
RTVSPost2010Prop31
280
     0
102
RTVSPost2010PropOp31
 70
     0
102
RTVSPost2010Prop32
280
     0
102
RTVSPost2010PropOp32
 70
     0
102
RTVSPost2010Prop33
280
     0
102
RTVSPost2010PropOp33
 70
     0
102
RTVSPost2010Prop34
280
     0
102
RTVSPost2010PropOp34
 70
     0
102
RTVSPost2010Prop35
280
     0
102
RTVSPost2010PropOp35
 70
     0
102
RTVSPost2010Prop36
280
     0
102
RTVSPost2010PropOp36
 70
     0
102
RTVSPost2010Prop37
 90
       50
102
RTVSPost2010PropOp37
 70
     0
102
RTVSPost2010Prop38
140
0.0
102
RTVSPost2010PropOp38
 70
     0
102
RTVSPost2010Prop39
140
1.0
102
RTVSPost2010PropOp39
 70
     0
102
RTVSPost2010Prop40
 90
        0
102
RTVSPost2010PropOp40
 70
     0
102
RTVSPost2010Prop41ColorIndex
 90
       18
102
RTVSPost2010Prop41ColorRGB
 90
        0
102
RTVSPost2010PropOp41
 70
     0
102
RTVSPost2010Prop42
 90
       50
102
RTVSPost2010PropOp42
 70
     0
102
RTVSPost2010Prop43
 90
        3
102
RTVSPost2010PropOp43
 70
     0
102
RTVSPost2010Prop44ColorIndex
 90
        5
102
RTVSPost2010Prop44ColorRGB
 90
      255
102
RTVSPost2010PropOp44
 70
     0
102
RTVSPost2010Prop45
280
     0
102
RTVSPost2010PropOp45
 70
     0
102
RTVSPost2010Prop46
 90
       50
102
RTVSPost2010PropOp46
 70
     0
102
RTVSPost2010Prop47
 90
       50
102
RTVSPost2010PropOp47
 70
     0
102
RTVSPost2010Prop48
 90
       50
102
RTVSPost2010PropOp48
 70
     0
102
RTVSPost2010Prop49
280
     0
102
RTVSPost2010PropOp49
 70
     0
102
RTVSPost2010Prop50
 90
       50
102
RTVSPost2010PropOp50
 70
     0
102
RTVSPost2010Prop51ColorIndex
 90
      256
102
RTVSPost2010Prop51ColorRGB
 90
-16777216
102
RTVSPost2010PropOp51
 70
     0
102
RTVSPost2010Prop52
140
1.0
102
RTVSPost2010PropOp52
 70
     0
102
RTVSPost2010Prop53
 90
        2
102
RTVSPost2010PropOp53
 70
     0
102
RTVSPost2010Prop54
  1
strokes_ogs.tif
102
RTVSPost2010PropOp54
 70
     0
102
RTVSPost2010Prop55
280
     0
102
RTVSPost2010PropOp55
 70
     0
102
RTVSPost2010Prop56
140
1.0
102
RTVSPost2010PropOp56
 70
     0
102
RTVSPost2010Prop57
140
1.0
102
RTVSPost2010PropOp57
 70
     0
  0
XRECORD
  5
5E3
102
{ACAD_REACTORS
330
5E2
102
}
330
5E2
100
AcDbXrecord
280
     1
102
RTVSPropertyOp0
 70
     1
102
RTVSPropertyOp1
 70
     1
102
RTVSPropertyOp2
 70
     1
102
RTVSPropertyOp3
 70
     1
102
RTVSPropertyOp4
 70
     1
102
RTVSPropertyOp5
 70
     1
102
RTVSPropertyOp6
 70
     1
102
RTVSPropertyOp7
 70
     1
102
RTVSPropertyOp8
 70
     1
102
RTVSPropertyOp9
 70
     1
102
RTVSPropertyOp10
 70
     1
102
RTVSPropertyOp11
 70
     1
102
RTVSPropertyOp12
 70
     1
102
RTVSPropertyOp13
 70
     1
102
RTVSPropertyOp14
 70
     1
102
RTVSPropertyOp15
 70
     1
102
RTVSPropertyOp16
 70
     1
102
RTVSPropertyOp17
 70
     1
102
RTVSPropertyOp18
 70
     1
102
RTVSPropertyOp19
 70
     1
102
RTVSPropertyOp20
 70
     1
102
RTVSPropertyOp21
 70
     1
102
RTVSPropertyOp22
 70
     1
102
RTVSPropertyOp23
 70
     1
102
RTVSPropertyOp24
 70
     1
102
RTVSPropertyOp25
 70
     1
102
RTVSPropertyOp26
 70
     1
102
RTVSPropertyOp27
 70
     1
102
RTVSPropertyOp28
 70
     1
102
RTVSPropertyOp29
 70
     1
102
RTVSPropertyOp30
 70
     1
102
RTVSPropertyOp31
 70
     1
102
RTVSPropertyOp32
 70
     1
102
RTVSPropertyOp33
 70
     1
102
RTVSPropertyOp34
 70
     1
102
RTVSPropertyOp35
 70
     1
102
RTVSPropertyOp36
 70
     1
102
RTVSPropertyOp37
 70
     1
102
RTVSPropertyOp38
 70
     1
102
RTVSPropertyOp39
 70
     1
102
RTVSPropertyOp40
 70
     1
102
RTVSPropertyOp41
 70
     1
102
RTVSPropertyOp42
 70
     1
102
RTVSPropertyOp43
 70
     1
102
RTVSPropertyOp44
 70
     1
102
RTVSPropertyOp45
 70
     1
102
RTVSPropertyOp46
 70
     1
102
RTVSPropertyOp47
 70
     1
102
RTVSPropertyOp48
 70
     1
102
RTVSPropertyOp49
 70
     1
102
RTVSPropertyOp50
 70
     1
102
RTVSPropertyOp51
 70
     0
102
RTVSPropertyOp52
 70
     0
102
RTVSPropertyOp53
 70
     1
102
RTVSPropertyOp54
 70
     1
102
RTVSPropertyOp55
 70
     1
102
RTVSPropertyOp56
 70
     1
102
RTVSPropertyOp57
 70
     1
102
RTVSPost2010Prop28
280
     0
102
RTVSPost2010PropOp28
 70
     1
102
RTVSPost2010Prop29
280
     1
102
RTVSPost2010PropOp29
 70
     1
102
RTVSPost2010Prop30
280
     1
102
RTVSPost2010PropOp30
 70
     1
102
RTVSPost2010Prop31
280
     0
102
RTVSPost2010PropOp31
 70
     1
102
RTVSPost2010Prop32
280
     0
102
RTVSPost2010PropOp32
 70
     1
102
RTVSPost2010Prop33
280
     0
102
RTVSPost2010PropOp33
 70
     1
102
RTVSPost2010Prop34
280
     0
102
RTVSPost2010PropOp34
 70
     1
102
RTVSPost2010Prop35
280
     0
102
RTVSPost2010PropOp35
 70
     1
102
RTVSPost2010Prop36
280
     0
102
RTVSPost2010PropOp36
 70
     1
102
RTVSPost2010Prop37
 90
       50
102
RTVSPost2010PropOp37
 70
     1
102
RTVSPost2010Prop38
140
0.0
102
RTVSPost2010PropOp38
 70
     1
102
RTVSPost2010Prop39
140
1.0
102
RTVSPost2010PropOp39
 70
     1
102
RTVSPost2010Prop40
 90
        0
102
RTVSPost2010PropOp40
 70
     1
102
RTVSPost2010Prop41ColorIndex
 90
       18
102
RTVSPost2010Prop41ColorRGB
 90
        0
102
RTVSPost2010PropOp41
 70
     1
102
RTVSPost2010Prop42
 90
       50
102
RTVSPost2010PropOp42
 70
     1
102
RTVSPost2010Prop43
 90
        3
102
RTVSPost2010PropOp43
 70
     1
102
RTVSPost2010Prop44ColorIndex
 90
        5
102
RTVSPost2010Prop44ColorRGB
 90
      255
102
RTVSPost2010PropOp44
 70
     1
102
RTVSPost2010Prop45
280
     0
102
RTVSPost2010PropOp45
 70
     1
102
RTVSPost2010Prop46
 90
       50
102
RTVSPost2010PropOp46
 70
     1
102
RTVSPost2010Prop47
 90
       50
102
RTVSPost2010PropOp47
 70
     1
102
RTVSPost2010Prop48
 90
       50
102
RTVSPost2010PropOp48
 70
     1
102
RTVSPost2010Prop49
280
     0
102
RTVSPost2010PropOp49
 70
     1
102
RTVSPost2010Prop50
 90
       50
102
RTVSPost2010PropOp50
 70
     1
102
RTVSPost2010Prop51ColorIndex
 90
      256
102
RTVSPost2010Prop51ColorRGB
 90
-16777216
102
RTVSPost2010PropOp51
 70
     0
102
RTVSPost2010Prop52
140
1.0
102
RTVSPost2010PropOp52
 70
     0
102
RTVSPost2010Prop53
 90
        2
102
RTVSPost2010PropOp53
 70
     1
102
RTVSPost2010Prop54
  1
strokes_ogs.tif
102
RTVSPost2010PropOp54
 70
     1
102
RTVSPost2010Prop55
280
     0
102
RTVSPost2010PropOp55
 70
     1
102
RTVSPost2010Prop56
140
1.0
102
RTVSPost2010PropOp56
 70
     1
102
RTVSPost2010Prop57
140
1.0
102
RTVSPost2010PropOp57
 70
     1
  0
XRECORD
  5
5EB
102
{ACAD_REACTORS
330
5EA
102
}
330
5EA
100
AcDbXrecord
280
     1
102
RTVSPropertyOp0
 70
     0
102
RTVSPropertyOp1
 70
     0
102
RTVSPropertyOp2
 70
     0
102
RTVSPropertyOp3
 70
     0
102
RTVSPropertyOp4
 70
     0
102
RTVSPropertyOp5
 70
     0
102
RTVSPropertyOp6
 70
     0
102
RTVSPropertyOp7
 70
     0
102
RTVSPropertyOp8
 70
     0
102
RTVSPropertyOp9
 70
     0
102
RTVSPropertyOp10
 70
     0
102
RTVSPropertyOp11
 70
     0
102
RTVSPropertyOp12
 70
     0
102
RTVSPropertyOp13
 70
     0
102
RTVSPropertyOp14
 70
     2
102
RTVSPropertyOp15
 70
     0
102
RTVSPropertyOp16
 70
     0
102
RTVSPropertyOp17
 70
     0
102
RTVSPropertyOp18
 70
     0
102
RTVSPropertyOp19
 70
     0
102
RTVSPropertyOp20
 70
     0
102
RTVSPropertyOp21
 70
     0
102
RTVSPropertyOp22
 70
     0
102
RTVSPropertyOp23
 70
     0
102
RTVSPropertyOp24
 70
     0
102
RTVSPropertyOp25
 70
     0
102
RTVSPropertyOp26
 70
     0
102
RTVSPropertyOp27
 70
     0
102
RTVSPropertyOp28
 70
     0
102
RTVSPropertyOp29
 70
     0
102
RTVSPropertyOp30
 70
     0
102
RTVSPropertyOp31
 70
     0
102
RTVSPropertyOp32
 70
     0
102
RTVSPropertyOp33
 70
     0
102
RTVSPropertyOp34
 70
     0
102
RTVSPropertyOp35
 70
     0
102
RTVSPropertyOp36
 70
     0
102
RTVSPropertyOp37
 70
     0
102
RTVSPropertyOp38
 70
     0
102
RTVSPropertyOp39
 70
     0
102
RTVSPropertyOp40
 70
     0
102
RTVSPropertyOp41
 70
     0
102
RTVSPropertyOp42
 70
     0
102
RTVSPropertyOp43
 70
     0
102
RTVSPropertyOp44
 70
     0
102
RTVSPropertyOp45
 70
     0
102
RTVSPropertyOp46
 70
     0
102
RTVSPropertyOp47
 70
     0
102
RTVSPropertyOp48
 70
     0
102
RTVSPropertyOp49
 70
     0
102
RTVSPropertyOp50
 70
     0
102
RTVSPropertyOp51
 70
     0
102
RTVSPropertyOp52
 70
     0
102
RTVSPropertyOp53
 70
     0
102
RTVSPropertyOp54
 70
     0
102
RTVSPropertyOp55
 70
     0
102
RTVSPropertyOp56
 70
     0
102
RTVSPropertyOp57
 70
     0
102
RTVSPost2010Prop28
280
     0
102
RTVSPost2010PropOp28
 70
     0
102
RTVSPost2010Prop29
280
     1
102
RTVSPost2010PropOp29
 70
     0
102
RTVSPost2010Prop30
280
     1
102
RTVSPost2010PropOp30
 70
     0
102
RTVSPost2010Prop31
280
     0
102
RTVSPost2010PropOp31
 70
     0
102
RTVSPost2010Prop32
280
     0
102
RTVSPost2010PropOp32
 70
     0
102
RTVSPost2010Prop33
280
     0
102
RTVSPost2010PropOp33
 70
     0
102
RTVSPost2010Prop34
280
     0
102
RTVSPost2010PropOp34
 70
     0
102
RTVSPost2010Prop35
280
     0
102
RTVSPost2010PropOp35
 70
     0
102
RTVSPost2010Prop36
280
     0
102
RTVSPost2010PropOp36
 70
     0
102
RTVSPost2010Prop37
 90
       50
102
RTVSPost2010PropOp37
 70
     0
102
RTVSPost2010Prop38
140
0.0
102
RTVSPost2010PropOp38
 70
     0
102
RTVSPost2010Prop39
140
1.0
102
RTVSPost2010PropOp39
 70
     0
102
RTVSPost2010Prop40
 90
        0
102
RTVSPost2010PropOp40
 70
     0
102
RTVSPost2010Prop41ColorIndex
 90
       18
102
RTVSPost2010Prop41ColorRGB
 90
        0
102
RTVSPost2010PropOp41
 70
     0
102
RTVSPost2010Prop42
 90
       50
102
RTVSPost2010PropOp42
 70
     0
102
RTVSPost2010Prop43
 90
        3
102
RTVSPost2010PropOp43
 70
     0
102
RTVSPost2010Prop44ColorIndex
 90
        5
102
RTVSPost2010Prop44ColorRGB
 90
      255
102
RTVSPost2010PropOp44
 70
     0
102
RTVSPost2010Prop45
280
     0
102
RTVSPost2010PropOp45
 70
     0
102
RTVSPost2010Prop46
 90
       50
102
RTVSPost2010PropOp46
 70
     0
102
RTVSPost2010Prop47
 90
       50
102
RTVSPost2010PropOp47
 70
     0
102
RTVSPost2010Prop48
 90
       50
102
RTVSPost2010PropOp48
 70
     0
102
RTVSPost2010Prop49
280
     0
102
RTVSPost2010PropOp49
 70
     0
102
RTVSPost2010Prop50
 90
       50
102
RTVSPost2010PropOp50
 70
     0
102
RTVSPost2010Prop51ColorIndex
 90
      256
102
RTVSPost2010Prop51ColorRGB
 90
-16777216
102
RTVSPost2010PropOp51
 70
     0
102
RTVSPost2010Prop52
140
1.0
102
RTVSPost2010PropOp52
 70
     0
102
RTVSPost2010Prop53
 90
        2
102
RTVSPost2010PropOp53
 70
     0
102
RTVSPost2010Prop54
  1
strokes_ogs.tif
102
RTVSPost2010PropOp54
 70
     0
102
RTVSPost2010Prop55
280
     0
102
RTVSPost2010PropOp55
 70
     0
102
RTVSPost2010Prop56
140
1.0
102
RTVSPost2010PropOp56
 70
     0
102
RTVSPost2010Prop57
140
1.0
102
RTVSPost2010PropOp57
 70
     0
  0
XRECORD
  5
5D9
102
{ACAD_REACTORS
330
5D8
102
}
330
5D8
100
AcDbXrecord
280
     1
102
RTVSPropertyOp0
 70
     1
102
RTVSPropertyOp1
 70
     1
102
RTVSPropertyOp2
 70
     1
102
RTVSPropertyOp3
 70
     1
102
RTVSPropertyOp4
 70
     1
102
RTVSPropertyOp5
 70
     1
102
RTVSPropertyOp6
 70
     1
102
RTVSPropertyOp7
 70
     1
102
RTVSPropertyOp8
 70
     1
102
RTVSPropertyOp9
 70
     1
102
RTVSPropertyOp10
 70
     1
102
RTVSPropertyOp11
 70
     1
102
RTVSPropertyOp12
 70
     1
102
RTVSPropertyOp13
 70
     1
102
RTVSPropertyOp14
 70
     1
102
RTVSPropertyOp15
 70
     1
102
RTVSPropertyOp16
 70
     1
102
RTVSPropertyOp17
 70
     1
102
RTVSPropertyOp18
 70
     1
102
RTVSPropertyOp19
 70
     1
102
RTVSPropertyOp20
 70
     1
102
RTVSPropertyOp21
 70
     1
102
RTVSPropertyOp22
 70
     1
102
RTVSPropertyOp23
 70
     1
102
RTVSPropertyOp24
 70
     1
102
RTVSPropertyOp25
 70
     1
102
RTVSPropertyOp26
 70
     1
102
RTVSPropertyOp27
 70
     1
102
RTVSPropertyOp28
 70
     1
102
RTVSPropertyOp29
 70
     1
102
RTVSPropertyOp30
 70
     1
102
RTVSPropertyOp31
 70
     1
102
RTVSPropertyOp32
 70
     1
102
RTVSPropertyOp33
 70
     1
102
RTVSPropertyOp34
 70
     1
102
RTVSPropertyOp35
 70
     1
102
RTVSPropertyOp36
 70
     1
102
RTVSPropertyOp37
 70
     1
102
RTVSPropertyOp38
 70
     1
102
RTVSPropertyOp39
 70
     1
102
RTVSPropertyOp40
 70
     1
102
RTVSPropertyOp41
 70
     1
102
RTVSPropertyOp42
 70
     1
102
RTVSPropertyOp43
 70
     1
102
RTVSPropertyOp44
 70
     1
102
RTVSPropertyOp45
 70
     1
102
RTVSPropertyOp46
 70
     1
102
RTVSPropertyOp47
 70
     1
102
RTVSPropertyOp48
 70
     1
102
RTVSPropertyOp49
 70
     1
102
RTVSPropertyOp50
 70
     1
102
RTVSPropertyOp51
 70
     0
102
RTVSPropertyOp52
 70
     0
102
RTVSPropertyOp53
 70
     1
102
RTVSPropertyOp54
 70
     1
102
RTVSPropertyOp55
 70
     1
102
RTVSPropertyOp56
 70
     1
102
RTVSPropertyOp57
 70
     1
102
RTVSPost2010Prop28
280
     0
102
RTVSPost2010PropOp28
 70
     1
102
RTVSPost2010Prop29
280
     1
102
RTVSPost2010PropOp29
 70
     1
102
RTVSPost2010Prop30
280
     1
102
RTVSPost2010PropOp30
 70
     1
102
RTVSPost2010Prop31
280
     0
102
RTVSPost2010PropOp31
 70
     1
102
RTVSPost2010Prop32
280
     0
102
RTVSPost2010PropOp32
 70
     1
102
RTVSPost2010Prop33
280
     0
102
RTVSPost2010PropOp33
 70
     1
102
RTVSPost2010Prop34
280
     0
102
RTVSPost2010PropOp34
 70
     1
102
RTVSPost2010Prop35
280
     0
102
RTVSPost2010PropOp35
 70
     1
102
RTVSPost2010Prop36
280
     0
102
RTVSPost2010PropOp36
 70
     1
102
RTVSPost2010Prop37
 90
       50
102
RTVSPost2010PropOp37
 70
     1
102
RTVSPost2010Prop38
140
0.0
102
RTVSPost2010PropOp38
 70
     1
102
RTVSPost2010Prop39
140
1.0
102
RTVSPost2010PropOp39
 70
     1
102
RTVSPost2010Prop40
 90
        0
102
RTVSPost2010PropOp40
 70
     1
102
RTVSPost2010Prop41ColorIndex
 90
       18
102
RTVSPost2010Prop41ColorRGB
 90
        0
102
RTVSPost2010PropOp41
 70
     1
102
RTVSPost2010Prop42
 90
       50
102
RTVSPost2010PropOp42
 70
     1
102
RTVSPost2010Prop43
 90
        3
102
RTVSPost2010PropOp43
 70
     1
102
RTVSPost2010Prop44ColorIndex
 90
        5
102
RTVSPost2010Prop44ColorRGB
 90
      255
102
RTVSPost2010PropOp44
 70
     1
102
RTVSPost2010Prop45
280
     0
102
RTVSPost2010PropOp45
 70
     1
102
RTVSPost2010Prop46
 90
       50
102
RTVSPost2010PropOp46
 70
     1
102
RTVSPost2010Prop47
 90
       50
102
RTVSPost2010PropOp47
 70
     1
102
RTVSPost2010Prop48
 90
       50
102
RTVSPost2010PropOp48
 70
     1
102
RTVSPost2010Prop49
280
     0
102
RTVSPost2010PropOp49
 70
     1
102
RTVSPost2010Prop50
 90
       50
102
RTVSPost2010PropOp50
 70
     1
102
RTVSPost2010Prop51ColorIndex
 90
      256
102
RTVSPost2010Prop51ColorRGB
 90
-16777216
102
RTVSPost2010PropOp51
 70
     0
102
RTVSPost2010Prop52
140
1.0
102
RTVSPost2010PropOp52
 70
     0
102
RTVSPost2010Prop53
 90
        2
102
RTVSPost2010PropOp53
 70
     1
102
RTVSPost2010Prop54
  1
strokes_ogs.tif
102
RTVSPost2010PropOp54
 70
     1
102
RTVSPost2010Prop55
280
     0
102
RTVSPost2010PropOp55
 70
     1
102
RTVSPost2010Prop56
140
1.0
102
RTVSPost2010PropOp56
 70
     1
102
RTVSPost2010Prop57
140
1.0
102
RTVSPost2010PropOp57
 70
     1
  0
XRECORD
  5
5F7
102
{ACAD_REACTORS
330
5F6
102
}
330
5F6
100
AcDbXrecord
280
     1
102
RTVSPropertyOp0
 70
     1
102
RTVSPropertyOp1
 70
     1
102
RTVSPropertyOp2
 70
     1
102
RTVSPropertyOp3
 70
     1
102
RTVSPropertyOp4
 70
     1
102
RTVSPropertyOp5
 70
     1
102
RTVSPropertyOp6
 70
     1
102
RTVSPropertyOp7
 70
     1
102
RTVSPropertyOp8
 70
     1
102
RTVSPropertyOp9
 70
     1
102
RTVSPropertyOp10
 70
     1
102
RTVSPropertyOp11
 70
     1
102
RTVSPropertyOp12
 70
     1
102
RTVSPropertyOp13
 70
     1
102
RTVSPropertyOp14
 70
     1
102
RTVSPropertyOp15
 70
     1
102
RTVSPropertyOp16
 70
     1
102
RTVSPropertyOp17
 70
     1
102
RTVSPropertyOp18
 70
     1
102
RTVSPropertyOp19
 70
     1
102
RTVSPropertyOp20
 70
     1
102
RTVSPropertyOp21
 70
     1
102
RTVSPropertyOp22
 70
     1
102
RTVSPropertyOp23
 70
     1
102
RTVSPropertyOp24
 70
     1
102
RTVSPropertyOp25
 70
     1
102
RTVSPropertyOp26
 70
     1
102
RTVSPropertyOp27
 70
     1
102
RTVSPropertyOp28
 70
     1
102
RTVSPropertyOp29
 70
     1
102
RTVSPropertyOp30
 70
     1
102
RTVSPropertyOp31
 70
     1
102
RTVSPropertyOp32
 70
     1
102
RTVSPropertyOp33
 70
     1
102
RTVSPropertyOp34
 70
     1
102
RTVSPropertyOp35
 70
     1
102
RTVSPropertyOp36
 70
     1
102
RTVSPropertyOp37
 70
     1
102
RTVSPropertyOp38
 70
     1
102
RTVSPropertyOp39
 70
     1
102
RTVSPropertyOp40
 70
     1
102
RTVSPropertyOp41
 70
     1
102
RTVSPropertyOp42
 70
     1
102
RTVSPropertyOp43
 70
     1
102
RTVSPropertyOp44
 70
     1
102
RTVSPropertyOp45
 70
     1
102
RTVSPropertyOp46
 70
     1
102
RTVSPropertyOp47
 70
     1
102
RTVSPropertyOp48
 70
     1
102
RTVSPropertyOp49
 70
     1
102
RTVSPropertyOp50
 70
     1
102
RTVSPropertyOp51
 70
     0
102
RTVSPropertyOp52
 70
     0
102
RTVSPropertyOp53
 70
     1
102
RTVSPropertyOp54
 70
     1
102
RTVSPropertyOp55
 70
     1
102
RTVSPropertyOp56
 70
     1
102
RTVSPropertyOp57
 70
     1
102
RTVSPost2010Prop28
280
     0
102
RTVSPost2010PropOp28
 70
     1
102
RTVSPost2010Prop29
280
     1
102
RTVSPost2010PropOp29
 70
     1
102
RTVSPost2010Prop30
280
     1
102
RTVSPost2010PropOp30
 70
     1
102
RTVSPost2010Prop31
280
     0
102
RTVSPost2010PropOp31
 70
     1
102
RTVSPost2010Prop32
280
     0
102
RTVSPost2010PropOp32
 70
     1
102
RTVSPost2010Prop33
280
     0
102
RTVSPost2010PropOp33
 70
     1
102
RTVSPost2010Prop34
280
     0
102
RTVSPost2010PropOp34
 70
     1
102
RTVSPost2010Prop35
280
     0
102
RTVSPost2010PropOp35
 70
     1
102
RTVSPost2010Prop36
280
     0
102
RTVSPost2010PropOp36
 70
     1
102
RTVSPost2010Prop37
 90
       50
102
RTVSPost2010PropOp37
 70
     1
102
RTVSPost2010Prop38
140
0.0
102
RTVSPost2010PropOp38
 70
     1
102
RTVSPost2010Prop39
140
1.0
102
RTVSPost2010PropOp39
 70
     1
102
RTVSPost2010Prop40
 90
        0
102
RTVSPost2010PropOp40
 70
     1
102
RTVSPost2010Prop41ColorIndex
 90
       18
102
RTVSPost2010Prop41ColorRGB
 90
        0
102
RTVSPost2010PropOp41
 70
     1
102
RTVSPost2010Prop42
 90
       50
102
RTVSPost2010PropOp42
 70
     1
102
RTVSPost2010Prop43
 90
        3
102
RTVSPost2010PropOp43
 70
     1
102
RTVSPost2010Prop44ColorIndex
 90
        5
102
RTVSPost2010Prop44ColorRGB
 90
      255
102
RTVSPost2010PropOp44
 70
     1
102
RTVSPost2010Prop45
280
     0
102
RTVSPost2010PropOp45
 70
     1
102
RTVSPost2010Prop46
 90
       50
102
RTVSPost2010PropOp46
 70
     1
102
RTVSPost2010Prop47
 90
       50
102
RTVSPost2010PropOp47
 70
     1
102
RTVSPost2010Prop48
 90
       50
102
RTVSPost2010PropOp48
 70
     1
102
RTVSPost2010Prop49
280
     0
102
RTVSPost2010PropOp49
 70
     1
102
RTVSPost2010Prop50
 90
       50
102
RTVSPost2010PropOp50
 70
     1
102
RTVSPost2010Prop51ColorIndex
 90
      256
102
RTVSPost2010Prop51ColorRGB
 90
-16777216
102
RTVSPost2010PropOp51
 70
     0
102
RTVSPost2010Prop52
140
1.0
102
RTVSPost2010PropOp52
 70
     0
102
RTVSPost2010Prop53
 90
        2
102
RTVSPost2010PropOp53
 70
     1
102
RTVSPost2010Prop54
  1
strokes_ogs.tif
102
RTVSPost2010PropOp54
 70
     1
102
RTVSPost2010Prop55
280
     0
102
RTVSPost2010PropOp55
 70
     1
102
RTVSPost2010Prop56
140
1.0
102
RTVSPost2010PropOp56
 70
     1
102
RTVSPost2010Prop57
140
1.0
102
RTVSPost2010PropOp57
 70
     1
  0
XRECORD
  5
5F5
102
{ACAD_REACTORS
330
5F4
102
}
330
5F4
100
AcDbXrecord
280
     1
102
RTVSPropertyOp0
 70
     1
102
RTVSPropertyOp1
 70
     1
102
RTVSPropertyOp2
 70
     1
102
RTVSPropertyOp3
 70
     1
102
RTVSPropertyOp4
 70
     1
102
RTVSPropertyOp5
 70
     1
102
RTVSPropertyOp6
 70
     1
102
RTVSPropertyOp7
 70
     1
102
RTVSPropertyOp8
 70
     1
102
RTVSPropertyOp9
 70
     1
102
RTVSPropertyOp10
 70
     1
102
RTVSPropertyOp11
 70
     1
102
RTVSPropertyOp12
 70
     1
102
RTVSPropertyOp13
 70
     1
102
RTVSPropertyOp14
 70
     1
102
RTVSPropertyOp15
 70
     1
102
RTVSPropertyOp16
 70
     1
102
RTVSPropertyOp17
 70
     1
102
RTVSPropertyOp18
 70
     1
102
RTVSPropertyOp19
 70
     1
102
RTVSPropertyOp20
 70
     1
102
RTVSPropertyOp21
 70
     1
102
RTVSPropertyOp22
 70
     1
102
RTVSPropertyOp23
 70
     1
102
RTVSPropertyOp24
 70
     1
102
RTVSPropertyOp25
 70
     1
102
RTVSPropertyOp26
 70
     1
102
RTVSPropertyOp27
 70
     1
102
RTVSPropertyOp28
 70
     1
102
RTVSPropertyOp29
 70
     1
102
RTVSPropertyOp30
 70
     1
102
RTVSPropertyOp31
 70
     1
102
RTVSPropertyOp32
 70
     1
102
RTVSPropertyOp33
 70
     1
102
RTVSPropertyOp34
 70
     1
102
RTVSPropertyOp35
 70
     1
102
RTVSPropertyOp36
 70
     1
102
RTVSPropertyOp37
 70
     1
102
RTVSPropertyOp38
 70
     1
102
RTVSPropertyOp39
 70
     1
102
RTVSPropertyOp40
 70
     1
102
RTVSPropertyOp41
 70
     1
102
RTVSPropertyOp42
 70
     1
102
RTVSPropertyOp43
 70
     1
102
RTVSPropertyOp44
 70
     1
102
RTVSPropertyOp45
 70
     1
102
RTVSPropertyOp46
 70
     1
102
RTVSPropertyOp47
 70
     1
102
RTVSPropertyOp48
 70
     1
102
RTVSPropertyOp49
 70
     1
102
RTVSPropertyOp50
 70
     1
102
RTVSPropertyOp51
 70
     0
102
RTVSPropertyOp52
 70
     0
102
RTVSPropertyOp53
 70
     1
102
RTVSPropertyOp54
 70
     1
102
RTVSPropertyOp55
 70
     1
102
RTVSPropertyOp56
 70
     1
102
RTVSPropertyOp57
 70
     1
102
RTVSPost2010Prop28
280
     0
102
RTVSPost2010PropOp28
 70
     1
102
RTVSPost2010Prop29
280
     1
102
RTVSPost2010PropOp29
 70
     1
102
RTVSPost2010Prop30
280
     1
102
RTVSPost2010PropOp30
 70
     1
102
RTVSPost2010Prop31
280
     0
102
RTVSPost2010PropOp31
 70
     1
102
RTVSPost2010Prop32
280
     0
102
RTVSPost2010PropOp32
 70
     1
102
RTVSPost2010Prop33
280
     0
102
RTVSPost2010PropOp33
 70
     1
102
RTVSPost2010Prop34
280
     0
102
RTVSPost2010PropOp34
 70
     1
102
RTVSPost2010Prop35
280
     0
102
RTVSPost2010PropOp35
 70
     1
102
RTVSPost2010Prop36
280
     0
102
RTVSPost2010PropOp36
 70
     1
102
RTVSPost2010Prop37
 90
       50
102
RTVSPost2010PropOp37
 70
     1
102
RTVSPost2010Prop38
140
0.0
102
RTVSPost2010PropOp38
 70
     1
102
RTVSPost2010Prop39
140
1.0
102
RTVSPost2010PropOp39
 70
     1
102
RTVSPost2010Prop40
 90
        0
102
RTVSPost2010PropOp40
 70
     1
102
RTVSPost2010Prop41ColorIndex
 90
       18
102
RTVSPost2010Prop41ColorRGB
 90
        0
102
RTVSPost2010PropOp41
 70
     1
102
RTVSPost2010Prop42
 90
       50
102
RTVSPost2010PropOp42
 70
     1
102
RTVSPost2010Prop43
 90
        3
102
RTVSPost2010PropOp43
 70
     1
102
RTVSPost2010Prop44ColorIndex
 90
        5
102
RTVSPost2010Prop44ColorRGB
 90
      255
102
RTVSPost2010PropOp44
 70
     1
102
RTVSPost2010Prop45
280
     0
102
RTVSPost2010PropOp45
 70
     1
102
RTVSPost2010Prop46
 90
       50
102
RTVSPost2010PropOp46
 70
     1
102
RTVSPost2010Prop47
 90
       50
102
RTVSPost2010PropOp47
 70
     1
102
RTVSPost2010Prop48
 90
       50
102
RTVSPost2010PropOp48
 70
     1
102
RTVSPost2010Prop49
280
     0
102
RTVSPost2010PropOp49
 70
     1
102
RTVSPost2010Prop50
 90
       50
102
RTVSPost2010PropOp50
 70
     1
102
RTVSPost2010Prop51ColorIndex
 90
      256
102
RTVSPost2010Prop51ColorRGB
 90
-16777216
102
RTVSPost2010PropOp51
 70
     0
102
RTVSPost2010Prop52
140
1.0
102
RTVSPost2010PropOp52
 70
     0
102
RTVSPost2010Prop53
 90
        2
102
RTVSPost2010PropOp53
 70
     1
102
RTVSPost2010Prop54
  1
strokes_ogs.tif
102
RTVSPost2010PropOp54
 70
     1
102
RTVSPost2010Prop55
280
     0
102
RTVSPost2010PropOp55
 70
     1
102
RTVSPost2010Prop56
140
1.0
102
RTVSPost2010PropOp56
 70
     1
102
RTVSPost2010Prop57
140
1.0
102
RTVSPost2010PropOp57
 70
     1
  0
XRECORD
  5
5EF
102
{ACAD_REACTORS
330
5EE
102
}
330
5EE
100
AcDbXrecord
280
     1
102
RTVSPropertyOp0
 70
     1
102
RTVSPropertyOp1
 70
     1
102
RTVSPropertyOp2
 70
     1
102
RTVSPropertyOp3
 70
     1
102
RTVSPropertyOp4
 70
     1
102
RTVSPropertyOp5
 70
     1
102
RTVSPropertyOp6
 70
     1
102
RTVSPropertyOp7
 70
     1
102
RTVSPropertyOp8
 70
     1
102
RTVSPropertyOp9
 70
     1
102
RTVSPropertyOp10
 70
     1
102
RTVSPropertyOp11
 70
     1
102
RTVSPropertyOp12
 70
     1
102
RTVSPropertyOp13
 70
     1
102
RTVSPropertyOp14
 70
     1
102
RTVSPropertyOp15
 70
     1
102
RTVSPropertyOp16
 70
     1
102
RTVSPropertyOp17
 70
     1
102
RTVSPropertyOp18
 70
     1
102
RTVSPropertyOp19
 70
     1
102
RTVSPropertyOp20
 70
     1
102
RTVSPropertyOp21
 70
     1
102
RTVSPropertyOp22
 70
     1
102
RTVSPropertyOp23
 70
     1
102
RTVSPropertyOp24
 70
     1
102
RTVSPropertyOp25
 70
     1
102
RTVSPropertyOp26
 70
     1
102
RTVSPropertyOp27
 70
     1
102
RTVSPropertyOp28
 70
     1
102
RTVSPropertyOp29
 70
     1
102
RTVSPropertyOp30
 70
     1
102
RTVSPropertyOp31
 70
     1
102
RTVSPropertyOp32
 70
     1
102
RTVSPropertyOp33
 70
     1
102
RTVSPropertyOp34
 70
     1
102
RTVSPropertyOp35
 70
     1
102
RTVSPropertyOp36
 70
     1
102
RTVSPropertyOp37
 70
     1
102
RTVSPropertyOp38
 70
     1
102
RTVSPropertyOp39
 70
     1
102
RTVSPropertyOp40
 70
     1
102
RTVSPropertyOp41
 70
     1
102
RTVSPropertyOp42
 70
     1
102
RTVSPropertyOp43
 70
     1
102
RTVSPropertyOp44
 70
     1
102
RTVSPropertyOp45
 70
     1
102
RTVSPropertyOp46
 70
     1
102
RTVSPropertyOp47
 70
     1
102
RTVSPropertyOp48
 70
     1
102
RTVSPropertyOp49
 70
     1
102
RTVSPropertyOp50
 70
     1
102
RTVSPropertyOp51
 70
     0
102
RTVSPropertyOp52
 70
     0
102
RTVSPropertyOp53
 70
     1
102
RTVSPropertyOp54
 70
     1
102
RTVSPropertyOp55
 70
     1
102
RTVSPropertyOp56
 70
     1
102
RTVSPropertyOp57
 70
     1
102
RTVSPost2010Prop28
280
     0
102
RTVSPost2010PropOp28
 70
     1
102
RTVSPost2010Prop29
280
     1
102
RTVSPost2010PropOp29
 70
     1
102
RTVSPost2010Prop30
280
     1
102
RTVSPost2010PropOp30
 70
     1
102
RTVSPost2010Prop31
280
     0
102
RTVSPost2010PropOp31
 70
     1
102
RTVSPost2010Prop32
280
     0
102
RTVSPost2010PropOp32
 70
     1
102
RTVSPost2010Prop33
280
     0
102
RTVSPost2010PropOp33
 70
     1
102
RTVSPost2010Prop34
280
     0
102
RTVSPost2010PropOp34
 70
     1
102
RTVSPost2010Prop35
280
     0
102
RTVSPost2010PropOp35
 70
     1
102
RTVSPost2010Prop36
280
     0
102
RTVSPost2010PropOp36
 70
     1
102
RTVSPost2010Prop37
 90
       50
102
RTVSPost2010PropOp37
 70
     1
102
RTVSPost2010Prop38
140
0.0
102
RTVSPost2010PropOp38
 70
     1
102
RTVSPost2010Prop39
140
1.0
102
RTVSPost2010PropOp39
 70
     1
102
RTVSPost2010Prop40
 90
        0
102
RTVSPost2010PropOp40
 70
     1
102
RTVSPost2010Prop41ColorIndex
 90
       18
102
RTVSPost2010Prop41ColorRGB
 90
        0
102
RTVSPost2010PropOp41
 70
     1
102
RTVSPost2010Prop42
 90
       50
102
RTVSPost2010PropOp42
 70
     1
102
RTVSPost2010Prop43
 90
        3
102
RTVSPost2010PropOp43
 70
     1
102
RTVSPost2010Prop44ColorIndex
 90
        5
102
RTVSPost2010Prop44ColorRGB
 90
      255
102
RTVSPost2010PropOp44
 70
     1
102
RTVSPost2010Prop45
280
     0
102
RTVSPost2010PropOp45
 70
     1
102
RTVSPost2010Prop46
 90
       50
102
RTVSPost2010PropOp46
 70
     1
102
RTVSPost2010Prop47
 90
       50
102
RTVSPost2010PropOp47
 70
     1
102
RTVSPost2010Prop48
 90
       50
102
RTVSPost2010PropOp48
 70
     1
102
RTVSPost2010Prop49
280
     0
102
RTVSPost2010PropOp49
 70
     1
102
RTVSPost2010Prop50
 90
       50
102
RTVSPost2010PropOp50
 70
     1
102
RTVSPost2010Prop51ColorIndex
 90
      256
102
RTVSPost2010Prop51ColorRGB
 90
-16777216
102
RTVSPost2010PropOp51
 70
     0
102
RTVSPost2010Prop52
140
1.0
102
RTVSPost2010PropOp52
 70
     0
102
RTVSPost2010Prop53
 90
        2
102
RTVSPost2010PropOp53
 70
     1
102
RTVSPost2010Prop54
  1
strokes_ogs.tif
102
RTVSPost2010PropOp54
 70
     1
102
RTVSPost2010Prop55
280
     0
102
RTVSPost2010PropOp55
 70
     1
102
RTVSPost2010Prop56
140
1.0
102
RTVSPost2010PropOp56
 70
     1
102
RTVSPost2010Prop57
140
1.0
102
RTVSPost2010PropOp57
 70
     1
  0
XRECORD
  5
5F1
102
{ACAD_REACTORS
330
5F0
102
}
330
5F0
100
AcDbXrecord
280
     1
102
RTVSPropertyOp0
 70
     1
102
RTVSPropertyOp1
 70
     1
102
RTVSPropertyOp2
 70
     1
102
RTVSPropertyOp3
 70
     1
102
RTVSPropertyOp4
 70
     1
102
RTVSPropertyOp5
 70
     1
102
RTVSPropertyOp6
 70
     1
102
RTVSPropertyOp7
 70
     1
102
RTVSPropertyOp8
 70
     1
102
RTVSPropertyOp9
 70
     1
102
RTVSPropertyOp10
 70
     1
102
RTVSPropertyOp11
 70
     1
102
RTVSPropertyOp12
 70
     1
102
RTVSPropertyOp13
 70
     1
102
RTVSPropertyOp14
 70
     1
102
RTVSPropertyOp15
 70
     1
102
RTVSPropertyOp16
 70
     1
102
RTVSPropertyOp17
 70
     1
102
RTVSPropertyOp18
 70
     1
102
RTVSPropertyOp19
 70
     1
102
RTVSPropertyOp20
 70
     1
102
RTVSPropertyOp21
 70
     1
102
RTVSPropertyOp22
 70
     1
102
RTVSPropertyOp23
 70
     1
102
RTVSPropertyOp24
 70
     1
102
RTVSPropertyOp25
 70
     1
102
RTVSPropertyOp26
 70
     1
102
RTVSPropertyOp27
 70
     1
102
RTVSPropertyOp28
 70
     1
102
RTVSPropertyOp29
 70
     1
102
RTVSPropertyOp30
 70
     1
102
RTVSPropertyOp31
 70
     1
102
RTVSPropertyOp32
 70
     1
102
RTVSPropertyOp33
 70
     1
102
RTVSPropertyOp34
 70
     1
102
RTVSPropertyOp35
 70
     1
102
RTVSPropertyOp36
 70
     1
102
RTVSPropertyOp37
 70
     1
102
RTVSPropertyOp38
 70
     1
102
RTVSPropertyOp39
 70
     1
102
RTVSPropertyOp40
 70
     1
102
RTVSPropertyOp41
 70
     1
102
RTVSPropertyOp42
 70
     1
102
RTVSPropertyOp43
 70
     1
102
RTVSPropertyOp44
 70
     1
102
RTVSPropertyOp45
 70
     1
102
RTVSPropertyOp46
 70
     1
102
RTVSPropertyOp47
 70
     1
102
RTVSPropertyOp48
 70
     1
102
RTVSPropertyOp49
 70
     1
102
RTVSPropertyOp50
 70
     1
102
RTVSPropertyOp51
 70
     0
102
RTVSPropertyOp52
 70
     0
102
RTVSPropertyOp53
 70
     1
102
RTVSPropertyOp54
 70
     1
102
RTVSPropertyOp55
 70
     1
102
RTVSPropertyOp56
 70
     1
102
RTVSPropertyOp57
 70
     1
102
RTVSPost2010Prop28
280
     0
102
RTVSPost2010PropOp28
 70
     1
102
RTVSPost2010Prop29
280
     1
102
RTVSPost2010PropOp29
 70
     1
102
RTVSPost2010Prop30
280
     1
102
RTVSPost2010PropOp30
 70
     1
102
RTVSPost2010Prop31
280
     0
102
RTVSPost2010PropOp31
 70
     1
102
RTVSPost2010Prop32
280
     0
102
RTVSPost2010PropOp32
 70
     1
102
RTVSPost2010Prop33
280
     0
102
RTVSPost2010PropOp33
 70
     1
102
RTVSPost2010Prop34
280
     0
102
RTVSPost2010PropOp34
 70
     1
102
RTVSPost2010Prop35
280
     0
102
RTVSPost2010PropOp35
 70
     1
102
RTVSPost2010Prop36
280
     0
102
RTVSPost2010PropOp36
 70
     1
102
RTVSPost2010Prop37
 90
       50
102
RTVSPost2010PropOp37
 70
     1
102
RTVSPost2010Prop38
140
0.0
102
RTVSPost2010PropOp38
 70
     1
102
RTVSPost2010Prop39
140
1.0
102
RTVSPost2010PropOp39
 70
     1
102
RTVSPost2010Prop40
 90
        0
102
RTVSPost2010PropOp40
 70
     1
102
RTVSPost2010Prop41ColorIndex
 90
       18
102
RTVSPost2010Prop41ColorRGB
 90
        0
102
RTVSPost2010PropOp41
 70
     1
102
RTVSPost2010Prop42
 90
       50
102
RTVSPost2010PropOp42
 70
     1
102
RTVSPost2010Prop43
 90
        3
102
RTVSPost2010PropOp43
 70
     1
102
RTVSPost2010Prop44ColorIndex
 90
        5
102
RTVSPost2010Prop44ColorRGB
 90
      255
102
RTVSPost2010PropOp44
 70
     1
102
RTVSPost2010Prop45
280
     0
102
RTVSPost2010PropOp45
 70
     1
102
RTVSPost2010Prop46
 90
       50
102
RTVSPost2010PropOp46
 70
     1
102
RTVSPost2010Prop47
 90
       50
102
RTVSPost2010PropOp47
 70
     1
102
RTVSPost2010Prop48
 90
       50
102
RTVSPost2010PropOp48
 70
     1
102
RTVSPost2010Prop49
280
     0
102
RTVSPost2010PropOp49
 70
     1
102
RTVSPost2010Prop50
 90
       50
102
RTVSPost2010PropOp50
 70
     1
102
RTVSPost2010Prop51ColorIndex
 90
      256
102
RTVSPost2010Prop51ColorRGB
 90
-16777216
102
RTVSPost2010PropOp51
 70
     0
102
RTVSPost2010Prop52
140
1.0
102
RTVSPost2010PropOp52
 70
     0
102
RTVSPost2010Prop53
 90
        2
102
RTVSPost2010PropOp53
 70
     1
102
RTVSPost2010Prop54
  1
strokes_ogs.tif
102
RTVSPost2010PropOp54
 70
     1
102
RTVSPost2010Prop55
280
     0
102
RTVSPost2010PropOp55
 70
     1
102
RTVSPost2010Prop56
140
1.0
102
RTVSPost2010PropOp56
 70
     1
102
RTVSPost2010Prop57
140
1.0
102
RTVSPost2010PropOp57
 70
     1
  0
XRECORD
  5
5E1
102
{ACAD_REACTORS
330
5E0
102
}
330
5E0
100
AcDbXrecord
280
     1
102
RTVSPropertyOp0
 70
     1
102
RTVSPropertyOp1
 70
     1
102
RTVSPropertyOp2
 70
     1
102
RTVSPropertyOp3
 70
     1
102
RTVSPropertyOp4
 70
     1
102
RTVSPropertyOp5
 70
     1
102
RTVSPropertyOp6
 70
     1
102
RTVSPropertyOp7
 70
     1
102
RTVSPropertyOp8
 70
     1
102
RTVSPropertyOp9
 70
     1
102
RTVSPropertyOp10
 70
     1
102
RTVSPropertyOp11
 70
     1
102
RTVSPropertyOp12
 70
     1
102
RTVSPropertyOp13
 70
     1
102
RTVSPropertyOp14
 70
     1
102
RTVSPropertyOp15
 70
     1
102
RTVSPropertyOp16
 70
     1
102
RTVSPropertyOp17
 70
     1
102
RTVSPropertyOp18
 70
     1
102
RTVSPropertyOp19
 70
     1
102
RTVSPropertyOp20
 70
     1
102
RTVSPropertyOp21
 70
     1
102
RTVSPropertyOp22
 70
     1
102
RTVSPropertyOp23
 70
     1
102
RTVSPropertyOp24
 70
     1
102
RTVSPropertyOp25
 70
     1
102
RTVSPropertyOp26
 70
     1
102
RTVSPropertyOp27
 70
     1
102
RTVSPropertyOp28
 70
     1
102
RTVSPropertyOp29
 70
     1
102
RTVSPropertyOp30
 70
     1
102
RTVSPropertyOp31
 70
     1
102
RTVSPropertyOp32
 70
     1
102
RTVSPropertyOp33
 70
     1
102
RTVSPropertyOp34
 70
     1
102
RTVSPropertyOp35
 70
     1
102
RTVSPropertyOp36
 70
     1
102
RTVSPropertyOp37
 70
     1
102
RTVSPropertyOp38
 70
     1
102
RTVSPropertyOp39
 70
     1
102
RTVSPropertyOp40
 70
     1
102
RTVSPropertyOp41
 70
     1
102
RTVSPropertyOp42
 70
     1
102
RTVSPropertyOp43
 70
     1
102
RTVSPropertyOp44
 70
     1
102
RTVSPropertyOp45
 70
     1
102
RTVSPropertyOp46
 70
     1
102
RTVSPropertyOp47
 70
     1
102
RTVSPropertyOp48
 70
     1
102
RTVSPropertyOp49
 70
     1
102
RTVSPropertyOp50
 70
     1
102
RTVSPropertyOp51
 70
     0
102
RTVSPropertyOp52
 70
     0
102
RTVSPropertyOp53
 70
     1
102
RTVSPropertyOp54
 70
     1
102
RTVSPropertyOp55
 70
     1
102
RTVSPropertyOp56
 70
     1
102
RTVSPropertyOp57
 70
     1
102
RTVSPost2010Prop28
280
     0
102
RTVSPost2010PropOp28
 70
     1
102
RTVSPost2010Prop29
280
     1
102
RTVSPost2010PropOp29
 70
     1
102
RTVSPost2010Prop30
280
     1
102
RTVSPost2010PropOp30
 70
     1
102
RTVSPost2010Prop31
280
     0
102
RTVSPost2010PropOp31
 70
     1
102
RTVSPost2010Prop32
280
     0
102
RTVSPost2010PropOp32
 70
     1
102
RTVSPost2010Prop33
280
     0
102
RTVSPost2010PropOp33
 70
     1
102
RTVSPost2010Prop34
280
     0
102
RTVSPost2010PropOp34
 70
     1
102
RTVSPost2010Prop35
280
     0
102
RTVSPost2010PropOp35
 70
     1
102
RTVSPost2010Prop36
280
     0
102
RTVSPost2010PropOp36
 70
     1
102
RTVSPost2010Prop37
 90
       50
102
RTVSPost2010PropOp37
 70
     1
102
RTVSPost2010Prop38
140
0.0
102
RTVSPost2010PropOp38
 70
     1
102
RTVSPost2010Prop39
140
1.0
102
RTVSPost2010PropOp39
 70
     1
102
RTVSPost2010Prop40
 90
        0
102
RTVSPost2010PropOp40
 70
     1
102
RTVSPost2010Prop41ColorIndex
 90
       18
102
RTVSPost2010Prop41ColorRGB
 90
        0
102
RTVSPost2010PropOp41
 70
     1
102
RTVSPost2010Prop42
 90
       50
102
RTVSPost2010PropOp42
 70
     1
102
RTVSPost2010Prop43
 90
        3
102
RTVSPost2010PropOp43
 70
     1
102
RTVSPost2010Prop44ColorIndex
 90
        5
102
RTVSPost2010Prop44ColorRGB
 90
      255
102
RTVSPost2010PropOp44
 70
     1
102
RTVSPost2010Prop45
280
     0
102
RTVSPost2010PropOp45
 70
     1
102
RTVSPost2010Prop46
 90
       50
102
RTVSPost2010PropOp46
 70
     1
102
RTVSPost2010Prop47
 90
       50
102
RTVSPost2010PropOp47
 70
     1
102
RTVSPost2010Prop48
 90
       50
102
RTVSPost2010PropOp48
 70
     1
102
RTVSPost2010Prop49
280
     0
102
RTVSPost2010PropOp49
 70
     1
102
RTVSPost2010Prop50
 90
       50
102
RTVSPost2010PropOp50
 70
     1
102
RTVSPost2010Prop51ColorIndex
 90
      256
102
RTVSPost2010Prop51ColorRGB
 90
-16777216
102
RTVSPost2010PropOp51
 70
     0
102
RTVSPost2010Prop52
140
1.0
102
RTVSPost2010PropOp52
 70
     0
102
RTVSPost2010Prop53
 90
        2
102
RTVSPost2010PropOp53
 70
     1
102
RTVSPost2010Prop54
  1
strokes_ogs.tif
102
RTVSPost2010PropOp54
 70
     1
102
RTVSPost2010Prop55
280
     0
102
RTVSPost2010PropOp55
 70
     1
102
RTVSPost2010Prop56
140
1.0
102
RTVSPost2010PropOp56
 70
     1
102
RTVSPost2010Prop57
140
1.0
102
RTVSPost2010PropOp57
 70
     1
  0
XRECORD
  5
5D3
102
{ACAD_REACTORS
330
5D2
102
}
330
5D2
100
AcDbXrecord
280
     1
102
RTVSPropertyOp0
 70
     1
102
RTVSPropertyOp1
 70
     1
102
RTVSPropertyOp2
 70
     1
102
RTVSPropertyOp3
 70
     1
102
RTVSPropertyOp4
 70
     1
102
RTVSPropertyOp5
 70
     1
102
RTVSPropertyOp6
 70
     1
102
RTVSPropertyOp7
 70
     1
102
RTVSPropertyOp8
 70
     1
102
RTVSPropertyOp9
 70
     1
102
RTVSPropertyOp10
 70
     1
102
RTVSPropertyOp11
 70
     1
102
RTVSPropertyOp12
 70
     1
102
RTVSPropertyOp13
 70
     1
102
RTVSPropertyOp14
 70
     1
102
RTVSPropertyOp15
 70
     1
102
RTVSPropertyOp16
 70
     1
102
RTVSPropertyOp17
 70
     1
102
RTVSPropertyOp18
 70
     1
102
RTVSPropertyOp19
 70
     1
102
RTVSPropertyOp20
 70
     1
102
RTVSPropertyOp21
 70
     1
102
RTVSPropertyOp22
 70
     1
102
RTVSPropertyOp23
 70
     1
102
RTVSPropertyOp24
 70
     1
102
RTVSPropertyOp25
 70
     1
102
RTVSPropertyOp26
 70
     1
102
RTVSPropertyOp27
 70
     1
102
RTVSPropertyOp28
 70
     1
102
RTVSPropertyOp29
 70
     1
102
RTVSPropertyOp30
 70
     1
102
RTVSPropertyOp31
 70
     1
102
RTVSPropertyOp32
 70
     1
102
RTVSPropertyOp33
 70
     1
102
RTVSPropertyOp34
 70
     1
102
RTVSPropertyOp35
 70
     1
102
RTVSPropertyOp36
 70
     1
102
RTVSPropertyOp37
 70
     1
102
RTVSPropertyOp38
 70
     1
102
RTVSPropertyOp39
 70
     1
102
RTVSPropertyOp40
 70
     1
102
RTVSPropertyOp41
 70
     1
102
RTVSPropertyOp42
 70
     1
102
RTVSPropertyOp43
 70
     1
102
RTVSPropertyOp44
 70
     1
102
RTVSPropertyOp45
 70
     1
102
RTVSPropertyOp46
 70
     1
102
RTVSPropertyOp47
 70
     1
102
RTVSPropertyOp48
 70
     1
102
RTVSPropertyOp49
 70
     1
102
RTVSPropertyOp50
 70
     1
102
RTVSPropertyOp51
 70
     0
102
RTVSPropertyOp52
 70
     0
102
RTVSPropertyOp53
 70
     1
102
RTVSPropertyOp54
 70
     1
102
RTVSPropertyOp55
 70
     1
102
RTVSPropertyOp56
 70
     1
102
RTVSPropertyOp57
 70
     1
102
RTVSPost2010Prop28
280
     0
102
RTVSPost2010PropOp28
 70
     1
102
RTVSPost2010Prop29
280
     1
102
RTVSPost2010PropOp29
 70
     1
102
RTVSPost2010Prop30
280
     1
102
RTVSPost2010PropOp30
 70
     1
102
RTVSPost2010Prop31
280
     0
102
RTVSPost2010PropOp31
 70
     1
102
RTVSPost2010Prop32
280
     0
102
RTVSPost2010PropOp32
 70
     1
102
RTVSPost2010Prop33
280
     0
102
RTVSPost2010PropOp33
 70
     1
102
RTVSPost2010Prop34
280
     0
102
RTVSPost2010PropOp34
 70
     1
102
RTVSPost2010Prop35
280
     0
102
RTVSPost2010PropOp35
 70
     1
102
RTVSPost2010Prop36
280
     0
102
RTVSPost2010PropOp36
 70
     1
102
RTVSPost2010Prop37
 90
       50
102
RTVSPost2010PropOp37
 70
     1
102
RTVSPost2010Prop38
140
0.0
102
RTVSPost2010PropOp38
 70
     1
102
RTVSPost2010Prop39
140
1.0
102
RTVSPost2010PropOp39
 70
     1
102
RTVSPost2010Prop40
 90
        0
102
RTVSPost2010PropOp40
 70
     1
102
RTVSPost2010Prop41ColorIndex
 90
       18
102
RTVSPost2010Prop41ColorRGB
 90
        0
102
RTVSPost2010PropOp41
 70
     1
102
RTVSPost2010Prop42
 90
       50
102
RTVSPost2010PropOp42
 70
     1
102
RTVSPost2010Prop43
 90
        3
102
RTVSPost2010PropOp43
 70
     1
102
RTVSPost2010Prop44ColorIndex
 90
        5
102
RTVSPost2010Prop44ColorRGB
 90
      255
102
RTVSPost2010PropOp44
 70
     1
102
RTVSPost2010Prop45
280
     0
102
RTVSPost2010PropOp45
 70
     1
102
RTVSPost2010Prop46
 90
       50
102
RTVSPost2010PropOp46
 70
     1
102
RTVSPost2010Prop47
 90
       50
102
RTVSPost2010PropOp47
 70
     1
102
RTVSPost2010Prop48
 90
       50
102
RTVSPost2010PropOp48
 70
     1
102
RTVSPost2010Prop49
280
     0
102
RTVSPost2010PropOp49
 70
     1
102
RTVSPost2010Prop50
 90
       50
102
RTVSPost2010PropOp50
 70
     1
102
RTVSPost2010Prop51ColorIndex
 90
      256
102
RTVSPost2010Prop51ColorRGB
 90
-16777216
102
RTVSPost2010PropOp51
 70
     0
102
RTVSPost2010Prop52
140
1.0
102
RTVSPost2010PropOp52
 70
     0
102
RTVSPost2010Prop53
 90
        2
102
RTVSPost2010PropOp53
 70
     1
102
RTVSPost2010Prop54
  1
strokes_ogs.tif
102
RTVSPost2010PropOp54
 70
     1
102
RTVSPost2010Prop55
280
     0
102
RTVSPost2010PropOp55
 70
     1
102
RTVSPost2010Prop56
140
1.0
102
RTVSPost2010PropOp56
 70
     1
102
RTVSPost2010Prop57
140
1.0
102
RTVSPost2010PropOp57
 70
     1
  0
XRECORD
  5
5F3
102
{ACAD_REACTORS
330
5F2
102
}
330
5F2
100
AcDbXrecord
280
     1
102
RTVSPropertyOp0
 70
     1
102
RTVSPropertyOp1
 70
     1
102
RTVSPropertyOp2
 70
     1
102
RTVSPropertyOp3
 70
     1
102
RTVSPropertyOp4
 70
     1
102
RTVSPropertyOp5
 70
     1
102
RTVSPropertyOp6
 70
     1
102
RTVSPropertyOp7
 70
     1
102
RTVSPropertyOp8
 70
     1
102
RTVSPropertyOp9
 70
     1
102
RTVSPropertyOp10
 70
     1
102
RTVSPropertyOp11
 70
     1
102
RTVSPropertyOp12
 70
     1
102
RTVSPropertyOp13
 70
     1
102
RTVSPropertyOp14
 70
     1
102
RTVSPropertyOp15
 70
     1
102
RTVSPropertyOp16
 70
     1
102
RTVSPropertyOp17
 70
     1
102
RTVSPropertyOp18
 70
     1
102
RTVSPropertyOp19
 70
     1
102
RTVSPropertyOp20
 70
     1
102
RTVSPropertyOp21
 70
     1
102
RTVSPropertyOp22
 70
     1
102
RTVSPropertyOp23
 70
     1
102
RTVSPropertyOp24
 70
     1
102
RTVSPropertyOp25
 70
     1
102
RTVSPropertyOp26
 70
     1
102
RTVSPropertyOp27
 70
     1
102
RTVSPropertyOp28
 70
     1
102
RTVSPropertyOp29
 70
     1
102
RTVSPropertyOp30
 70
     1
102
RTVSPropertyOp31
 70
     1
102
RTVSPropertyOp32
 70
     1
102
RTVSPropertyOp33
 70
     1
102
RTVSPropertyOp34
 70
     1
102
RTVSPropertyOp35
 70
     1
102
RTVSPropertyOp36
 70
     1
102
RTVSPropertyOp37
 70
     1
102
RTVSPropertyOp38
 70
     1
102
RTVSPropertyOp39
 70
     1
102
RTVSPropertyOp40
 70
     1
102
RTVSPropertyOp41
 70
     1
102
RTVSPropertyOp42
 70
     1
102
RTVSPropertyOp43
 70
     1
102
RTVSPropertyOp44
 70
     1
102
RTVSPropertyOp45
 70
     1
102
RTVSPropertyOp46
 70
     1
102
RTVSPropertyOp47
 70
     1
102
RTVSPropertyOp48
 70
     1
102
RTVSPropertyOp49
 70
     1
102
RTVSPropertyOp50
 70
     1
102
RTVSPropertyOp51
 70
     0
102
RTVSPropertyOp52
 70
     0
102
RTVSPropertyOp53
 70
     1
102
RTVSPropertyOp54
 70
     1
102
RTVSPropertyOp55
 70
     1
102
RTVSPropertyOp56
 70
     1
102
RTVSPropertyOp57
 70
     1
102
RTVSPost2010Prop28
280
     0
102
RTVSPost2010PropOp28
 70
     1
102
RTVSPost2010Prop29
280
     1
102
RTVSPost2010PropOp29
 70
     1
102
RTVSPost2010Prop30
280
     1
102
RTVSPost2010PropOp30
 70
     1
102
RTVSPost2010Prop31
280
     0
102
RTVSPost2010PropOp31
 70
     1
102
RTVSPost2010Prop32
280
     0
102
RTVSPost2010PropOp32
 70
     1
102
RTVSPost2010Prop33
280
     0
102
RTVSPost2010PropOp33
 70
     1
102
RTVSPost2010Prop34
280
     0
102
RTVSPost2010PropOp34
 70
     1
102
RTVSPost2010Prop35
280
     0
102
RTVSPost2010PropOp35
 70
     1
102
RTVSPost2010Prop36
280
     0
102
RTVSPost2010PropOp36
 70
     1
102
RTVSPost2010Prop37
 90
       50
102
RTVSPost2010PropOp37
 70
     1
102
RTVSPost2010Prop38
140
0.0
102
RTVSPost2010PropOp38
 70
     1
102
RTVSPost2010Prop39
140
1.0
102
RTVSPost2010PropOp39
 70
     1
102
RTVSPost2010Prop40
 90
        0
102
RTVSPost2010PropOp40
 70
     1
102
RTVSPost2010Prop41ColorIndex
 90
       18
102
RTVSPost2010Prop41ColorRGB
 90
        0
102
RTVSPost2010PropOp41
 70
     1
102
RTVSPost2010Prop42
 90
       50
102
RTVSPost2010PropOp42
 70
     1
102
RTVSPost2010Prop43
 90
        3
102
RTVSPost2010PropOp43
 70
     1
102
RTVSPost2010Prop44ColorIndex
 90
        5
102
RTVSPost2010Prop44ColorRGB
 90
      255
102
RTVSPost2010PropOp44
 70
     1
102
RTVSPost2010Prop45
280
     0
102
RTVSPost2010PropOp45
 70
     1
102
RTVSPost2010Prop46
 90
       50
102
RTVSPost2010PropOp46
 70
     1
102
RTVSPost2010Prop47
 90
       50
102
RTVSPost2010PropOp47
 70
     1
102
RTVSPost2010Prop48
 90
       50
102
RTVSPost2010PropOp48
 70
     1
102
RTVSPost2010Prop49
280
     0
102
RTVSPost2010PropOp49
 70
     1
102
RTVSPost2010Prop50
 90
       50
102
RTVSPost2010PropOp50
 70
     1
102
RTVSPost2010Prop51ColorIndex
 90
      256
102
RTVSPost2010Prop51ColorRGB
 90
-16777216
102
RTVSPost2010PropOp51
 70
     0
102
RTVSPost2010Prop52
140
1.0
102
RTVSPost2010PropOp52
 70
     0
102
RTVSPost2010Prop53
 90
        2
102
RTVSPost2010PropOp53
 70
     1
102
RTVSPost2010Prop54
  1
strokes_ogs.tif
102
RTVSPost2010PropOp54
 70
     1
102
RTVSPost2010Prop55
280
     0
102
RTVSPost2010PropOp55
 70
     1
102
RTVSPost2010Prop56
140
1.0
102
RTVSPost2010PropOp56
 70
     1
102
RTVSPost2010Prop57
140
1.0
102
RTVSPost2010PropOp57
 70
     1
  0
ENDSEC
  0
EOF
